  0
SECTION
  2
HEADER
  9
$ACADVER
  1
AC1015
  9
$ACADMAINTVER
 70
     6
  9
$DWGCODEPAGE
  3
ANSI_1252
  9
$INSBASE
 10
0.0
 20
0.0
 30
0.0
  9
$EXTMIN
 10
-85.0
 20
-62.5
 30
0.0
  9
$EXTMAX
 10
1380.0
 20
66.5089844799
 30
0.0
  9
$LIMMIN
 10
0.0
 20
0.0
  9
$LIMMAX
 10
420.0
 20
297.0
  9
$ORTHOMODE
 70
     0
  9
$REGENMODE
 70
     1
  9
$FILLMODE
 70
     1
  9
$QTEXTMODE
 70
     0
  9
$MIRRTEXT
 70
     1
  9
$LTSCALE
 40
1.0
  9
$ATTMODE
 70
     1
  9
$TEXTSIZE
 40
3.5
  9
$TRACEWID
 40
1.0
  9
$TEXTSTYLE
  7
Standard
  9
$CLAYER
  8
0
  9
$CELTYPE
  6
ByLayer
  9
$CECOLOR
 62
   256
  9
$CELTSCALE
 40
1.0
  9
$DISPSILH
 70
     0
  9
$DIMSCALE
 40
1.0
  9
$DIMASZ
 40
3.556
  9
$DIMEXO
 40
1.0
  9
$DIMDLI
 40
3.75
  9
$DIMRND
 40
0.0
  9
$DIMDLE
 40
0.0
  9
$DIMEXE
 40
1.0
  9
$DIMTP
 40
0.0
  9
$DIMTM
 40
0.0
  9
$DIMTXT
 40
3.5
  9
$DIMCEN
 40
2.5
  9
$DIMTSZ
 40
0.0
  9
$DIMTOL
 70
     0
  9
$DIMLIM
 70
     0
  9
$DIMTIH
 70
     1
  9
$DIMTOH
 70
     1
  9
$DIMSE1
 70
     0
  9
$DIMSE2
 70
     0
  9
$DIMTAD
 70
     1
  9
$DIMZIN
 70
     0
  9
$DIMBLK
  1

  9
$DIMASO
 70
     1
  9
$DIMSHO
 70
     1
  9
$DIMPOST
  1

  9
$DIMAPOST
  1

  9
$DIMALT
 70
     0
  9
$DIMALTD
 70
     3
  9
$DIMALTF
 40
0.0393700787
  9
$DIMLFAC
 40
1.0
  9
$DIMTOFL
 70
     1
  9
$DIMTVP
 40
0.0
  9
$DIMTIX
 70
     0
  9
$DIMSOXD
 70
     0
  9
$DIMSAH
 70
     0
  9
$DIMBLK1
  1

  9
$DIMBLK2
  1

  9
$DIMSTYLE
  2
ISO-25
  9
$DIMCLRD
 70
     0
  9
$DIMCLRE
 70
     0
  9
$DIMCLRT
 70
     0
  9
$DIMTFAC
 40
1.0
  9
$DIMGAP
 40
1.524
  9
$DIMJUST
 70
     0
  9
$DIMSD1
 70
     0
  9
$DIMSD2
 70
     0
  9
$DIMTOLJ
 70
     0
  9
$DIMTZIN
 70
     0
  9
$DIMALTZ
 70
     0
  9
$DIMALTTZ
 70
     0
  9
$DIMUPT
 70
     0
  9
$DIMDEC
 70
     2
  9
$DIMTDEC
 70
     2
  9
$DIMALTU
 70
     2
  9
$DIMALTTD
 70
     3
  9
$DIMTXSTY
  7
Standard
  9
$DIMAUNIT
 70
     0
  9
$DIMADEC
 70
     2
  9
$DIMALTRND
 40
0.0
  9
$DIMAZIN
 70
     0
  9
$DIMDSEP
 70
    44
  9
$DIMATFIT
 70
     3
  9
$DIMFRAC
 70
     0
  9
$DIMLDRBLK
  1

  9
$DIMLUNIT
 70
     2
  9
$DIMLWD
 70
    -2
  9
$DIMLWE
 70
    -2
  9
$DIMTMOVE
 70
     0
  9
$LUNITS
 70
     2
  9
$LUPREC
 70
     2
  9
$SKETCHINC
 40
1.0
  9
$FILLETRAD
 40
10.0
  9
$AUNITS
 70
     0
  9
$AUPREC
 70
     2
  9
$MENU
  1
.
  9
$ELEVATION
 40
0.0
  9
$PELEVATION
 40
0.0
  9
$THICKNESS
 40
0.0
  9
$LIMCHECK
 70
     0
  9
$CHAMFERA
 40
0.0
  9
$CHAMFERB
 40
0.0
  9
$CHAMFERC
 40
0.0
  9
$CHAMFERD
 40
0.0
  9
$SKPOLY
 70
     0
  9
$TDCREATE
 40
2457318.637877188
  9
$TDUCREATE
 40
2457318.554543854
  9
$TDUPDATE
 40
2457318.637927778
  9
$TDUUPDATE
 40
2457318.554594445
  9
$TDINDWG
 40
0.0000000116
  9
$TDUSRTIMER
 40
0.0000000116
  9
$USRTIMER
 70
     1
  9
$ANGBASE
 50
0.0
  9
$ANGDIR
 70
     0
  9
$PDMODE
 70
     0
  9
$PDSIZE
 40
-1.0
  9
$PLINEWID
 40
0.0
  9
$SPLFRAME
 70
     0
  9
$SPLINETYPE
 70
     6
  9
$SPLINESEGS
 70
     8
  9
$HANDSEED
  5
370
  9
$SURFTAB1
 70
     6
  9
$SURFTAB2
 70
     6
  9
$SURFTYPE
 70
     6
  9
$SURFU
 70
     6
  9
$SURFV
 70
     6
  9
$UCSBASE
  2

  9
$UCSNAME
  2

  9
$UCSORG
 10
0.0
 20
0.0
 30
0.0
  9
$UCSXDIR
 10
1.0
 20
0.0
 30
0.0
  9
$UCSYDIR
 10
0.0
 20
1.0
 30
0.0
  9
$UCSORTHOREF
  2

  9
$UCSORTHOVIEW
 70
     0
  9
$UCSORGTOP
 10
0.0
 20
0.0
 30
0.0
  9
$UCSORGBOTTOM
 10
0.0
 20
0.0
 30
0.0
  9
$UCSORGLEFT
 10
0.0
 20
0.0
 30
0.0
  9
$UCSORGRIGHT
 10
0.0
 20
0.0
 30
0.0
  9
$UCSORGFRONT
 10
0.0
 20
0.0
 30
0.0
  9
$UCSORGBACK
 10
0.0
 20
0.0
 30
0.0
  9
$PUCSBASE
  2

  9
$PUCSNAME
  2

  9
$PUCSORG
 10
0.0
 20
0.0
 30
0.0
  9
$PUCSXDIR
 10
1.0
 20
0.0
 30
0.0
  9
$PUCSYDIR
 10
0.0
 20
1.0
 30
0.0
  9
$PUCSORTHOREF
  2

  9
$PUCSORTHOVIEW
 70
     0
  9
$PUCSORGTOP
 10
0.0
 20
0.0
 30
0.0
  9
$PUCSORGBOTTOM
 10
0.0
 20
0.0
 30
0.0
  9
$PUCSORGLEFT
 10
0.0
 20
0.0
 30
0.0
  9
$PUCSORGRIGHT
 10
0.0
 20
0.0
 30
0.0
  9
$PUCSORGFRONT
 10
0.0
 20
0.0
 30
0.0
  9
$PUCSORGBACK
 10
0.0
 20
0.0
 30
0.0
  9
$USERI1
 70
     0
  9
$USERI2
 70
     0
  9
$USERI3
 70
     0
  9
$USERI4
 70
     0
  9
$USERI5
 70
     0
  9
$USERR1
 40
0.0
  9
$USERR2
 40
0.0
  9
$USERR3
 40
0.0
  9
$USERR4
 40
0.0
  9
$USERR5
 40
0.0
  9
$WORLDVIEW
 70
     1
  9
$SHADEDGE
 70
     3
  9
$SHADEDIF
 70
    70
  9
$TILEMODE
 70
     1
  9
$MAXACTVP
 70
    64
  9
$PINSBASE
 10
0.0
 20
0.0
 30
0.0
  9
$PLIMCHECK
 70
     0
  9
$PEXTMIN
 10
1.0000000000E+20
 20
1.0000000000E+20
 30
1.0000000000E+20
  9
$PEXTMAX
 10
-1.0000000000E+20
 20
-1.0000000000E+20
 30
-1.0000000000E+20
  9
$PLIMMIN
 10
0.0
 20
0.0
  9
$PLIMMAX
 10
420.0
 20
297.0
  9
$UNITMODE
 70
     0
  9
$VISRETAIN
 70
     1
  9
$PLINEGEN
 70
     0
  9
$PSLTSCALE
 70
     1
  9
$TREEDEPTH
 70
  3020
  9
$CMLSTYLE
  2
Standard
  9
$CMLJUST
 70
     0
  9
$CMLSCALE
 40
20.0
  9
$PROXYGRAPHICS
 70
     1
  9
$MEASUREMENT
 70
     1
  9
$CELWEIGHT
370
    -1
  9
$ENDCAPS
280
     0
  9
$JOINSTYLE
280
     0
  9
$LWDISPLAY
290
     1
  9
$INSUNITS
 70
     4
  9
$HYPERLINKBASE
  1

  9
$STYLESHEET
  1

  9
$XEDIT
290
     1
  9
$CEPSNTYPE
380
     0
  9
$PSTYLEMODE
290
     1
  9
$FINGERPRINTGUID
  2
{E51BF543-C9EC-449E-A857-0B21DD56B552}
  9
$VERSIONGUID
  2
{FAEB1C32-E019-11D5-929B-00C0DF256EC4}
  9
$EXTNAMES
290
     1
  9
$PSVPSCALE
 40
0.0
  9
$OLESTARTUP
290
     0
  0
ENDSEC
  0
SECTION
  2
CLASSES
  0
CLASS
  1
ACDBDICTIONARYWDFLT
  2
AcDbDictionaryWithDefault
  3
ObjectDBX Classes
 90
        0
280
     0
281
     0
  0
CLASS
  1
VISUALSTYLE
  2
AcDbVisualStyle
  3
ObjectDBX Classes
 90
     4095
280
     0
281
     0
  0
CLASS
  1
MATERIAL
  2
AcDbMaterial
  3
ObjectDBX Classes
 90
     1153
280
     0
281
     0
  0
CLASS
  1
SCALE
  2
AcDbScale
  3
ObjectDBX Classes
 90
     1153
280
     0
281
     0
  0
CLASS
  1
TABLESTYLE
  2
AcDbTableStyle
  3
ObjectDBX Classes
 90
     4095
280
     0
281
     0
  0
CLASS
  1
MLEADERSTYLE
  2
AcDbMLeaderStyle
  3
ACDB_MLEADERSTYLE_CLASS
 90
     4095
280
     0
281
     0
  0
CLASS
  1
SUN
  2
AcDbSun
  3
SCENEOE
 90
     1153
280
     0
281
     0
  0
CLASS
  1
ACDBPLACEHOLDER
  2
AcDbPlaceHolder
  3
ObjectDBX Classes
 90
        0
280
     0
281
     0
  0
CLASS
  1
LAYOUT
  2
AcDbLayout
  3
ObjectDBX Classes
 90
        0
280
     0
281
     0
  0
ENDSEC
  0
SECTION
  2
TABLES
  0
TABLE
  2
VPORT
  5
8
330
0
100
AcDbSymbolTable
 70
     1
  0
VPORT
  5
29
330
8
100
AcDbSymbolTableRecord
100
AcDbViewportTableRecord
  2
*Active
 70
     0
 10
0.0
 20
0.0
 11
1.0
 21
1.0
 12
647.5
 22
2.00449224
 13
0.0
 23
0.0
 14
10.0
 24
10.0
 15
10.0
 25
10.0
 16
0.0
 26
0.0
 36
1.0
 17
0.0
 27
0.0
 37
0.0
 40
131.5891641695
 41
11.3557982485
 42
50.0
 43
0.0
 44
0.0
 50
0.0
 51
0.0
 71
     0
 72
   100
 73
     1
 74
     3
 75
     0
 76
     0
 77
     0
 78
     0
281
     0
 65
     1
110
0.0
120
0.0
130
0.0
111
1.0
121
0.0
131
0.0
112
0.0
122
1.0
132
0.0
 79
     0
146
0.0
  0
ENDTAB
  0
TABLE
  2
LTYPE
  5
5
330
0
100
AcDbSymbolTable
 70
     6
  0
LTYPE
  5
14
330
5
100
AcDbSymbolTableRecord
100
AcDbLinetypeTableRecord
  2
ByBlock
 70
     0
  3

 72
    65
 73
     0
 40
0.0
  0
LTYPE
  5
15
330
5
100
AcDbSymbolTableRecord
100
AcDbLinetypeTableRecord
  2
ByLayer
 70
     0
  3

 72
    65
 73
     0
 40
0.0
  0
LTYPE
  5
16
330
5
100
AcDbSymbolTableRecord
100
AcDbLinetypeTableRecord
  2
Continuous
 70
     0
  3
Solid line
 72
    65
 73
     0
 40
0.0
  0
LTYPE
  5
6E
330
5
100
AcDbSymbolTableRecord
100
AcDbLinetypeTableRecord
  2
HIDDEN
 70
     0
  3
Hidden __ __ __ __ __ __ __ __ __ __ __ __ __ __
 72
    65
 73
     2
 40
1.905
 49
1.27
 74
     0
 49
-0.635
 74
     0
  0
LTYPE
  5
6F
330
5
100
AcDbSymbolTableRecord
100
AcDbLinetypeTableRecord
  2
PHANTOM
 70
     0
  3
Phantom ______  __  __  ______  __  __  ______
 72
    65
 73
     6
 40
12.7
 49
6.35
 74
     0
 49
-1.27
 74
     0
 49
1.27
 74
     0
 49
-1.27
 74
     0
 49
1.27
 74
     0
 49
-1.27
 74
     0
  0
LTYPE
  5
70
330
5
100
AcDbSymbolTableRecord
100
AcDbLinetypeTableRecord
  2
CENTER
 70
     0
  3
Center ____ _ ____ _ ____ _ ____ _ ____ _ ____
 72
    65
 73
     4
 40
10.16
 49
6.35
 74
     0
 49
-1.27
 74
     0
 49
1.27
 74
     0
 49
-1.27
 74
     0
  0
LTYPE
  5
71
330
5
100
AcDbSymbolTableRecord
100
AcDbLinetypeTableRecord
  2
CENTERX2
 70
     0
  3
Center (2x) ________  __  ________  __  _____
 72
    65
 73
     4
 40
20.32
 49
12.7
 74
     0
 49
-2.54
 74
     0
 49
2.54
 74
     0
 49
-2.54
 74
     0
  0
LTYPE
  5
72
330
5
100
AcDbSymbolTableRecord
100
AcDbLinetypeTableRecord
  2
DOT2
 70
     0
  3
Dot (.5x) ........................................
 72
    65
 73
     2
 40
0.635
 49
0.0
 74
     0
 49
-0.635
 74
     0
  0
ENDTAB
  0
TABLE
  2
LAYER
  5
2
330
0
100
AcDbSymbolTable
 70
     1
  0
LAYER
  5
10
330
2
100
AcDbSymbolTableRecord
100
AcDbLayerTableRecord
  2
0
 70
     0
 62
     7
  6
Continuous
370
    -3
390
F
  0
ENDTAB
  0
TABLE
  2
STYLE
  5
3
330
0
100
AcDbSymbolTable
 70
     1
  0
STYLE
  5
11
330
3
100
AcDbSymbolTableRecord
100
AcDbTextStyleTableRecord
  2
Standard
 70
     0
 40
0.0
 41
1.0
 50
0.0
 71
     0
 42
3.5
  3
txt
  4

  0
ENDTAB
  0
TABLE
  2
VIEW
  5
6
330
0
100
AcDbSymbolTable
 70
     0
  0
ENDTAB
  0
TABLE
  2
UCS
  5
7
330
0
100
AcDbSymbolTable
 70
     0
  0
ENDTAB
  0
TABLE
  2
APPID
  5
9
330
0
100
AcDbSymbolTable
 70
     1
  0
APPID
  5
12
330
9
100
AcDbSymbolTableRecord
100
AcDbRegAppTableRecord
  2
ACAD
 70
     0
  0
ENDTAB
  0
TABLE
  2
DIMSTYLE
  5
A
330
0
100
AcDbSymbolTable
 70
     1
100
AcDbDimStyleTable
  0
DIMSTYLE
105
27
330
A
100
AcDbSymbolTableRecord
100
AcDbDimStyleTableRecord
  2
ISO-25
 70
     0
 41
2.5
 42
0.625
 43
3.75
 44
1.25
 73
     0
 74
     0
 77
     1
 78
     8
140
2.5
141
2.5
143
0.0393700787
147
0.625
171
     3
172
     1
178
     0
271
     2
272
     2
274
     3
278
    44
283
     0
284
     8
340
11
  0
ENDTAB
  0
TABLE
  2
BLOCK_RECORD
  5
1
330
0
100
AcDbSymbolTable
 70
     1
  0
BLOCK_RECORD
  5
1F
330
1
100
AcDbSymbolTableRecord
100
AcDbBlockTableRecord
  2
*Model_Space
340
22
  0
BLOCK_RECORD
  5
1B
330
1
100
AcDbSymbolTableRecord
100
AcDbBlockTableRecord
  2
*Paper_Space
340
1E
  0
BLOCK_RECORD
  5
23
330
1
100
AcDbSymbolTableRecord
100
AcDbBlockTableRecord
  2
*Paper_Space0
340
26
  0
ENDTAB
  0
ENDSEC
  0
SECTION
  2
BLOCKS
  0
BLOCK
  5
20
330
1F
100
AcDbEntity
  8
0
100
AcDbBlockBegin
  2
*Model_Space
 70
     0
 10
0.0
 20
0.0
 30
0.0
  3
*Model_Space
  1

  0
ENDBLK
  5
21
330
1F
100
AcDbEntity
  8
0
100
AcDbBlockEnd
  0
BLOCK
  5
1C
330
1B
100
AcDbEntity
 67
     1
  8
0
100
AcDbBlockBegin
  2
*Paper_Space
 70
     0
 10
0.0
 20
0.0
 30
0.0
  3
*Paper_Space
  1

  0
ENDBLK
  5
1D
330
1B
100
AcDbEntity
 67
     1
  8
0
100
AcDbBlockEnd
  0
BLOCK
  5
24
330
23
100
AcDbEntity
  8
0
100
AcDbBlockBegin
  2
*Paper_Space0
 70
     0
 10
0.0
 20
0.0
 30
0.0
  3
*Paper_Space0
  1

  0
ENDBLK
  5
25
330
23
100
AcDbEntity
  8
0
100
AcDbBlockEnd
  0
ENDSEC
  0
SECTION
  2
ENTITIES
  0
SPLINE
  5
18B
330
1F
100
AcDbEntity
  8
0
  6
Continuous
 62
     7
370
    15
100
AcDbSpline
210
0.0
220
0.0
230
1.0
 70
     8
 71
     3
 72
    30
 73
    26
 74
     0
 42
0.000000001
 43
0.00000001
 40
0.0
 40
0.0
 40
0.0
 40
0.0
 40
0.1250000000000002
 40
0.1250000000000002
 40
0.1875000000000008
 40
0.1875000000000008
 40
0.2500000000000015
 40
0.2500000000000015
 40
0.3125000000000022
 40
0.3125000000000022
 40
0.3750000000000028
 40
0.3750000000000028
 40
0.5000000000000042
 40
0.5000000000000042
 40
0.5625000000000044
 40
0.5625000000000044
 40
0.6250000000000047
 40
0.6250000000000047
 40
0.7500000000000039
 40
0.7500000000000039
 40
0.8125000000000034
 40
0.8125000000000034
 40
0.875000000000003
 40
0.875000000000003
 40
1.0
 40
1.0
 40
1.0
 40
1.0
 10
55.00000000000005
 20
-20.38684030775893
 30
0.0
 10
55.71265628008437
 20
-20.38684030775893
 30
0.0
 10
56.4103967719708
 20
-20.41599721174541
 30
0.0
 10
57.43584440393035
 20
-20.5011015277637
 30
0.0
 10
57.77514417079588
 20
-20.53656142443076
 30
0.0
 10
58.44195027313492
 20
-20.62114438671401
 30
0.0
 10
58.76519716035222
 20
-20.66967486182833
 30
0.0
 10
59.39255355086858
 20
-20.77849202468618
 30
0.0
 10
59.69665816412406
 20
-20.83878171641351
 30
0.0
 10
60.28621599135342
 20
-20.97081876914649
 30
0.0
 10
60.57291861481984
 20
-21.04292846292076
 30
0.0
 10
61.39585960843785
 20
-21.27392947954255
 30
0.0
 10
61.88966109958572
 20
-21.44539264532986
 30
0.0
 10
62.55573269759174
 20
-21.72635787678194
 30
0.0
 10
62.76591093647954
 20
-21.82437852896634
 30
0.0
 10
63.15802861924303
 20
-22.0266372728685
 30
0.0
 10
63.33895530805633
 20
-22.13026502071407
 30
0.0
 10
63.83910096324785
 20
-22.44818736756769
 30
0.0
 10
64.1160170494094
 20
-22.66946633285952
 30
0.0
 10
64.45042783529398
 20
-23.01475213646362
 30
0.0
 10
64.54771109231683
 20
-23.13158605449748
 30
0.0
 10
64.7129959226418
 20
-23.36592670036957
 30
0.0
 10
64.78139252215276
 20
-23.48383256341756
 30
0.0
 10
64.9453525657453
 20
-23.83967892772657
 30
0.0
 10
65.00000000000006
 20
-24.07973200486144
 30
0.0
 10
65.00000000000006
 20
-24.32260663892873
 30
0.0
  0
SPLINE
  5
18D
330
1F
100
AcDbEntity
  8
0
  6
Continuous
 62
     7
370
    15
100
AcDbSpline
210
0.0
220
0.0
230
1.0
 70
     8
 71
     3
 72
    28
 73
    24
 74
     0
 42
0.000000001
 43
0.00000001
 40
0.0
 40
0.0
 40
0.0
 40
0.0
 40
0.1249999999999986
 40
0.1249999999999986
 40
0.2499999999999972
 40
0.2499999999999972
 40
0.3124999999999976
 40
0.3124999999999976
 40
0.3749999999999981
 40
0.3749999999999981
 40
0.499999999999999
 40
0.499999999999999
 40
0.5624999999999987
 40
0.5624999999999987
 40
0.6249999999999982
 40
0.6249999999999982
 40
0.7499999999999977
 40
0.7499999999999977
 40
0.8124999999999984
 40
0.8124999999999984
 40
0.8749999999999991
 40
0.8749999999999991
 40
1.0
 40
1.0
 40
1.0
 40
1.0
 10
-65.00000000000006
 20
-24.32260663892873
 30
0.0
 10
-65.00000000000006
 20
-24.07888210303373
 30
0.0
 10
-64.94497255814468
 20
-23.83882020362074
 30
0.0
 10
-64.72702782486684
 20
-23.36587757269474
 30
0.0
 10
-64.56415217594935
 20
-23.13299406944902
 30
0.0
 10
-64.23263005446923
 20
-22.78947343797061
 30
0.0
 10
-64.10693916502319
 20
-22.67549844750068
 30
0.0
 10
-63.82654254546438
 20
-22.45166124166398
 30
0.0
 10
-63.6731292250422
 20
-22.34272386691041
 30
0.0
 10
-63.17324652527867
 20
-22.02485490975974
 30
0.0
 10
-62.78752863773207
 20
-21.82477755845268
 30
0.0
 10
-62.12383427081258
 20
-21.54386354360611
 30
0.0
 10
-61.88832753223306
 20
-21.45344595797521
 30
0.0
 10
-61.38627762862081
 20
-21.27961242077777
 30
0.0
 10
-61.12376696439892
 20
-21.19763621245853
 30
0.0
 10
-60.30658259927757
 20
-20.96800210152255
 30
0.0
 10
-59.72063720054454
 20
-20.83577040363671
 30
0.0
 10
-58.7750608351234
 20
-20.67120516760043
 30
0.0
 10
-58.44601332651911
 20
-20.62171963766205
 30
0.0
 10
-57.77895866384419
 20
-20.53698612653342
 30
0.0
 10
-57.4413157691005
 20
-20.50163553334205
 30
0.0
 10
-56.41622193529572
 20
-20.41632275260508
 30
0.0
 10
-55.71675792197206
 20
-20.38684030775894
 30
0.0
 10
-55.00000000000005
 20
-20.38684030775893
 30
0.0
  0
SPLINE
  5
1D3
330
1F
100
AcDbEntity
  8
0
  6
Continuous
 62
     7
370
    15
100
AcDbSpline
210
0.0
220
0.0
230
1.0
 70
     8
 71
     3
 72
    12
 73
     8
 74
     0
 42
0.000000001
 43
0.00000001
 40
0.0
 40
0.0
 40
0.0
 40
0.0
 40
0.2500000000000057
 40
0.2500000000000057
 40
0.5000000000000113
 40
0.5000000000000113
 40
1.0
 40
1.0
 40
1.0
 40
1.0
 10
-74.89486489683439
 20
10.50000000000007
 30
0.0
 10
-74.77748800203854
 20
10.50000000000009
 30
0.0
 10
-74.66320889647227
 20
10.5202075973104
 30
0.0
 10
-74.44287265955296
 20
10.6005423037478
 30
0.0
 10
-74.34017088775747
 20
10.66014211315307
 30
0.0
 10
-74.07176574642182
 20
10.88686816473528
 30
0.0
 10
-73.94914726765145
 20
11.10160020357795
 30
0.0
 10
-73.90999999999981
 20
11.33304440830763
 30
0.0
  0
SPLINE
  5
1D7
330
1F
100
AcDbEntity
  8
0
  6
Continuous
 62
     7
370
    15
100
AcDbSpline
210
0.0
220
0.0
230
1.0
 70
     8
 71
     3
 72
    16
 73
    12
 74
     0
 42
0.000000001
 43
0.00000001
 40
0.0
 40
0.0
 40
0.0
 40
0.0
 40
0.2500000000000005
 40
0.2500000000000005
 40
0.3750000000000004
 40
0.3750000000000004
 40
0.5000000000000003
 40
0.5000000000000003
 40
0.7500000000000001
 40
0.7500000000000001
 40
1.0
 40
1.0
 40
1.0
 40
1.0
 10
1348.349301371089
 20
48.78966960269661
 30
0.0
 10
1349.450483642707
 20
47.37172598207142
 30
0.0
 10
1350.402199157094
 20
45.87175955588159
 30
0.0
 10
1351.635996029742
 20
43.5062125136559
 30
0.0
 10
1352.014605411586
 20
42.69827586078353
 30
0.0
 10
1352.707714371732
 20
41.04305604979256
 30
0.0
 10
1353.022970230872
 20
40.19360815649719
 30
0.0
 10
1353.866759029771
 20
37.59858814708392
 30
0.0
 10
1354.286859622615
 20
35.83277518046845
 30
0.0
 10
1354.853477110833
 20
32.22926699590983
 30
0.0
 10
1355.000049469454
 20
30.3915963445191
 30
0.0
 10
1354.999993218609
 20
28.51530430096288
 30
0.0
  0
SPLINE
  5
1DB
330
1F
100
AcDbEntity
  8
0
  6
Continuous
 62
     7
370
    15
100
AcDbSpline
210
0.0
220
0.0
230
1.0
 70
     8
 71
     3
 72
     8
 73
     4
 74
     0
 42
0.000000001
 43
0.00000001
 40
0.0
 40
0.0
 40
0.0
 40
0.0
 40
1.0
 40
1.0
 40
1.0
 40
1.0
 10
96.97719959236706
 20
48.78068516049728
 30
0.0
 10
96.97717847248988
 20
46.73714370621422
 30
0.0
 10
96.97717919843407
 20
44.66868008655144
 30
0.0
 10
96.97720122702603
 20
42.57591396403839
 30
0.0
  0
SPLINE
  5
1DC
330
1F
100
AcDbEntity
  8
0
  6
Continuous
 62
     7
370
    15
100
AcDbSpline
210
0.0
220
0.0
230
1.0
 70
     8
 71
     3
 72
    12
 73
     8
 74
     0
 42
0.000000001
 43
0.00000001
 40
0.0
 40
0.0
 40
0.0
 40
0.0
 40
0.4999999999999971
 40
0.4999999999999971
 40
0.7499999999999986
 40
0.7499999999999986
 40
1.0
 40
1.0
 40
1.0
 40
1.0
 10
96.1482461617894
 20
50.4695788543077
 30
0.0
 10
96.3585387072715
 20
50.27813560823311
 30
0.0
 10
96.53857798173615
 20
50.04548516319611
 30
0.0
 10
96.75344498065597
 20
49.62023147650467
 30
0.0
 10
96.81520945793243
 20
49.46604509329606
 30
0.0
 10
96.91425991543889
 20
49.13920798429827
 30
0.0
 10
96.95211460897279
 20
48.96556000953916
 30
0.0
 10
96.97719959236706
 20
48.78068516049729
 30
0.0
  0
SPLINE
  5
1DD
330
1F
100
AcDbEntity
  8
0
  6
Continuous
 62
     7
370
    15
100
AcDbSpline
210
0.0
220
0.0
230
1.0
 70
     8
 71
     3
 72
     8
 73
     4
 74
     0
 42
0.000000001
 43
0.00000001
 40
0.0
 40
0.0
 40
0.0
 40
0.0
 40
1.0
 40
1.0
 40
1.0
 40
1.0
 10
93.12735511301196
 20
53.08238451767588
 30
0.0
 10
94.10257466205374
 20
52.20315257403296
 30
0.0
 10
95.11118236689875
 20
51.33264703839888
 30
0.0
 10
96.14824616178952
 20
50.4695788543077
 30
0.0
  0
SPLINE
  5
1DE
330
1F
100
AcDbEntity
  8
0
  6
Continuous
 62
     7
370
    15
100
AcDbSpline
210
0.0
220
0.0
230
1.0
 70
     8
 71
     3
 72
     8
 73
     4
 74
     0
 42
0.000000001
 43
0.00000001
 40
0.0
 40
0.0
 40
0.0
 40
0.0
 40
1.0
 40
1.0
 40
1.0
 40
1.0
 10
93.12735511301196
 20
53.08238451767589
 30
0.0
 10
93.13241223708879
 20
53.08763221490123
 30
0.0
 10
93.13747052812194
 20
53.09287823464837
 30
0.0
 10
93.14252998555361
 20
53.09812257728411
 30
0.0
  0
SPLINE
  5
1DF
330
1F
100
AcDbEntity
  8
0
  6
Continuous
 62
     7
370
    15
100
AcDbSpline
210
0.0
220
0.0
230
1.0
 70
     8
 71
     3
 72
     8
 73
     4
 74
     0
 42
0.000000001
 43
0.00000001
 40
0.0
 40
0.0
 40
0.0
 40
0.0
 40
1.0
 40
1.0
 40
1.0
 40
1.0
 10
96.1710176066778
 20
50.4785633710535
 30
0.0
 10
95.13127319234316
 20
51.34384253723402
 30
0.0
 10
94.12012113021385
 20
52.21659598820976
 30
0.0
 10
93.14253000560801
 20
53.09812255504792
 30
0.0
  0
SPLINE
  5
1E0
330
1F
100
AcDbEntity
  8
0
  6
Continuous
 62
     7
370
    15
100
AcDbSpline
210
0.0
220
0.0
230
1.0
 70
     8
 71
     3
 72
    12
 73
     8
 74
     0
 42
0.000000001
 43
0.00000001
 40
0.0
 40
0.0
 40
0.0
 40
0.0
 40
0.5000000000000054
 40
0.5000000000000054
 40
0.7500000000000027
 40
0.7500000000000027
 40
1.0
 40
1.0
 40
1.0
 40
1.0
 10
97.00000000274056
 20
48.78966962315471
 30
0.0
 10
96.94977568034314
 20
49.15979010639308
 30
0.0
 10
96.84946912432125
 20
49.4830615320366
 30
0.0
 10
96.63526219402507
 20
49.90880609932812
 30
0.0
 10
96.55329402576417
 20
50.03977734042736
 30
0.0
 10
96.37404512939906
 20
50.27624642837377
 30
0.0
 10
96.27627085742651
 20
50.38274670379016
 30
0.0
 10
96.17101760811575
 20
50.47856337307256
 30
0.0
  0
SPLINE
  5
1E3
330
1F
100
AcDbEntity
  8
0
  6
Continuous
 62
     7
370
    15
100
AcDbSpline
210
0.0
220
0.0
230
1.0
 70
     8
 71
     3
 72
    16
 73
    12
 74
     0
 42
0.000000001
 43
0.00000001
 40
0.0
 40
0.0
 40
0.0
 40
0.0
 40
0.2500000000000202
 40
0.2500000000000202
 40
0.3750000000000215
 40
0.3750000000000215
 40
0.5000000000000228
 40
0.5000000000000228
 40
0.7500000000000114
 40
0.7500000000000114
 40
1.0
 40
1.0
 40
1.0
 40
1.0
 10
90.8164904792027
 20
11.50000000000009
 30
0.0
 10
90.99920813189976
 20
11.50000000000009
 30
0.0
 10
91.17849869958849
 20
11.53595148455359
 30
0.0
 10
91.4297224355507
 20
11.6400220192582
 30
0.0
 10
91.50915905001766
 20
11.68247879700723
 30
0.0
 10
91.65950118803646
 20
11.78278362700072
 30
0.0
 10
91.7306906530846
 20
11.84116869366534
 30
0.0
 10
91.92210927597344
 20
12.03247678044884
 30
0.0
 10
92.02519599474812
 20
12.18668604518142
 30
0.0
 10
92.16330635227233
 20
12.51934062656385
 30
0.0
 10
92.20000000000017
 20
12.70085786397239
 30
0.0
 10
92.20000000000017
 20
12.88350952079758
 30
0.0
  0
SPLINE
  5
1E9
330
1F
100
AcDbEntity
  8
0
  6
Continuous
 62
     7
370
    15
100
AcDbSpline
210
0.0
220
0.0
230
1.0
 70
     8
 71
     3
 72
    16
 73
    12
 74
     0
 42
0.000000001
 43
0.00000001
 40
0.0
 40
0.0
 40
0.0
 40
0.0
 40
0.2499999999999996
 40
0.2499999999999996
 40
0.4999999999999992
 40
0.4999999999999992
 40
0.6249999999999996
 40
0.6249999999999996
 40
0.7499999999999999
 40
0.7499999999999999
 40
1.0
 40
1.0
 40
1.0
 40
1.0
 10
92.20000000000017
 20
27.00000000000006
 30
0.0
 10
92.18404608357112
 20
28.41853792230585
 30
0.0
 10
92.2802528915736
 20
29.81168734749412
 30
0.0
 10
92.68102581516014
 20
32.55084103466552
 30
0.0
 10
92.98566191062896
 20
33.8968290264358
 30
0.0
 10
93.59934408647774
 20
35.88114392630993
 30
0.0
 10
93.83066307333398
 20
36.53737121907019
 30
0.0
 10
94.33779444469114
 20
37.81674910979824
 30
0.0
 10
94.61438172625047
 20
38.44272241058351
 30
0.0
 10
95.51154903335623
 20
40.28107107002323
 30
0.0
 10
96.19907771765668
 20
41.45410208116274
 30
0.0
 10
96.97720122702603
 20
42.57591396403839
 30
0.0
  0
SPLINE
  5
1EB
330
1F
100
AcDbEntity
  8
0
  6
Continuous
 62
     7
370
    15
100
AcDbSpline
210
0.0
220
0.0
230
1.0
 70
     8
 71
     3
 72
    32
 73
    28
 74
     0
 42
0.000000001
 43
0.00000001
 40
0.0
 40
0.0
 40
0.0
 40
0.0
 40
0.124999999999999
 40
0.124999999999999
 40
0.1874999999999988
 40
0.1874999999999988
 40
0.2499999999999986
 40
0.2499999999999986
 40
0.3749999999999982
 40
0.3749999999999982
 40
0.437499999999998
 40
0.437499999999998
 40
0.4999999999999978
 40
0.4999999999999978
 40
0.624999999999998
 40
0.624999999999998
 40
0.7499999999999982
 40
0.7499999999999982
 40
0.8124999999999987
 40
0.8124999999999987
 40
0.8749999999999992
 40
0.8749999999999992
 40
0.9374999999999997
 40
0.9374999999999997
 40
0.9687499999999998
 40
0.9687499999999998
 40
1.0
 40
1.0
 40
1.0
 40
1.0
 10
-55.00000000000005
 20
-49.55770284369433
 30
0.0
 10
-55.67332078853604
 20
-49.55770284369432
 30
0.0
 10
-56.33467309853846
 20
-49.5121562175945
 30
0.0
 10
-57.3095498043874
 20
-49.37862666863921
 30
0.0
 10
-57.63162781892805
 20
-49.32316507474309
 30
0.0
 10
-58.26989185088771
 20
-49.18986929395071
 30
0.0
 10
-58.58540402414714
 20
-49.11200928893511
 30
0.0
 10
-59.50160848948205
 20
-48.85043495303761
 30
0.0
 10
-60.0796205408084
 20
-48.63757515007046
 30
0.0
 10
-60.89809342578811
 20
-48.26159079436026
 30
0.0
 10
-61.16398459977535
 20
-48.12596853348423
 30
0.0
 10
-61.66915025813879
 20
-47.84084584488858
 30
0.0
 10
-61.90933888740147
 20
-47.69106400593722
 30
0.0
 10
-62.59388798250509
 20
-47.22081685206118
 30
0.0
 10
-63.00367914548855
 20
-46.87849100299467
 30
0.0
 10
-63.72107614679157
 20
-46.14248182750784
 30
0.0
 10
-64.02004127291538
 20
-45.75817698326074
 30
0.0
 10
-64.38345282616275
 20
-45.15879693574805
 30
0.0
 10
-64.49031239326686
 20
-44.95515374174318
 30
0.0
 10
-64.67501793207475
 20
-44.54008350030942
 30
0.0
 10
-64.75268976374193
 20
-44.32861033223913
 30
0.0
 10
-64.87618837030374
 20
-43.90539718932231
 30
0.0
 10
-64.92247681875041
 20
-43.6927247735592
 30
0.0
 10
-64.96891023840445
 20
-43.37214728280804
 30
0.0
 10
-64.98054816193033
 20
-43.26502610580363
 30
0.0
 10
-64.99609591692735
 20
-43.0502582896725
 30
0.0
 10
-65.00000000000006
 20
-42.94137647148014
 30
0.0
 10
-65.00000000000006
 20
-42.83494089814613
 30
0.0
  0
SPLINE
  5
1FC
330
1F
100
AcDbEntity
  8
0
  6
Continuous
 62
     7
370
    15
100
AcDbSpline
210
0.0
220
0.0
230
1.0
 70
     8
 71
     3
 72
    32
 73
    28
 74
     0
 42
0.000000001
 43
0.00000001
 40
0.0
 40
0.0
 40
0.0
 40
0.0
 40
0.1249999999999973
 40
0.1249999999999973
 40
0.187499999999996
 40
0.187499999999996
 40
0.2499999999999948
 40
0.2499999999999948
 40
0.374999999999993
 40
0.374999999999993
 40
0.4374999999999934
 40
0.4374999999999934
 40
0.4999999999999939
 40
0.4999999999999939
 40
0.6249999999999952
 40
0.6249999999999952
 40
0.7499999999999967
 40
0.7499999999999967
 40
0.8124999999999973
 40
0.8124999999999973
 40
0.8749999999999979
 40
0.8749999999999979
 40
0.9374999999999986
 40
0.9374999999999986
 40
0.9687499999999992
 40
0.9687499999999992
 40
1.0
 40
1.0
 40
1.0
 40
1.0
 10
55.00000000000005
 20
-49.55770284369433
 30
0.0
 10
55.67332078853615
 20
-49.55770284369434
 30
0.0
 10
56.33467309853846
 20
-49.51215621759451
 30
0.0
 10
57.3095498043874
 20
-49.37862666863924
 30
0.0
 10
57.63162781892805
 20
-49.3231650747431
 30
0.0
 10
58.2698918508876
 20
-49.18986929395067
 30
0.0
 10
58.58540402414702
 20
-49.1120092889351
 30
0.0
 10
59.50160848948205
 20
-48.85043495303763
 30
0.0
 10
60.0796205408084
 20
-48.63757515007043
 30
0.0
 10
60.89809342578811
 20
-48.2615907943602
 30
0.0
 10
61.16398459977523
 20
-48.1259685334842
 30
0.0
 10
61.66915025813869
 20
-47.84084584488857
 30
0.0
 10
61.90933888740147
 20
-47.69106400593719
 30
0.0
 10
62.59388798250509
 20
-47.22081685206114
 30
0.0
 10
63.00367914548855
 20
-46.87849100299459
 30
0.0
 10
63.72107614679157
 20
-46.14248182750774
 30
0.0
 10
64.02004127291538
 20
-45.75817698326065
 30
0.0
 10
64.38345282616275
 20
-45.15879693574791
 30
0.0
 10
64.49031239326686
 20
-44.95515374174309
 30
0.0
 10
64.67501793207475
 20
-44.54008350030931
 30
0.0
 10
64.75268976374193
 20
-44.32861033223897
 30
0.0
 10
64.87618837030374
 20
-43.90539718932212
 30
0.0
 10
64.92247681875041
 20
-43.69272477355894
 30
0.0
 10
64.96891023840445
 20
-43.37214728280759
 30
0.0
 10
64.98054816193033
 20
-43.26502610580309
 30
0.0
 10
64.99609591692735
 20
-43.05025828967142
 30
0.0
 10
64.99999999999994
 20
-42.94137647145704
 30
0.0
 10
64.99999999999994
 20
-42.83494089814613
 30
0.0
  0
SPLINE
  5
1FF
330
1F
100
AcDbEntity
  8
0
  6
Continuous
 62
     7
370
    15
100
AcDbSpline
210
0.0
220
0.0
230
1.0
 70
     8
 71
     3
 72
    14
 73
    10
 74
     0
 42
0.000000001
 43
0.00000001
 40
0.0
 40
0.0
 40
0.0
 40
0.0
 40
0.25
 40
0.25
 40
0.5
 40
0.5
 40
0.75
 40
0.75
 40
1.0
 40
1.0
 40
1.0
 40
1.0
 10
1348.083398239934
 20
50.47856333448848
 30
0.0
 10
1348.016551811003
 20
50.37731491071145
 30
0.0
 10
1347.971982615571
 20
50.26417413744878
 30
0.0
 10
1347.93012563998
 20
50.01181552060946
 30
0.0
 10
1347.933764394623
 20
49.87097424454855
 30
0.0
 10
1347.986553775634
 20
49.57933718061206
 30
0.0
 10
1348.035331184205
 20
49.42596746283706
 30
0.0
 10
1348.169154385218
 20
49.11039513131306
 30
0.0
 10
1348.252775499429
 20
48.95090560700172
 30
0.0
 10
1348.349301364511
 20
48.78966960175403
 30
0.0
  0
SPLINE
  5
200
330
1F
100
AcDbEntity
  8
0
  6
Continuous
 62
     7
370
    15
100
AcDbSpline
210
0.0
220
0.0
230
1.0
 70
     8
 71
     3
 72
     8
 73
     4
 74
     0
 42
0.000000001
 43
0.00000001
 40
0.0
 40
0.0
 40
0.0
 40
0.0
 40
1.0
 40
1.0
 40
1.0
 40
1.0
 10
1353.515476806974
 20
57.72968068285721
 30
0.0
 10
1351.808760069677
 20
55.2953459858241
 30
0.0
 10
1350.008779856457
 20
52.87574373102686
 30
0.0
 10
1348.083398239934
 20
50.47856333448846
 30
0.0
  0
SPLINE
  5
201
330
1F
100
AcDbEntity
  8
0
  6
Continuous
 62
     7
370
    15
100
AcDbSpline
210
0.0
220
0.0
230
1.0
 70
     8
 71
     3
 72
    26
 73
    22
 74
     0
 42
0.000000001
 43
0.00000001
 40
0.0
 40
0.0
 40
0.0
 40
0.0
 40
0.1250000000000029
 40
0.1250000000000029
 40
0.2500000000000059
 40
0.2500000000000059
 40
0.312500000000002
 40
0.312500000000002
 40
0.3749999999999982
 40
0.3749999999999982
 40
0.5000000000000001
 40
0.5000000000000001
 40
0.6250000000000021
 40
0.6250000000000021
 40
0.6875000000000032
 40
0.6875000000000032
 40
0.7500000000000042
 40
0.7500000000000042
 40
0.8750000000000022
 40
0.8750000000000022
 40
1.0
 40
1.0
 40
1.0
 40
1.0
 10
1353.515476639913
 20
57.72968040431405
 30
0.0
 10
1354.796214612225
 20
56.80519405655989
 30
0.0
 10
1356.006787947278
 20
55.81572558462386
 30
0.0
 10
1358.29564979542
 20
53.71171264439571
 30
0.0
 10
1359.373867773073
 20
52.59717651179567
 30
0.0
 10
1360.892974222943
 20
50.83097492376545
 30
0.0
 10
1361.382932525123
 20
50.2264569229887
 30
0.0
 10
1362.329608256272
 20
48.98526112428991
 30
0.0
 10
1362.787426518925
 20
48.34693041924007
 30
0.0
 10
1364.102229954843
 20
46.39361500583512
 30
0.0
 10
1364.89419521357
 20
45.05116120329486
 30
0.0
 10
1366.314662127235
 20
42.2872185714724
 30
0.0
 10
1366.94313874624
 20
40.86574065858434
 30
0.0
 10
1367.761894181747
 20
38.6728997849417
 30
0.0
 10
1368.014095680789
 20
37.93182682001063
 30
0.0
 10
1368.476139951399
 20
36.42887204743267
 30
0.0
 10
1368.686505441549
 20
35.66465560262147
 30
0.0
 10
1369.247119199873
 20
33.36037407488167
 30
0.0
 10
1369.527762079215
 20
31.80927187898868
 30
0.0
 10
1369.904194822981
 20
28.67725877318409
 30
0.0
 10
1370.000000049467
 20
27.09635061993806
 30
0.0
 10
1370.0
 20
25.49999876829395
 30
0.0
  0
SPLINE
  5
22A
330
1F
100
AcDbEntity
  8
0
  6
Continuous
 62
     7
370
    15
100
AcDbSpline
210
0.0
220
0.0
230
1.0
 70
     8
 71
     3
 72
    32
 73
    28
 74
     0
 42
0.000000001
 43
0.00000001
 40
0.0
 40
0.0
 40
0.0
 40
0.0
 40
0.1249999999999986
 40
0.1249999999999986
 40
0.1874999999999979
 40
0.1874999999999979
 40
0.2499999999999972
 40
0.2499999999999972
 40
0.3749999999999948
 40
0.3749999999999948
 40
0.4374999999999943
 40
0.4374999999999943
 40
0.4999999999999938
 40
0.4999999999999938
 40
0.6249999999999941
 40
0.6249999999999941
 40
0.7499999999999944
 40
0.7499999999999944
 40
0.8124999999999957
 40
0.8124999999999957
 40
0.8749999999999969
 40
0.8749999999999969
 40
0.937499999999998
 40
0.937499999999998
 40
0.968749999999999
 40
0.968749999999999
 40
1.0
 40
1.0
 40
1.0
 40
1.0
 10
-55.00000000000005
 20
-57.95896500191024
 30
0.0
 10
-55.66791905242252
 20
-57.95896500191023
 30
0.0
 10
-56.32425102310157
 20
-57.89616732126807
 30
0.0
 10
-57.2921202728659
 20
-57.71184174198778
 30
0.0
 10
-57.61195075890912
 20
-57.635263615685
 30
0.0
 10
-58.24590080978476
 20
-57.45115019889023
 30
0.0
 10
-58.56006149376014
 20
-57.34335016340986
 30
0.0
 10
-59.47272459308151
 20
-56.98079328831899
 30
0.0
 10
-60.04907284492178
 20
-56.68536140797468
 30
0.0
 10
-60.8660233499162
 20
-56.16254233909935
 30
0.0
 10
-61.13173644573144
 20
-55.973743313069
 30
0.0
 10
-61.63854496348009
 20
-55.57493164969652
 30
0.0
 10
-61.87961742728332
 20
-55.3652253876536
 30
0.0
 10
-62.56699833957902
 20
-54.7061636666871
 30
0.0
 10
-62.97780796259844
 20
-54.22714749354913
 30
0.0
 10
-63.70232439028212
 20
-53.18792976740237
 30
0.0
 10
-64.00555921041662
 20
-52.64234955646283
 30
0.0
 10
-64.373521898483
 20
-51.79143837177349
 30
0.0
 10
-64.48176035993181
 20
-51.50208709224249
 30
0.0
 10
-64.66895808615946
 20
-50.91177439952093
 30
0.0
 10
-64.74804104159082
 20
-50.60971451487617
 30
0.0
 10
-64.87386227797242
 20
-50.00393902697746
 30
0.0
 10
-64.92101929564453
 20
-49.69926272563345
 30
0.0
 10
-64.96832585426837
 20
-49.23958674325549
 30
0.0
 10
-64.98018292495689
 20
-49.08591704719881
 30
0.0
 10
-64.99602343834977
 20
-48.77768308255287
 30
0.0
 10
-65.00000000000006
 20
-48.62134440791991
 30
0.0
 10
-65.00000000000006
 20
-48.46850790734608
 30
0.0
  0
SPLINE
  5
22D
330
1F
100
AcDbEntity
  8
0
  6
Continuous
 62
     7
370
    15
100
AcDbSpline
210
0.0
220
0.0
230
1.0
 70
     8
 71
     3
 72
    32
 73
    28
 74
     0
 42
0.000000001
 43
0.00000001
 40
0.0
 40
0.0
 40
0.0
 40
0.0
 40
0.1250000000000021
 40
0.1250000000000021
 40
0.1875000000000032
 40
0.1875000000000032
 40
0.2500000000000043
 40
0.2500000000000043
 40
0.3750000000000067
 40
0.3750000000000067
 40
0.4375000000000076
 40
0.4375000000000076
 40
0.5000000000000085
 40
0.5000000000000085
 40
0.6250000000000074
 40
0.6250000000000074
 40
0.7500000000000062
 40
0.7500000000000062
 40
0.8125000000000044
 40
0.8125000000000044
 40
0.8750000000000026
 40
0.8750000000000026
 40
0.9375000000000008
 40
0.9375000000000008
 40
0.9687500000000003
 40
0.9687500000000003
 40
1.0
 40
1.0
 40
1.0
 40
1.0
 10
55.00000000000005
 20
-57.95896500191024
 30
0.0
 10
55.66791905242252
 20
-57.95896500191024
 30
0.0
 10
56.32425102310157
 20
-57.89616732126809
 30
0.0
 10
57.2921202728659
 20
-57.7118417419878
 30
0.0
 10
57.61195075890912
 20
-57.63526361568501
 30
0.0
 10
58.24590080978464
 20
-57.45115019889022
 30
0.0
 10
58.56006149376014
 20
-57.34335016340984
 30
0.0
 10
59.47272459308151
 20
-56.98079328831905
 30
0.0
 10
60.04907284492178
 20
-56.68536140797477
 30
0.0
 10
60.8660233499162
 20
-56.16254233909945
 30
0.0
 10
61.13173644573144
 20
-55.97374331306911
 30
0.0
 10
61.63854496348009
 20
-55.57493164969664
 30
0.0
 10
61.87961742728332
 20
-55.36522538765375
 30
0.0
 10
62.56699833957913
 20
-54.70616366668729
 30
0.0
 10
62.97780796259844
 20
-54.2271474935493
 30
0.0
 10
63.70232439028212
 20
-53.18792976740254
 30
0.0
 10
64.00555921041662
 20
-52.64234955646312
 30
0.0
 10
64.373521898483
 20
-51.79143837177388
 30
0.0
 10
64.48176035993191
 20
-51.50208709224284
 30
0.0
 10
64.66895808615946
 20
-50.9117743995214
 30
0.0
 10
64.74804104159082
 20
-50.6097145148767
 30
0.0
 10
64.87386227797253
 20
-50.00393902697816
 30
0.0
 10
64.92101929564453
 20
-49.69926272563433
 30
0.0
 10
64.96832585426837
 20
-49.23958674325701
 30
0.0
 10
64.98018292495699
 20
-49.08591704720055
 30
0.0
 10
64.99602343834977
 20
-48.77768308255636
 30
0.0
 10
64.99999999999994
 20
-48.62134440792919
 30
0.0
 10
64.99999999999994
 20
-48.46850790734608
 30
0.0
  0
SPLINE
  5
24F
330
1F
100
AcDbEntity
  8
0
  6
Continuous
 62
     7
370
    15
100
AcDbSpline
210
0.0
220
0.0
230
1.0
 70
     8
 71
     3
 72
    10
 73
     6
 74
     0
 42
0.000000001
 43
0.00000001
 40
0.0
 40
0.0
 40
0.0
 40
0.0
 40
0.5
 40
0.5
 40
1.0
 40
1.0
 40
1.0
 40
1.0
 10
108.5545788744762
 20
62.99531414046844
 30
0.0
 10
106.8842931902594
 20
62.40754163577017
 30
0.0
 10
105.2070796913233
 20
61.69100547153708
 30
0.0
 10
101.9118281247567
 20
59.99506606445886
 30
0.0
 10
100.2920061134917
 20
59.01568773935941
 30
0.0
 10
98.72094351622584
 20
57.89902561868176
 30
0.0
  0
SPLINE
  5
251
330
1F
100
AcDbEntity
  8
0
  6
Continuous
 62
     7
370
    15
100
AcDbSpline
210
0.0
220
0.0
230
1.0
 70
     8
 71
     3
 72
    10
 73
     6
 74
     0
 42
0.000000001
 43
0.00000001
 40
0.0
 40
0.0
 40
0.0
 40
0.0
 40
0.5
 40
0.5
 40
1.0
 40
1.0
 40
1.0
 40
1.0
 10
1353.279056483775
 20
57.89902561868146
 30
0.0
 10
1351.707993886509
 20
59.01568773935911
 30
0.0
 10
1350.088171875245
 20
59.99506606445856
 30
0.0
 10
1346.792920308677
 20
61.69100547153678
 30
0.0
 10
1345.115706809741
 20
62.40754163576989
 30
0.0
 10
1343.445421125525
 20
62.99531414046815
 30
0.0
  0
SPLINE
  5
254
330
1F
100
AcDbEntity
  8
0
  6
Continuous
 62
     7
370
    15
100
AcDbSpline
210
0.0
220
0.0
230
1.0
 70
     8
 71
     3
 72
    28
 73
    24
 74
     0
 42
0.000000001
 43
0.00000001
 40
0.0
 40
0.0
 40
0.0
 40
0.0
 40
0.0156250000000006
 40
0.0156250000000006
 40
0.0312500000000012
 40
0.0312500000000012
 40
0.0625000000000011
 40
0.0625000000000011
 40
0.0937500000000009
 40
0.0937500000000009
 40
0.1250000000000007
 40
0.1250000000000007
 40
0.1875000000000012
 40
0.1875000000000012
 40
0.2500000000000017
 40
0.2500000000000017
 40
0.3750000000000017
 40
0.3750000000000017
 40
0.5000000000000017
 40
0.5000000000000017
 40
0.7500000000000009
 40
0.7500000000000009
 40
1.0
 40
1.0
 40
1.0
 40
1.0
 10
-65.00000000000006
 20
62.50000000000233
 30
0.0
 10
-65.12420246594186
 20
62.4992812660447
 30
0.0
 10
-65.24486748257985
 20
62.49601088861824
 30
0.0
 10
-65.48019920468495
 20
62.48511758957105
 30
0.0
 10
-65.59578137323474
 20
62.47738468118867
 30
0.0
 10
-65.92210749682349
 20
62.44974283223603
 30
0.0
 10
-66.11904396745605
 20
62.42519784298597
 30
0.0
 10
-66.47935392108162
 20
62.37025078475136
 30
0.0
 10
-66.64131467804336
 20
62.3401112212661
 30
0.0
 10
-66.944268674062
 20
62.27638863891961
 30
0.0
 10
-67.08496911059892
 20
62.24276814789928
 30
0.0
 10
-67.48543588482336
 20
62.13789651530713
 30
0.0
 10
-67.72144277706683
 20
62.06336381983933
 30
0.0
 10
-68.156115353171
 20
61.90948981208108
 30
0.0
 10
-68.3553310471614
 20
61.82973069532508
 30
0.0
 10
-68.91852658458319
 20
61.58310046936763
 30
0.0
 10
-69.24871489899276
 20
61.40891332074629
 30
0.0
 10
-69.85943914944615
 20
61.04300830012952
 30
0.0
 10
-70.13894119854037
 20
60.85114522472404
 30
0.0
 10
-70.91908173588945
 20
60.25335618299705
 30
0.0
 10
-71.36458296456061
 20
59.82405614023927
 30
0.0
 10
-72.15181973799922
 20
58.90379037850014
 30
0.0
 10
-72.49212894922319
 20
58.41279006011981
 30
0.0
 10
-72.78250021428767
 20
57.89004113850071
 30
0.0
  0
LINE
  5
262
330
1F
100
AcDbEntity
  8
0
  6
Continuous
 62
     7
370
    15
100
AcDbLine
 10
940.5
 20
-6.529100654
 30
0.0
 11
970.5
 21
-6.529100654
 31
0.0
  0
LINE
  5
263
330
1F
100
AcDbEntity
  8
0
  6
Continuous
 62
     7
370
    15
100
AcDbLine
 10
583.5
 20
-6.529100654
 30
0.0
 11
613.5
 21
-6.529100654
 31
0.0
  0
LINE
  5
264
330
1F
100
AcDbEntity
  8
0
  6
Continuous
 62
     7
370
    15
100
AcDbLine
 10
736.5
 20
-6.529100654
 30
0.0
 11
766.5
 21
-6.529100654
 31
0.0
  0
LINE
  5
265
330
1F
100
AcDbEntity
  8
0
  6
Continuous
 62
     7
370
    15
100
AcDbLine
 10
1042.5
 20
-6.529100654
 30
0.0
 11
1072.5
 21
-6.529100654
 31
0.0
  0
LINE
  5
266
330
1F
100
AcDbEntity
  8
0
  6
Continuous
 62
     7
370
    15
100
AcDbLine
 10
787.5
 20
-6.529100654
 30
0.0
 11
817.5
 21
-6.529100654
 31
0.0
  0
LINE
  5
267
330
1F
100
AcDbEntity
  8
0
  6
Continuous
 62
     7
370
    15
100
AcDbLine
 10
685.5
 20
-6.529100654
 30
0.0
 11
715.5
 21
-6.529100654
 31
0.0
  0
LINE
  5
268
330
1F
100
AcDbEntity
  8
0
  6
Continuous
 62
     7
370
    15
100
AcDbLine
 10
838.5
 20
-6.529100654
 30
0.0
 11
868.5
 21
-6.529100654
 31
0.0
  0
LINE
  5
269
330
1F
100
AcDbEntity
  8
0
  6
Continuous
 62
     7
370
    15
100
AcDbLine
 10
1144.5
 20
-6.529100654
 30
0.0
 11
1174.5
 21
-6.529100654
 31
0.0
  0
LINE
  5
26A
330
1F
100
AcDbEntity
  8
0
  6
Continuous
 62
     7
370
    15
100
AcDbLine
 10
889.5
 20
-6.529100654
 30
0.0
 11
919.5
 21
-6.529100654
 31
0.0
  0
LINE
  5
26B
330
1F
100
AcDbEntity
  8
0
  6
Continuous
 62
     7
370
    15
100
AcDbLine
 10
634.5
 20
-6.529100654
 30
0.0
 11
664.5
 21
-6.529100654
 31
0.0
  0
LINE
  5
26C
330
1F
100
AcDbEntity
  8
0
  6
Continuous
 62
     7
370
    15
100
AcDbLine
 10
379.5
 20
-6.529100654
 30
0.0
 11
409.5
 21
-6.529100654
 31
0.0
  0
LINE
  5
26D
330
1F
100
AcDbEntity
  8
0
  6
Continuous
 62
     7
370
    15
100
AcDbLine
 10
124.5
 20
-6.529100654
 30
0.0
 11
154.5
 21
-6.529100654
 31
0.0
  0
LINE
  5
26E
330
1F
100
AcDbEntity
  8
0
  6
Continuous
 62
     7
370
    15
100
AcDbLine
 10
430.5
 20
-6.529100654
 30
0.0
 11
460.5
 21
-6.529100654
 31
0.0
  0
LINE
  5
26F
330
1F
100
AcDbEntity
  8
0
  6
Continuous
 62
     7
370
    15
100
AcDbLine
 10
175.5
 20
-6.529100654
 30
0.0
 11
205.5
 21
-6.529100654
 31
0.0
  0
LINE
  5
270
330
1F
100
AcDbEntity
  8
0
  6
Continuous
 62
     7
370
    15
100
AcDbLine
 10
481.5
 20
-6.529100654
 30
0.0
 11
511.5
 21
-6.529100654
 31
0.0
  0
LINE
  5
271
330
1F
100
AcDbEntity
  8
0
  6
Continuous
 62
     7
370
    15
100
AcDbLine
 10
226.5
 20
-6.529100654
 30
0.0
 11
256.5
 21
-6.529100654
 31
0.0
  0
LINE
  5
272
330
1F
100
AcDbEntity
  8
0
  6
Continuous
 62
     7
370
    15
100
AcDbLine
 10
532.5
 20
-6.529100654
 30
0.0
 11
562.5
 21
-6.529100654
 31
0.0
  0
LINE
  5
273
330
1F
100
AcDbEntity
  8
0
  6
Continuous
 62
     7
370
    15
100
AcDbLine
 10
277.5
 20
-6.529100654
 30
0.0
 11
307.5
 21
-6.529100654
 31
0.0
  0
LINE
  5
274
330
1F
100
AcDbEntity
  8
0
  6
Continuous
 62
     7
370
    15
100
AcDbLine
 10
991.5
 20
-6.529100654
 30
0.0
 11
1021.5
 21
-6.529100654
 31
0.0
  0
LINE
  5
275
330
1F
100
AcDbEntity
  8
0
  6
Continuous
 62
     7
370
    15
100
AcDbLine
 10
328.5
 20
-6.529100654
 30
0.0
 11
358.5
 21
-6.529100654
 31
0.0
  0
LINE
  5
276
330
1F
100
AcDbEntity
  8
0
  6
Continuous
 62
     7
370
    15
100
AcDbLine
 10
89.4904580616
 20
-6.529100654
 30
0.0
 11
103.5
 21
-6.529100654
 31
0.0
  0
LINE
  5
277
330
1F
100
AcDbEntity
  8
0
  6
Continuous
 62
     7
370
    15
100
AcDbLine
 10
1348.5
 20
-6.529100654
 30
0.0
 11
1362.5095419384
 21
-6.529100654
 31
0.0
  0
LINE
  5
278
330
1F
100
AcDbEntity
  8
0
  6
Continuous
 62
     7
370
    15
100
AcDbLine
 10
1246.5
 20
-6.529100654
 30
0.0
 11
1276.5
 21
-6.529100654
 31
0.0
  0
LINE
  5
279
330
1F
100
AcDbEntity
  8
0
  6
Continuous
 62
     7
370
    15
100
AcDbLine
 10
1093.5
 20
-6.529100654
 30
0.0
 11
1123.5
 21
-6.529100654
 31
0.0
  0
LINE
  5
27A
330
1F
100
AcDbEntity
  8
0
  6
Continuous
 62
     7
370
    15
100
AcDbLine
 10
1297.5
 20
-6.529100654
 30
0.0
 11
1327.5
 21
-6.529100654
 31
0.0
  0
LINE
  5
27B
330
1F
100
AcDbEntity
  8
0
  6
Continuous
 62
     7
370
    15
100
AcDbLine
 10
1195.5
 20
-6.529100654
 30
0.0
 11
1225.5
 21
-6.529100654
 31
0.0
  0
LINE
  5
27C
330
1F
100
AcDbEntity
  8
0
  6
Continuous
 62
     7
370
    15
100
AcDbLine
 10
65.0
 20
3.4
 30
0.0
 11
-65.0
 21
3.4
 31
0.0
  0
LINE
  5
27D
330
1F
100
AcDbEntity
  8
0
  6
Continuous
 62
     7
370
    15
100
AcDbLine
 10
72.4166700957
 20
10.4910155201
 30
0.0
 11
72.4166700957
 21
10.5
 31
0.0
  0
LINE
  5
27E
330
1F
100
AcDbEntity
  8
0
  6
Continuous
 62
     7
370
    15
100
AcDbLine
 10
1380.0
 20
-4.5
 30
0.0
 11
1380.0
 21
10.5
 31
0.0
  0
LINE
  5
27F
330
1F
100
AcDbEntity
  8
0
  6
Continuous
 62
     7
370
    15
100
AcDbLine
 10
-85.0
 20
10.5
 30
0.0
 11
-85.0
 21
-4.5
 31
0.0
  0
LINE
  5
280
330
1F
100
AcDbEntity
  8
0
  6
Continuous
 62
     7
370
    15
100
AcDbLine
 10
-55.0
 20
-62.5
 30
0.0
 11
55.0
 21
-62.5
 31
0.0
  0
LINE
  5
281
330
1F
100
AcDbEntity
  8
0
  6
Continuous
 62
     7
370
    15
100
AcDbLine
 10
311.0
 20
64.9644267627
 30
0.0
 11
82.0
 21
64.9644267627
 31
0.0
  0
LINE
  5
282
330
1F
100
AcDbEntity
  8
0
  6
Continuous
 62
     7
370
    15
100
AcDbLine
 10
1111.0
 20
64.9644267627
 30
0.0
 11
341.0
 21
64.9644267627
 31
0.0
  0
LINE
  5
283
330
1F
100
AcDbEntity
  8
0
  6
Continuous
 62
     7
370
    15
100
AcDbLine
 10
1370.0
 20
64.9644267627
 30
0.0
 11
1141.0
 21
64.9644267627
 31
0.0
  0
LINE
  5
284
330
1F
100
AcDbEntity
  8
0
  6
Continuous
 62
     7
370
    15
100
AcDbLine
 10
154.5
 20
10.5
 30
0.0
 11
154.5
 21
-6.529100654
 31
0.0
  0
LINE
  5
285
330
1F
100
AcDbEntity
  8
0
  6
Continuous
 62
     7
370
    15
100
AcDbLine
 10
154.5
 20
1.6722831922
 30
0.0
 11
124.5
 21
1.6722831922
 31
0.0
  0
LINE
  5
286
330
1F
100
AcDbEntity
  8
0
  6
Continuous
 62
     7
370
    15
100
AcDbLine
 10
124.5
 20
-6.529100654
 30
0.0
 11
124.5
 21
10.5
 31
0.0
  0
LINE
  5
287
330
1F
100
AcDbEntity
  8
0
  6
Continuous
 62
     7
370
    15
100
AcDbLine
 10
154.5
 20
4.1722831922
 30
0.0
 11
124.5
 21
4.1722831922
 31
0.0
  0
LINE
  5
288
330
1F
100
AcDbEntity
  8
0
  6
Continuous
 62
     7
370
    15
100
AcDbLine
 10
103.5
 20
1.6722831922
 30
0.0
 11
89.4904580616
 21
1.6722831922
 31
0.0
  0
LINE
  5
289
330
1F
100
AcDbEntity
  8
0
  6
Continuous
 62
     7
370
    15
100
AcDbLine
 10
89.4904580616
 20
-6.529100654
 30
0.0
 11
89.4904580616
 21
10.5
 31
0.0
  0
LINE
  5
28A
330
1F
100
AcDbEntity
  8
0
  6
Continuous
 62
     7
370
    15
100
AcDbLine
 10
103.5
 20
4.1722831922
 30
0.0
 11
89.4904580616
 21
4.1722831922
 31
0.0
  0
LINE
  5
28B
330
1F
100
AcDbEntity
  8
0
  6
Continuous
 62
     7
370
    15
100
AcDbLine
 10
103.5
 20
10.5
 30
0.0
 11
103.5
 21
-6.529100654
 31
0.0
  0
LINE
  5
28C
330
1F
100
AcDbEntity
  8
0
  6
Continuous
 62
     7
370
    15
100
AcDbLine
 10
256.5
 20
10.5
 30
0.0
 11
256.5
 21
-6.529100654
 31
0.0
  0
LINE
  5
28D
330
1F
100
AcDbEntity
  8
0
  6
Continuous
 62
     7
370
    15
100
AcDbLine
 10
256.5
 20
4.1722831922
 30
0.0
 11
226.5
 21
4.1722831922
 31
0.0
  0
LINE
  5
28E
330
1F
100
AcDbEntity
  8
0
  6
Continuous
 62
     7
370
    15
100
AcDbLine
 10
226.5
 20
-6.529100654
 30
0.0
 11
226.5
 21
10.5
 31
0.0
  0
LINE
  5
28F
330
1F
100
AcDbEntity
  8
0
  6
Continuous
 62
     7
370
    15
100
AcDbLine
 10
256.5
 20
1.6722831922
 30
0.0
 11
226.5
 21
1.6722831922
 31
0.0
  0
LINE
  5
290
330
1F
100
AcDbEntity
  8
0
  6
Continuous
 62
     7
370
    15
100
AcDbLine
 10
409.5
 20
10.5
 30
0.0
 11
409.5
 21
-6.529100654
 31
0.0
  0
LINE
  5
291
330
1F
100
AcDbEntity
  8
0
  6
Continuous
 62
     7
370
    15
100
AcDbLine
 10
409.5
 20
1.6722831922
 30
0.0
 11
379.5
 21
1.6722831922
 31
0.0
  0
LINE
  5
292
330
1F
100
AcDbEntity
  8
0
  6
Continuous
 62
     7
370
    15
100
AcDbLine
 10
379.5
 20
-6.529100654
 30
0.0
 11
379.5
 21
10.5
 31
0.0
  0
LINE
  5
293
330
1F
100
AcDbEntity
  8
0
  6
Continuous
 62
     7
370
    15
100
AcDbLine
 10
409.5
 20
4.1722831922
 30
0.0
 11
379.5
 21
4.1722831922
 31
0.0
  0
LINE
  5
294
330
1F
100
AcDbEntity
  8
0
  6
Continuous
 62
     7
370
    15
100
AcDbLine
 10
307.5
 20
10.5
 30
0.0
 11
307.5
 21
-6.529100654
 31
0.0
  0
LINE
  5
295
330
1F
100
AcDbEntity
  8
0
  6
Continuous
 62
     7
370
    15
100
AcDbLine
 10
307.5
 20
4.1722831922
 30
0.0
 11
277.5
 21
4.1722831922
 31
0.0
  0
LINE
  5
296
330
1F
100
AcDbEntity
  8
0
  6
Continuous
 62
     7
370
    15
100
AcDbLine
 10
277.5
 20
-6.529100654
 30
0.0
 11
277.5
 21
10.5
 31
0.0
  0
LINE
  5
297
330
1F
100
AcDbEntity
  8
0
  6
Continuous
 62
     7
370
    15
100
AcDbLine
 10
307.5
 20
1.6722831922
 30
0.0
 11
277.5
 21
1.6722831922
 31
0.0
  0
LINE
  5
298
330
1F
100
AcDbEntity
  8
0
  6
Continuous
 62
     7
370
    15
100
AcDbLine
 10
358.5
 20
4.1722831922
 30
0.0
 11
328.5
 21
4.1722831922
 31
0.0
  0
LINE
  5
299
330
1F
100
AcDbEntity
  8
0
  6
Continuous
 62
     7
370
    15
100
AcDbLine
 10
328.5
 20
-6.529100654
 30
0.0
 11
328.5
 21
10.5
 31
0.0
  0
LINE
  5
29A
330
1F
100
AcDbEntity
  8
0
  6
Continuous
 62
     7
370
    15
100
AcDbLine
 10
358.5
 20
10.5
 30
0.0
 11
358.5
 21
-6.529100654
 31
0.0
  0
LINE
  5
29B
330
1F
100
AcDbEntity
  8
0
  6
Continuous
 62
     7
370
    15
100
AcDbLine
 10
358.5
 20
1.6722831922
 30
0.0
 11
328.5
 21
1.6722831922
 31
0.0
  0
LINE
  5
29C
330
1F
100
AcDbEntity
  8
0
  6
Continuous
 62
     7
370
    15
100
AcDbLine
 10
511.5
 20
10.5
 30
0.0
 11
511.5
 21
-6.529100654
 31
0.0
  0
LINE
  5
29D
330
1F
100
AcDbEntity
  8
0
  6
Continuous
 62
     7
370
    15
100
AcDbLine
 10
511.5
 20
4.1722831922
 30
0.0
 11
481.5
 21
4.1722831922
 31
0.0
  0
LINE
  5
29E
330
1F
100
AcDbEntity
  8
0
  6
Continuous
 62
     7
370
    15
100
AcDbLine
 10
481.5
 20
-6.529100654
 30
0.0
 11
481.5
 21
10.5
 31
0.0
  0
LINE
  5
29F
330
1F
100
AcDbEntity
  8
0
  6
Continuous
 62
     7
370
    15
100
AcDbLine
 10
460.5
 20
10.5
 30
0.0
 11
460.5
 21
-6.529100654
 31
0.0
  0
LINE
  5
2A0
330
1F
100
AcDbEntity
  8
0
  6
Continuous
 62
     7
370
    15
100
AcDbLine
 10
460.5
 20
1.6722831922
 30
0.0
 11
430.5
 21
1.6722831922
 31
0.0
  0
LINE
  5
2A1
330
1F
100
AcDbEntity
  8
0
  6
Continuous
 62
     7
370
    15
100
AcDbLine
 10
430.5
 20
-6.529100654
 30
0.0
 11
430.5
 21
10.5
 31
0.0
  0
LINE
  5
2A2
330
1F
100
AcDbEntity
  8
0
  6
Continuous
 62
     7
370
    15
100
AcDbLine
 10
460.5
 20
4.1722831922
 30
0.0
 11
430.5
 21
4.1722831922
 31
0.0
  0
LINE
  5
2A3
330
1F
100
AcDbEntity
  8
0
  6
Continuous
 62
     7
370
    15
100
AcDbLine
 10
511.5
 20
1.6722831922
 30
0.0
 11
481.5
 21
1.6722831922
 31
0.0
  0
LINE
  5
2A4
330
1F
100
AcDbEntity
  8
0
  6
Continuous
 62
     7
370
    15
100
AcDbLine
 10
1225.5
 20
1.6722831922
 30
0.0
 11
1195.5
 21
1.6722831922
 31
0.0
  0
LINE
  5
2A5
330
1F
100
AcDbEntity
  8
0
  6
Continuous
 62
     7
370
    15
100
AcDbLine
 10
1195.5
 20
-6.529100654
 30
0.0
 11
1195.5
 21
10.5
 31
0.0
  0
LINE
  5
2A6
330
1F
100
AcDbEntity
  8
0
  6
Continuous
 62
     7
370
    15
100
AcDbLine
 10
1225.5
 20
4.1722831922
 30
0.0
 11
1195.5
 21
4.1722831922
 31
0.0
  0
LINE
  5
2A7
330
1F
100
AcDbEntity
  8
0
  6
Continuous
 62
     7
370
    15
100
AcDbLine
 10
1225.5
 20
10.5
 30
0.0
 11
1225.5
 21
-6.529100654
 31
0.0
  0
LINE
  5
2A8
330
1F
100
AcDbEntity
  8
0
  6
Continuous
 62
     7
370
    15
100
AcDbLine
 10
1072.5
 20
4.1722831922
 30
0.0
 11
1042.5
 21
4.1722831922
 31
0.0
  0
LINE
  5
2A9
330
1F
100
AcDbEntity
  8
0
  6
Continuous
 62
     7
370
    15
100
AcDbLine
 10
1042.5
 20
-6.529100654
 30
0.0
 11
1042.5
 21
10.5
 31
0.0
  0
LINE
  5
2AA
330
1F
100
AcDbEntity
  8
0
  6
Continuous
 62
     7
370
    15
100
AcDbLine
 10
1072.5
 20
10.5
 30
0.0
 11
1072.5
 21
-6.529100654
 31
0.0
  0
LINE
  5
2AB
330
1F
100
AcDbEntity
  8
0
  6
Continuous
 62
     7
370
    15
100
AcDbLine
 10
1174.5
 20
1.6722831922
 30
0.0
 11
1144.5
 21
1.6722831922
 31
0.0
  0
LINE
  5
2AC
330
1F
100
AcDbEntity
  8
0
  6
Continuous
 62
     7
370
    15
100
AcDbLine
 10
1144.5
 20
-6.529100654
 30
0.0
 11
1144.5
 21
10.5
 31
0.0
  0
LINE
  5
2AD
330
1F
100
AcDbEntity
  8
0
  6
Continuous
 62
     7
370
    15
100
AcDbLine
 10
1174.5
 20
4.1722831922
 30
0.0
 11
1144.5
 21
4.1722831922
 31
0.0
  0
LINE
  5
2AE
330
1F
100
AcDbEntity
  8
0
  6
Continuous
 62
     7
370
    15
100
AcDbLine
 10
1174.5
 20
10.5
 30
0.0
 11
1174.5
 21
-6.529100654
 31
0.0
  0
LINE
  5
2AF
330
1F
100
AcDbEntity
  8
0
  6
Continuous
 62
     7
370
    15
100
AcDbLine
 10
1072.5
 20
1.6722831922
 30
0.0
 11
1042.5
 21
1.6722831922
 31
0.0
  0
LINE
  5
2B0
330
1F
100
AcDbEntity
  8
0
  6
Continuous
 62
     7
370
    15
100
AcDbLine
 10
205.5
 20
10.5
 30
0.0
 11
205.5
 21
-6.529100654
 31
0.0
  0
LINE
  5
2B1
330
1F
100
AcDbEntity
  8
0
  6
Continuous
 62
     7
370
    15
100
AcDbLine
 10
205.5
 20
4.1722831922
 30
0.0
 11
175.5
 21
4.1722831922
 31
0.0
  0
LINE
  5
2B2
330
1F
100
AcDbEntity
  8
0
  6
Continuous
 62
     7
370
    15
100
AcDbLine
 10
175.5
 20
-6.529100654
 30
0.0
 11
175.5
 21
10.5
 31
0.0
  0
LINE
  5
2B3
330
1F
100
AcDbEntity
  8
0
  6
Continuous
 62
     7
370
    15
100
AcDbLine
 10
205.5
 20
1.6722831922
 30
0.0
 11
175.5
 21
1.6722831922
 31
0.0
  0
LINE
  5
2B4
330
1F
100
AcDbEntity
  8
0
  6
Continuous
 62
     7
370
    15
100
AcDbLine
 10
715.5
 20
10.5
 30
0.0
 11
715.5
 21
-6.529100654
 31
0.0
  0
LINE
  5
2B5
330
1F
100
AcDbEntity
  8
0
  6
Continuous
 62
     7
370
    15
100
AcDbLine
 10
715.5
 20
4.1722831922
 30
0.0
 11
685.5
 21
4.1722831922
 31
0.0
  0
LINE
  5
2B6
330
1F
100
AcDbEntity
  8
0
  6
Continuous
 62
     7
370
    15
100
AcDbLine
 10
685.5
 20
-6.529100654
 30
0.0
 11
685.5
 21
10.5
 31
0.0
  0
LINE
  5
2B7
330
1F
100
AcDbEntity
  8
0
  6
Continuous
 62
     7
370
    15
100
AcDbLine
 10
715.5
 20
1.6722831922
 30
0.0
 11
685.5
 21
1.6722831922
 31
0.0
  0
LINE
  5
2B8
330
1F
100
AcDbEntity
  8
0
  6
Continuous
 62
     7
370
    15
100
AcDbLine
 10
664.5
 20
10.5
 30
0.0
 11
664.5
 21
-6.529100654
 31
0.0
  0
LINE
  5
2B9
330
1F
100
AcDbEntity
  8
0
  6
Continuous
 62
     7
370
    15
100
AcDbLine
 10
664.5
 20
1.6722831922
 30
0.0
 11
634.5
 21
1.6722831922
 31
0.0
  0
LINE
  5
2BA
330
1F
100
AcDbEntity
  8
0
  6
Continuous
 62
     7
370
    15
100
AcDbLine
 10
664.5
 20
4.1722831922
 30
0.0
 11
634.5
 21
4.1722831922
 31
0.0
  0
LINE
  5
2BB
330
1F
100
AcDbEntity
  8
0
  6
Continuous
 62
     7
370
    15
100
AcDbLine
 10
634.5
 20
-6.529100654
 30
0.0
 11
634.5
 21
10.5
 31
0.0
  0
LINE
  5
2BC
330
1F
100
AcDbEntity
  8
0
  6
Continuous
 62
     7
370
    15
100
AcDbLine
 10
613.5
 20
10.5
 30
0.0
 11
613.5
 21
-6.529100654
 31
0.0
  0
LINE
  5
2BD
330
1F
100
AcDbEntity
  8
0
  6
Continuous
 62
     7
370
    15
100
AcDbLine
 10
613.5
 20
1.6722831922
 30
0.0
 11
583.5
 21
1.6722831922
 31
0.0
  0
LINE
  5
2BE
330
1F
100
AcDbEntity
  8
0
  6
Continuous
 62
     7
370
    15
100
AcDbLine
 10
583.5
 20
-6.529100654
 30
0.0
 11
583.5
 21
10.5
 31
0.0
  0
LINE
  5
2BF
330
1F
100
AcDbEntity
  8
0
  6
Continuous
 62
     7
370
    15
100
AcDbLine
 10
613.5
 20
4.1722831922
 30
0.0
 11
583.5
 21
4.1722831922
 31
0.0
  0
LINE
  5
2C0
330
1F
100
AcDbEntity
  8
0
  6
Continuous
 62
     7
370
    15
100
AcDbLine
 10
562.5
 20
10.5
 30
0.0
 11
562.5
 21
-6.529100654
 31
0.0
  0
LINE
  5
2C1
330
1F
100
AcDbEntity
  8
0
  6
Continuous
 62
     7
370
    15
100
AcDbLine
 10
562.5
 20
1.6722831922
 30
0.0
 11
532.5
 21
1.6722831922
 31
0.0
  0
LINE
  5
2C2
330
1F
100
AcDbEntity
  8
0
  6
Continuous
 62
     7
370
    15
100
AcDbLine
 10
562.5
 20
4.1722831922
 30
0.0
 11
532.5
 21
4.1722831922
 31
0.0
  0
LINE
  5
2C3
330
1F
100
AcDbEntity
  8
0
  6
Continuous
 62
     7
370
    15
100
AcDbLine
 10
532.5
 20
-6.529100654
 30
0.0
 11
532.5
 21
10.5
 31
0.0
  0
LINE
  5
2C4
330
1F
100
AcDbEntity
  8
0
  6
Continuous
 62
     7
370
    15
100
AcDbLine
 10
970.5
 20
1.6722831922
 30
0.0
 11
940.5
 21
1.6722831922
 31
0.0
  0
LINE
  5
2C5
330
1F
100
AcDbEntity
  8
0
  6
Continuous
 62
     7
370
    15
100
AcDbLine
 10
940.5
 20
-6.529100654
 30
0.0
 11
940.5
 21
10.5
 31
0.0
  0
LINE
  5
2C6
330
1F
100
AcDbEntity
  8
0
  6
Continuous
 62
     7
370
    15
100
AcDbLine
 10
970.5
 20
4.1722831922
 30
0.0
 11
940.5
 21
4.1722831922
 31
0.0
  0
LINE
  5
2C7
330
1F
100
AcDbEntity
  8
0
  6
Continuous
 62
     7
370
    15
100
AcDbLine
 10
970.5
 20
10.5
 30
0.0
 11
970.5
 21
-6.529100654
 31
0.0
  0
LINE
  5
2C8
330
1F
100
AcDbEntity
  8
0
  6
Continuous
 62
     7
370
    15
100
AcDbLine
 10
817.5
 20
1.6722831922
 30
0.0
 11
787.5
 21
1.6722831922
 31
0.0
  0
LINE
  5
2C9
330
1F
100
AcDbEntity
  8
0
  6
Continuous
 62
     7
370
    15
100
AcDbLine
 10
787.5
 20
-6.529100654
 30
0.0
 11
787.5
 21
10.5
 31
0.0
  0
LINE
  5
2CA
330
1F
100
AcDbEntity
  8
0
  6
Continuous
 62
     7
370
    15
100
AcDbLine
 10
817.5
 20
4.1722831922
 30
0.0
 11
787.5
 21
4.1722831922
 31
0.0
  0
LINE
  5
2CB
330
1F
100
AcDbEntity
  8
0
  6
Continuous
 62
     7
370
    15
100
AcDbLine
 10
817.5
 20
10.5
 30
0.0
 11
817.5
 21
-6.529100654
 31
0.0
  0
LINE
  5
2CC
330
1F
100
AcDbEntity
  8
0
  6
Continuous
 62
     7
370
    15
100
AcDbLine
 10
766.5
 20
4.1722831922
 30
0.0
 11
736.5
 21
4.1722831922
 31
0.0
  0
LINE
  5
2CD
330
1F
100
AcDbEntity
  8
0
  6
Continuous
 62
     7
370
    15
100
AcDbLine
 10
736.5
 20
-6.529100654
 30
0.0
 11
736.5
 21
10.5
 31
0.0
  0
LINE
  5
2CE
330
1F
100
AcDbEntity
  8
0
  6
Continuous
 62
     7
370
    15
100
AcDbLine
 10
766.5
 20
10.5
 30
0.0
 11
766.5
 21
-6.529100654
 31
0.0
  0
LINE
  5
2CF
330
1F
100
AcDbEntity
  8
0
  6
Continuous
 62
     7
370
    15
100
AcDbLine
 10
766.5
 20
1.6722831922
 30
0.0
 11
736.5
 21
1.6722831922
 31
0.0
  0
LINE
  5
2D0
330
1F
100
AcDbEntity
  8
0
  6
Continuous
 62
     7
370
    15
100
AcDbLine
 10
1362.5095419384
 20
10.5
 30
0.0
 11
1362.5095419384
 21
-6.529100654
 31
0.0
  0
LINE
  5
2D1
330
1F
100
AcDbEntity
  8
0
  6
Continuous
 62
     7
370
    15
100
AcDbLine
 10
1362.5095419384
 20
4.1722831922
 30
0.0
 11
1348.5
 21
4.1722831922
 31
0.0
  0
LINE
  5
2D2
330
1F
100
AcDbEntity
  8
0
  6
Continuous
 62
     7
370
    15
100
AcDbLine
 10
1348.5
 20
-6.529100654
 30
0.0
 11
1348.5
 21
10.5
 31
0.0
  0
LINE
  5
2D3
330
1F
100
AcDbEntity
  8
0
  6
Continuous
 62
     7
370
    15
100
AcDbLine
 10
1021.5
 20
1.6722831922
 30
0.0
 11
991.5
 21
1.6722831922
 31
0.0
  0
LINE
  5
2D4
330
1F
100
AcDbEntity
  8
0
  6
Continuous
 62
     7
370
    15
100
AcDbLine
 10
991.5
 20
-6.529100654
 30
0.0
 11
991.5
 21
10.5
 31
0.0
  0
LINE
  5
2D5
330
1F
100
AcDbEntity
  8
0
  6
Continuous
 62
     7
370
    15
100
AcDbLine
 10
1021.5
 20
4.1722831922
 30
0.0
 11
991.5
 21
4.1722831922
 31
0.0
  0
LINE
  5
2D6
330
1F
100
AcDbEntity
  8
0
  6
Continuous
 62
     7
370
    15
100
AcDbLine
 10
1021.5
 20
10.5
 30
0.0
 11
1021.5
 21
-6.529100654
 31
0.0
  0
LINE
  5
2D7
330
1F
100
AcDbEntity
  8
0
  6
Continuous
 62
     7
370
    15
100
AcDbLine
 10
1123.5
 20
1.6722831922
 30
0.0
 11
1093.5
 21
1.6722831922
 31
0.0
  0
LINE
  5
2D8
330
1F
100
AcDbEntity
  8
0
  6
Continuous
 62
     7
370
    15
100
AcDbLine
 10
1093.5
 20
-6.529100654
 30
0.0
 11
1093.5
 21
10.5
 31
0.0
  0
LINE
  5
2D9
330
1F
100
AcDbEntity
  8
0
  6
Continuous
 62
     7
370
    15
100
AcDbLine
 10
1123.5
 20
4.1722831922
 30
0.0
 11
1093.5
 21
4.1722831922
 31
0.0
  0
LINE
  5
2DA
330
1F
100
AcDbEntity
  8
0
  6
Continuous
 62
     7
370
    15
100
AcDbLine
 10
1123.5
 20
10.5
 30
0.0
 11
1123.5
 21
-6.529100654
 31
0.0
  0
LINE
  5
2DB
330
1F
100
AcDbEntity
  8
0
  6
Continuous
 62
     7
370
    15
100
AcDbLine
 10
1327.5
 20
4.1722831922
 30
0.0
 11
1297.5
 21
4.1722831922
 31
0.0
  0
LINE
  5
2DC
330
1F
100
AcDbEntity
  8
0
  6
Continuous
 62
     7
370
    15
100
AcDbLine
 10
1297.5
 20
-6.529100654
 30
0.0
 11
1297.5
 21
10.5
 31
0.0
  0
LINE
  5
2DD
330
1F
100
AcDbEntity
  8
0
  6
Continuous
 62
     7
370
    15
100
AcDbLine
 10
919.5
 20
1.6722831922
 30
0.0
 11
889.5
 21
1.6722831922
 31
0.0
  0
LINE
  5
2DE
330
1F
100
AcDbEntity
  8
0
  6
Continuous
 62
     7
370
    15
100
AcDbLine
 10
919.5
 20
4.1722831922
 30
0.0
 11
889.5
 21
4.1722831922
 31
0.0
  0
LINE
  5
2DF
330
1F
100
AcDbEntity
  8
0
  6
Continuous
 62
     7
370
    15
100
AcDbLine
 10
919.5
 20
10.5
 30
0.0
 11
919.5
 21
-6.529100654
 31
0.0
  0
LINE
  5
2E0
330
1F
100
AcDbEntity
  8
0
  6
Continuous
 62
     7
370
    15
100
AcDbLine
 10
889.5
 20
-6.529100654
 30
0.0
 11
889.5
 21
10.5
 31
0.0
  0
LINE
  5
2E1
330
1F
100
AcDbEntity
  8
0
  6
Continuous
 62
     7
370
    15
100
AcDbLine
 10
868.5
 20
4.1722831922
 30
0.0
 11
838.5
 21
4.1722831922
 31
0.0
  0
LINE
  5
2E2
330
1F
100
AcDbEntity
  8
0
  6
Continuous
 62
     7
370
    15
100
AcDbLine
 10
838.5
 20
-6.529100654
 30
0.0
 11
838.5
 21
10.5
 31
0.0
  0
LINE
  5
2E3
330
1F
100
AcDbEntity
  8
0
  6
Continuous
 62
     7
370
    15
100
AcDbLine
 10
868.5
 20
10.5
 30
0.0
 11
868.5
 21
-6.529100654
 31
0.0
  0
LINE
  5
2E4
330
1F
100
AcDbEntity
  8
0
  6
Continuous
 62
     7
370
    15
100
AcDbLine
 10
868.5
 20
1.6722831922
 30
0.0
 11
838.5
 21
1.6722831922
 31
0.0
  0
LINE
  5
2E5
330
1F
100
AcDbEntity
  8
0
  6
Continuous
 62
     7
370
    15
100
AcDbLine
 10
1276.5
 20
1.6722831922
 30
0.0
 11
1246.5
 21
1.6722831922
 31
0.0
  0
LINE
  5
2E6
330
1F
100
AcDbEntity
  8
0
  6
Continuous
 62
     7
370
    15
100
AcDbLine
 10
1246.5
 20
-6.529100654
 30
0.0
 11
1246.5
 21
10.5
 31
0.0
  0
LINE
  5
2E7
330
1F
100
AcDbEntity
  8
0
  6
Continuous
 62
     7
370
    15
100
AcDbLine
 10
1276.5
 20
4.1722831922
 30
0.0
 11
1246.5
 21
4.1722831922
 31
0.0
  0
LINE
  5
2E8
330
1F
100
AcDbEntity
  8
0
  6
Continuous
 62
     7
370
    15
100
AcDbLine
 10
1276.5
 20
10.5
 30
0.0
 11
1276.5
 21
-6.529100654
 31
0.0
  0
LINE
  5
2E9
330
1F
100
AcDbEntity
  8
0
  6
Continuous
 62
     7
370
    15
100
AcDbLine
 10
1327.5
 20
1.6722831922
 30
0.0
 11
1297.5
 21
1.6722831922
 31
0.0
  0
LINE
  5
2EA
330
1F
100
AcDbEntity
  8
0
  6
Continuous
 62
     7
370
    15
100
AcDbLine
 10
1362.5095419384
 20
1.6722831922
 30
0.0
 11
1348.5
 21
1.6722831922
 31
0.0
  0
LINE
  5
2EB
330
1F
100
AcDbEntity
  8
0
  6
Continuous
 62
     7
370
    15
100
AcDbLine
 10
1327.5
 20
10.5
 30
0.0
 11
1327.5
 21
-6.529100654
 31
0.0
  0
LINE
  5
2EC
330
1F
100
AcDbEntity
  8
0
  6
Continuous
 62
     7
370
    15
100
AcDbLine
 10
65.0
 20
-6.8983396943
 30
0.0
 11
-65.0
 21
-6.8983396943
 31
0.0
  0
LINE
  5
2ED
330
1F
100
AcDbEntity
  8
0
  6
Continuous
 62
     7
370
    15
100
AcDbLine
 10
65.0
 20
-14.4158806606
 30
0.0
 11
-65.0
 21
-14.4158806606
 31
0.0
  0
LINE
  5
2EE
330
1F
100
AcDbEntity
  8
0
  6
Continuous
 62
     7
370
    15
100
AcDbLine
 10
65.0
 20
-0.5
 30
0.0
 11
-65.0
 21
-0.5
 31
0.0
  0
LINE
  5
2EF
330
1F
100
AcDbEntity
  8
0
  6
Continuous
 62
     7
370
    15
100
AcDbLine
 10
65.0
 20
3.4
 30
0.0
 11
65.0
 21
-52.5
 31
0.0
  0
LINE
  5
2F0
330
1F
100
AcDbEntity
  8
0
  6
Continuous
 62
     7
370
    15
100
AcDbLine
 10
-65.0
 20
3.4
 30
0.0
 11
-65.0
 21
-52.5
 31
0.0
  0
LINE
  5
2F1
330
1F
100
AcDbEntity
  8
0
  6
Continuous
 62
     7
370
    15
100
AcDbLine
 10
55.0
 20
-20.3868403078
 30
0.0
 11
-55.0
 21
-20.3868403078
 31
0.0
  0
LINE
  5
2F2
330
1F
100
AcDbEntity
  8
0
  6
Continuous
 62
     7
370
    15
100
AcDbLine
 10
124.5
 20
-4.5
 30
0.0
 11
103.5
 21
-4.5
 31
0.0
  0
LINE
  5
2F3
330
1F
100
AcDbEntity
  8
0
  6
Continuous
 62
     7
370
    15
100
AcDbLine
 10
1297.5
 20
-4.5
 30
0.0
 11
1276.5
 21
-4.5
 31
0.0
  0
LINE
  5
2F4
330
1F
100
AcDbEntity
  8
0
  6
Continuous
 62
     7
370
    15
100
AcDbLine
 10
175.5
 20
-4.5
 30
0.0
 11
154.5
 21
-4.5
 31
0.0
  0
LINE
  5
2F5
330
1F
100
AcDbEntity
  8
0
  6
Continuous
 62
     7
370
    15
100
AcDbLine
 10
328.5
 20
-4.5
 30
0.0
 11
307.5
 21
-4.5
 31
0.0
  0
LINE
  5
2F6
330
1F
100
AcDbEntity
  8
0
  6
Continuous
 62
     7
370
    15
100
AcDbLine
 10
226.5
 20
-4.5
 30
0.0
 11
205.5
 21
-4.5
 31
0.0
  0
LINE
  5
2F7
330
1F
100
AcDbEntity
  8
0
  6
Continuous
 62
     7
370
    15
100
AcDbLine
 10
379.5
 20
-4.5
 30
0.0
 11
358.5
 21
-4.5
 31
0.0
  0
LINE
  5
2F8
330
1F
100
AcDbEntity
  8
0
  6
Continuous
 62
     7
370
    15
100
AcDbLine
 10
277.5
 20
-4.5
 30
0.0
 11
256.5
 21
-4.5
 31
0.0
  0
LINE
  5
2F9
330
1F
100
AcDbEntity
  8
0
  6
Continuous
 62
     7
370
    15
100
AcDbLine
 10
481.5
 20
-4.5
 30
0.0
 11
460.5
 21
-4.5
 31
0.0
  0
LINE
  5
2FA
330
1F
100
AcDbEntity
  8
0
  6
Continuous
 62
     7
370
    15
100
AcDbLine
 10
430.5
 20
-4.5
 30
0.0
 11
409.5
 21
-4.5
 31
0.0
  0
LINE
  5
2FB
330
1F
100
AcDbEntity
  8
0
  6
Continuous
 62
     7
370
    15
100
AcDbLine
 10
634.5
 20
-4.5
 30
0.0
 11
613.5
 21
-4.5
 31
0.0
  0
LINE
  5
2FC
330
1F
100
AcDbEntity
  8
0
  6
Continuous
 62
     7
370
    15
100
AcDbLine
 10
583.5
 20
-4.5
 30
0.0
 11
562.5
 21
-4.5
 31
0.0
  0
LINE
  5
2FD
330
1F
100
AcDbEntity
  8
0
  6
Continuous
 62
     7
370
    15
100
AcDbLine
 10
532.5
 20
-4.5
 30
0.0
 11
511.5
 21
-4.5
 31
0.0
  0
LINE
  5
2FE
330
1F
100
AcDbEntity
  8
0
  6
Continuous
 62
     7
370
    15
100
AcDbLine
 10
685.5
 20
-4.5
 30
0.0
 11
664.5
 21
-4.5
 31
0.0
  0
LINE
  5
2FF
330
1F
100
AcDbEntity
  8
0
  6
Continuous
 62
     7
370
    15
100
AcDbLine
 10
889.5
 20
-4.5
 30
0.0
 11
868.5
 21
-4.5
 31
0.0
  0
LINE
  5
300
330
1F
100
AcDbEntity
  8
0
  6
Continuous
 62
     7
370
    15
100
AcDbLine
 10
940.5
 20
-4.5
 30
0.0
 11
919.5
 21
-4.5
 31
0.0
  0
LINE
  5
301
330
1F
100
AcDbEntity
  8
0
  6
Continuous
 62
     7
370
    15
100
AcDbLine
 10
991.5
 20
-4.5
 30
0.0
 11
970.5
 21
-4.5
 31
0.0
  0
LINE
  5
302
330
1F
100
AcDbEntity
  8
0
  6
Continuous
 62
     7
370
    15
100
AcDbLine
 10
736.5
 20
-4.5
 30
0.0
 11
715.5
 21
-4.5
 31
0.0
  0
LINE
  5
303
330
1F
100
AcDbEntity
  8
0
  6
Continuous
 62
     7
370
    15
100
AcDbLine
 10
787.5
 20
-4.5
 30
0.0
 11
766.5
 21
-4.5
 31
0.0
  0
LINE
  5
304
330
1F
100
AcDbEntity
  8
0
  6
Continuous
 62
     7
370
    15
100
AcDbLine
 10
1348.5
 20
-4.5
 30
0.0
 11
1327.5
 21
-4.5
 31
0.0
  0
LINE
  5
305
330
1F
100
AcDbEntity
  8
0
  6
Continuous
 62
     7
370
    15
100
AcDbLine
 10
1093.5
 20
-4.5
 30
0.0
 11
1072.5
 21
-4.5
 31
0.0
  0
LINE
  5
306
330
1F
100
AcDbEntity
  8
0
  6
Continuous
 62
     7
370
    15
100
AcDbLine
 10
1144.5
 20
-4.5
 30
0.0
 11
1123.5
 21
-4.5
 31
0.0
  0
LINE
  5
307
330
1F
100
AcDbEntity
  8
0
  6
Continuous
 62
     7
370
    15
100
AcDbLine
 10
1195.5
 20
-4.5
 30
0.0
 11
1174.5
 21
-4.5
 31
0.0
  0
LINE
  5
308
330
1F
100
AcDbEntity
  8
0
  6
Continuous
 62
     7
370
    15
100
AcDbLine
 10
1042.5
 20
-4.5
 30
0.0
 11
1021.5
 21
-4.5
 31
0.0
  0
LINE
  5
309
330
1F
100
AcDbEntity
  8
0
  6
Continuous
 62
     7
370
    15
100
AcDbLine
 10
1246.5
 20
-4.5
 30
0.0
 11
1225.5
 21
-4.5
 31
0.0
  0
LINE
  5
30A
330
1F
100
AcDbEntity
  8
0
  6
Continuous
 62
     7
370
    15
100
AcDbLine
 10
838.5
 20
-4.5
 30
0.0
 11
817.5
 21
-4.5
 31
0.0
  0
LINE
  5
30B
330
1F
100
AcDbEntity
  8
0
  6
Continuous
 62
     7
370
    15
100
AcDbLine
 10
65.0
 20
-4.5
 30
0.0
 11
89.4904580616
 21
-4.5
 31
0.0
  0
LINE
  5
30C
330
1F
100
AcDbEntity
  8
0
  6
Continuous
 62
     7
370
    15
100
AcDbLine
 10
1377.4716161811
 20
10.5
 30
0.0
 11
1377.4716161811
 21
-4.5
 31
0.0
  0
LINE
  5
30D
330
1F
100
AcDbEntity
  8
0
  6
Continuous
 62
     7
370
    15
100
AcDbLine
 10
1362.5095419384
 20
-4.5
 30
0.0
 11
1380.0
 21
-4.5
 31
0.0
  0
LINE
  5
30E
330
1F
100
AcDbEntity
  8
0
  6
Continuous
 62
     7
370
    15
100
AcDbLine
 10
-67.5095419384
 20
10.4910155201
 30
0.0
 11
-67.5095419384
 21
-4.5
 31
0.0
  0
LINE
  5
30F
330
1F
100
AcDbEntity
  8
0
  6
Continuous
 62
     7
370
    15
100
AcDbLine
 10
-82.4716161811
 20
10.5
 30
0.0
 11
-82.4716161811
 21
-4.5
 31
0.0
  0
LINE
  5
310
330
1F
100
AcDbEntity
  8
0
  6
Continuous
 62
     7
370
    15
100
AcDbLine
 10
-73.91
 20
10.5
 30
0.0
 11
-85.0
 21
10.5
 31
0.0
  0
LINE
  5
311
330
1F
100
AcDbEntity
  8
0
  6
Continuous
 62
     7
370
    15
100
AcDbLine
 10
-73.91
 20
53.5382904914
 30
0.0
 11
-73.91
 21
10.4910155201
 31
0.0
  0
LINE
  5
312
330
1F
100
AcDbEntity
  8
0
  6
Continuous
 62
     7
370
    15
100
AcDbLine
 10
82.0
 20
10.4910155201
 30
0.0
 11
-73.91
 21
10.4910155201
 31
0.0
  0
LINE
  5
313
330
1F
100
AcDbEntity
  8
0
  6
Continuous
 62
     7
370
    15
100
AcDbLine
 10
-65.0
 20
-4.5
 30
0.0
 11
-85.0
 21
-4.5
 31
0.0
  0
LINE
  5
314
330
1F
100
AcDbEntity
  8
0
  6
Continuous
 62
     7
370
    15
100
AcDbLine
 10
82.0
 20
10.4910155201
 30
0.0
 11
82.0
 21
-4.5
 31
0.0
  0
LINE
  5
315
330
1F
100
AcDbEntity
  8
0
  6
Continuous
 62
     7
370
    15
100
AcDbLine
 10
71.6282089573
 20
10.4910155201
 30
0.0
 11
71.6282090333
 21
10.5
 31
0.0
  0
LINE
  5
316
330
1F
100
AcDbEntity
  8
0
  6
Continuous
 62
     7
370
    15
100
AcDbLine
 10
65.0
 20
10.5
 30
0.0
 11
1380.0
 21
10.5
 31
0.0
  0
LINE
  5
317
330
1F
100
AcDbEntity
  8
0
  6
Continuous
 62
     7
370
    15
100
AcDbLine
 10
97.0
 20
10.5
 30
0.0
 11
97.0000000013
 21
48.789669623
 31
0.0
  0
LINE
  5
318
330
1F
100
AcDbEntity
  8
0
  6
Continuous
 62
     7
370
    15
100
AcDbLine
 10
97.0000000013
 20
48.789669623
 30
0.0
 11
1348.3493013696
 21
48.789669603
 31
0.0
  0
LINE
  5
319
330
1F
100
AcDbEntity
  8
0
  6
Continuous
 62
     7
370
    15
100
AcDbLine
 10
1354.9999988585
 20
28.5153045405
 30
0.0
 11
1354.9999988585
 21
10.5
 31
0.0
  0
LINE
  5
31A
330
1F
100
AcDbEntity
  8
0
  6
Continuous
 62
     7
370
    15
100
AcDbLine
 10
1354.9999988585
 20
28.515304497
 30
0.0
 11
1369.9999998301
 21
25.5000001934
 31
0.0
  0
LINE
  5
31B
330
1F
100
AcDbEntity
  8
0
  6
Continuous
 62
     7
370
    15
100
AcDbLine
 10
82.0
 20
11.5
 30
0.0
 11
82.0
 21
10.5
 31
0.0
  0
LINE
  5
31C
330
1F
100
AcDbEntity
  8
0
  6
Continuous
 62
     7
370
    15
100
AcDbLine
 10
92.2
 20
12.8835095208
 30
0.0
 11
92.2
 21
27.0
 31
0.0
  0
LINE
  5
31D
330
1F
100
AcDbEntity
  8
0
  6
Continuous
 62
     7
370
    15
100
AcDbLine
 10
65.0
 20
11.5
 30
0.0
 11
90.8164904792
 21
11.5
 31
0.0
  0
LINE
  5
31E
330
1F
100
AcDbEntity
  8
0
  6
Continuous
 62
     7
370
    15
100
AcDbLine
 10
65.0
 20
11.5
 30
0.0
 11
65.0
 21
10.5
 31
0.0
  0
LINE
  5
31F
330
1F
100
AcDbEntity
  8
0
  6
Continuous
 62
     7
370
    15
100
AcDbLine
 10
96.9771995924
 20
48.7806851605
 30
0.0
 11
-73.91
 21
48.7806851605
 31
0.0
  0
LINE
  5
320
330
1F
100
AcDbEntity
  8
0
  6
Continuous
 62
     7
370
    15
100
AcDbLine
 10
-55.0
 20
-20.3868403078
 30
0.0
 11
-55.0
 21
-62.5
 31
0.0
  0
LINE
  5
321
330
1F
100
AcDbEntity
  8
0
  6
Continuous
 62
     7
370
    15
100
AcDbLine
 10
1339.8432718845
 20
-39.3052066304
 30
0.0
 11
109.0019285405
 21
-39.3052066304
 31
0.0
  0
LINE
  5
322
330
1F
100
AcDbEntity
  8
0
  6
Continuous
 62
     7
370
    15
100
AcDbLine
 10
109.0019285405
 20
-39.3052066304
 30
0.0
 11
105.5745867273
 21
-34.8543548542
 31
0.0
  0
LINE
  5
323
330
1F
100
AcDbEntity
  8
0
  6
Continuous
 62
     7
370
    15
100
AcDbLine
 10
105.5745867273
 20
-34.8543548542
 30
0.0
 11
102.3627428227
 21
-28.684437831
 31
0.0
  0
LINE
  5
324
330
1F
100
AcDbEntity
  8
0
  6
Continuous
 62
     7
370
    15
100
AcDbLine
 10
102.3627428227
 20
-28.684437831
 30
0.0
 11
100.5
 21
-22.7411658652
 31
0.0
  0
LINE
  5
325
330
1F
100
AcDbEntity
  8
0
  6
Continuous
 62
     7
370
    15
100
AcDbLine
 10
100.5
 20
-22.7411658652
 30
0.0
 11
100.5
 21
-6.529100654
 31
0.0
  0
LINE
  5
326
330
1F
100
AcDbEntity
  8
0
  6
Continuous
 62
     7
370
    15
100
AcDbLine
 10
1351.5
 20
-6.529100654
 30
0.0
 11
1351.5
 21
-19.9976557537
 31
0.0
  0
LINE
  5
327
330
1F
100
AcDbEntity
  8
0
  6
Continuous
 62
     7
370
    15
100
AcDbLine
 10
1351.5
 20
-19.9976557537
 30
0.0
 11
1349.7558754493
 21
-25.5624639606
 31
0.0
  0
LINE
  5
328
330
1F
100
AcDbEntity
  8
0
  6
Continuous
 62
     7
370
    15
100
AcDbLine
 10
1349.7558754493
 20
-25.5624639606
 30
0.0
 11
1346.6645965593
 21
-31.5007769091
 31
0.0
  0
LINE
  5
329
330
1F
100
AcDbEntity
  8
0
  6
Continuous
 62
     7
370
    15
100
AcDbLine
 10
1346.6645965593
 20
-31.5007769091
 30
0.0
 11
1342.5557199072
 21
-36.8366908452
 31
0.0
  0
LINE
  5
32A
330
1F
100
AcDbEntity
  8
0
  6
Continuous
 62
     7
370
    15
100
AcDbLine
 10
1342.5557199072
 20
-36.8366908452
 30
0.0
 11
1339.8432718845
 21
-39.3052066304
 31
0.0
  0
LINE
  5
32B
330
1F
100
AcDbEntity
  8
0
  6
Continuous
 62
     7
370
    15
100
AcDbLine
 10
1363.5
 20
-4.5
 30
0.0
 11
1363.5
 21
-24.5
 31
0.0
  0
LINE
  5
32C
330
1F
100
AcDbEntity
  8
0
  6
Continuous
 62
     7
370
    15
100
AcDbLine
 10
1360.8043264256
 20
-33.1008229308
 30
0.0
 11
1363.5
 21
-24.5
 31
0.0
  0
LINE
  5
32D
330
1F
100
AcDbEntity
  8
0
  6
Continuous
 62
     7
370
    15
100
AcDbLine
 10
1363.4767785234
 20
-24.5740905022
 30
0.0
 11
1351.5
 21
-19.9976557537
 31
0.0
  0
LINE
  5
32E
330
1F
100
AcDbEntity
  8
0
  6
Continuous
 62
     7
370
    15
100
AcDbLine
 10
88.5
 20
-22.0050597102
 30
0.0
 11
100.5
 21
-22.7411658652
 31
0.0
  0
LINE
  5
32F
330
1F
100
AcDbEntity
  8
0
  6
Continuous
 62
     7
370
    15
100
AcDbLine
 10
88.5
 20
-24.5
 30
0.0
 11
88.5
 21
-4.5
 31
0.0
  0
LINE
  5
330
330
1F
100
AcDbEntity
  8
0
  6
Continuous
 62
     7
370
    15
100
AcDbLine
 10
55.0
 20
-62.5
 30
0.0
 11
55.0
 21
-20.3868403078
 31
0.0
  0
LINE
  5
331
330
1F
100
AcDbEntity
  8
0
  6
Continuous
 62
     7
370
    15
100
AcDbLine
 10
55.0
 20
-49.5577028437
 30
0.0
 11
-55.0
 21
-49.5577028437
 31
0.0
  0
LINE
  5
332
330
1F
100
AcDbEntity
  8
0
  6
Continuous
 62
     7
370
    15
100
AcDbLine
 10
1356.6424278646
 20
-41.0957845614
 30
0.0
 11
1360.8043264256
 21
-33.1008229308
 31
0.0
  0
LINE
  5
333
330
1F
100
AcDbEntity
  8
0
  6
Continuous
 62
     7
370
    15
100
AcDbLine
 10
1360.7136993885
 20
-33.2749164783
 30
0.0
 11
1349.7558754493
 21
-25.5624639606
 31
0.0
  0
LINE
  5
334
330
1F
100
AcDbEntity
  8
0
  6
Continuous
 62
     7
370
    15
100
AcDbLine
 10
91.1956735744
 20
-33.1008229308
 30
0.0
 11
88.5
 21
-24.5
 31
0.0
  0
LINE
  5
335
330
1F
100
AcDbEntity
  8
0
  6
Continuous
 62
     7
370
    15
100
AcDbLine
 10
102.3627428227
 20
-28.684437831
 30
0.0
 11
90.4537205287
 21
-30.733545665
 31
0.0
  0
LINE
  5
336
330
1F
100
AcDbEntity
  8
0
  6
Continuous
 62
     7
370
    15
100
AcDbLine
 10
1351.1432421525
 20
-48.2371967194
 30
0.0
 11
1356.6424278646
 21
-41.0957845614
 31
0.0
  0
LINE
  5
337
330
1F
100
AcDbEntity
  8
0
  6
Continuous
 62
     7
370
    15
100
AcDbLine
 10
1356.4818210349
 20
-41.3043535436
 30
0.0
 11
1346.6645965593
 21
-31.5007769091
 31
0.0
  0
LINE
  5
338
330
1F
100
AcDbEntity
  8
0
  6
Continuous
 62
     7
370
    15
100
AcDbLine
 10
95.3575721354
 20
-41.0957845614
 30
0.0
 11
91.1956735744
 21
-33.1008229308
 31
0.0
  0
LINE
  5
339
330
1F
100
AcDbEntity
  8
0
  6
Continuous
 62
     7
370
    15
100
AcDbLine
 10
105.5745867273
 20
-34.8543548542
 30
0.0
 11
94.2669738037
 21
-39.0007570907
 31
0.0
  0
LINE
  5
33A
330
1F
100
AcDbEntity
  8
0
  6
Continuous
 62
     7
370
    15
100
AcDbLine
 10
1344.4771369935
 20
-54.30381465
 30
0.0
 11
1351.1432421525
 21
-48.2371967194
 31
0.0
  0
LINE
  5
33B
330
1F
100
AcDbEntity
  8
0
  6
Continuous
 62
     7
370
    15
100
AcDbLine
 10
1350.9200220258
 20
-48.4403425131
 30
0.0
 11
1342.5557199072
 21
-36.8366908452
 31
0.0
  0
LINE
  5
33C
330
1F
100
AcDbEntity
  8
0
  6
Continuous
 62
     7
370
    15
100
AcDbLine
 10
109.1472513247
 20
-40.7453064043
 30
0.0
 11
109.0019285405
 21
-39.3052066304
 31
0.0
  0
LINE
  5
33D
330
1F
100
AcDbEntity
  8
0
  6
Continuous
 62
     7
370
    15
100
AcDbLine
 10
109.1472513247
 20
-40.7453064043
 30
0.0
 11
99.5445729475
 21
-46.5331529411
 31
0.0
  0
LINE
  5
33E
330
1F
100
AcDbEntity
  8
0
  6
Continuous
 62
     7
370
    15
100
AcDbLine
 10
100.8567578475
 20
-48.2371967194
 30
0.0
 11
95.3575721354
 21
-41.0957845614
 31
0.0
  0
LINE
  5
33F
330
1F
100
AcDbEntity
  8
0
  6
Continuous
 62
     7
370
    15
100
AcDbLine
 10
1339.8432718845
 20
-39.3052066304
 30
0.0
 11
1339.7943115924
 21
-45.8371273833
 31
0.0
  0
LINE
  5
340
330
1F
100
AcDbEntity
  8
0
  6
Continuous
 62
     7
370
    15
100
AcDbLine
 10
1336.8506318783
 20
-59.1076912965
 30
0.0
 11
1344.4771369935
 21
-54.30381465
 31
0.0
  0
LINE
  5
341
330
1F
100
AcDbEntity
  8
0
  6
Continuous
 62
     7
370
    15
100
AcDbLine
 10
1339.7943115924
 20
-45.8371273833
 30
0.0
 11
1344.2201279579
 21
-54.4657026558
 31
0.0
  0
LINE
  5
342
330
1F
100
AcDbEntity
  8
0
  6
Continuous
 62
     7
370
    15
100
AcDbLine
 10
1339.7943115924
 20
-45.8371273833
 30
0.0
 11
1337.7786524299
 21
-58.0302243474
 31
0.0
  0
LINE
  5
343
330
1F
100
AcDbEntity
  8
0
  6
Continuous
 62
     7
370
    15
100
AcDbLine
 10
1337.7786524299
 20
-58.0302243474
 30
0.0
 11
118.1951037142
 21
-58.0302243474
 31
0.0
  0
LINE
  5
344
330
1F
100
AcDbEntity
  8
0
  6
Continuous
 62
     7
370
    15
100
AcDbLine
 10
118.1951037142
 20
-58.0302243474
 30
0.0
 11
111.6196667557
 21
-48.0359167857
 31
0.0
  0
LINE
  5
345
330
1F
100
AcDbEntity
  8
0
  6
Continuous
 62
     7
370
    15
100
AcDbLine
 10
111.6196667557
 20
-48.0359167857
 30
0.0
 11
109.1472513247
 21
-40.7453064043
 31
0.0
  0
LINE
  5
346
330
1F
100
AcDbEntity
  8
0
  6
Continuous
 62
     7
370
    15
100
AcDbLine
 10
1348.0833982399
 20
50.4785633345
 30
0.0
 11
96.1710176293
 21
50.4785633538
 31
0.0
  0
LINE
  5
347
330
1F
100
AcDbEntity
  8
0
  6
Continuous
 62
     7
370
    15
100
AcDbLine
 10
96.1482461618
 20
50.4695788543
 30
0.0
 11
-73.91
 21
50.4695788543
 31
0.0
  0
LINE
  5
348
330
1F
100
AcDbEntity
  8
0
  6
Continuous
 62
     7
370
    15
100
AcDbLine
 10
111.6196667557
 20
-48.0359167857
 30
0.0
 11
106.1602677655
 21
-53.0637584967
 31
0.0
  0
LINE
  5
349
330
1F
100
AcDbEntity
  8
0
  6
Continuous
 62
     7
370
    15
100
AcDbLine
 10
107.5228630065
 20
-54.30381465
 30
0.0
 11
100.8567578475
 21
-48.2371967194
 31
0.0
  0
LINE
  5
34A
330
1F
100
AcDbEntity
  8
0
  6
Continuous
 62
     7
370
    15
100
AcDbLine
 10
98.7209435162
 20
57.8990256187
 30
0.0
 11
1353.2790564838
 21
57.8990256187
 31
0.0
  0
LINE
  5
34B
330
1F
100
AcDbEntity
  8
0
  6
Continuous
 62
     7
370
    15
100
AcDbLine
 10
1353.2790564838
 20
57.8990256187
 30
0.0
 11
1353.5154766267
 21
57.7296804139
 31
0.0
  0
LINE
  5
34C
330
1F
100
AcDbEntity
  8
0
  6
Continuous
 62
     7
370
    15
100
AcDbLine
 10
251.0
 20
57.5089844799
 30
0.0
 11
251.0
 21
52.3089844799
 31
0.0
  0
LINE
  5
34D
330
1F
100
AcDbEntity
  8
0
  6
Continuous
 62
     7
370
    15
100
AcDbLine
 10
251.0
 20
52.3089844799
 30
0.0
 11
401.0
 21
52.3089844799
 31
0.0
  0
LINE
  5
34E
330
1F
100
AcDbEntity
  8
0
  6
Continuous
 62
     7
370
    15
100
AcDbLine
 10
401.0
 20
52.3089844799
 30
0.0
 11
401.0
 21
57.5089844799
 31
0.0
  0
LINE
  5
34F
330
1F
100
AcDbEntity
  8
0
  6
Continuous
 62
     7
370
    15
100
AcDbLine
 10
401.0
 20
57.5089844799
 30
0.0
 11
251.0
 21
57.5089844799
 31
0.0
  0
LINE
  5
350
330
1F
100
AcDbEntity
  8
0
  6
Continuous
 62
     7
370
    15
100
AcDbLine
 10
1051.0
 20
57.5089844799
 30
0.0
 11
1051.0
 21
52.3089844799
 31
0.0
  0
LINE
  5
351
330
1F
100
AcDbEntity
  8
0
  6
Continuous
 62
     7
370
    15
100
AcDbLine
 10
1051.0
 20
52.3089844799
 30
0.0
 11
1201.0
 21
52.3089844799
 31
0.0
  0
LINE
  5
352
330
1F
100
AcDbEntity
  8
0
  6
Continuous
 62
     7
370
    15
100
AcDbLine
 10
1201.0
 20
52.3089844799
 30
0.0
 11
1201.0
 21
57.5089844799
 31
0.0
  0
LINE
  5
353
330
1F
100
AcDbEntity
  8
0
  6
Continuous
 62
     7
370
    15
100
AcDbLine
 10
1201.0
 20
57.5089844799
 30
0.0
 11
1051.0
 21
57.5089844799
 31
0.0
  0
LINE
  5
354
330
1F
100
AcDbEntity
  8
0
  6
Continuous
 62
     7
370
    15
100
AcDbLine
 10
98.7083082234
 20
57.8900411385
 30
0.0
 11
-72.7825002143
 21
57.8900411385
 31
0.0
  0
LINE
  5
355
330
1F
100
AcDbEntity
  8
0
  6
Continuous
 62
     7
370
    15
100
AcDbLine
 10
55.0
 20
-57.9589650019
 30
0.0
 11
-55.0
 21
-57.9589650019
 31
0.0
  0
LINE
  5
356
330
1F
100
AcDbEntity
  8
0
  6
Continuous
 62
     7
370
    15
100
AcDbLine
 10
1337.7786524299
 20
-58.0302243474
 30
0.0
 11
1338.5124012489
 21
-58.0609556095
 31
0.0
  0
LINE
  5
357
330
1F
100
AcDbEntity
  8
0
  6
Continuous
 62
     7
370
    15
100
AcDbLine
 10
118.1951037142
 20
-58.0302243474
 30
0.0
 11
113.8924759763
 21
-58.3159846454
 31
0.0
  0
LINE
  5
358
330
1F
100
AcDbEntity
  8
0
  6
Continuous
 62
     7
370
    15
100
AcDbLine
 10
115.1493681217
 20
-59.1076912965
 30
0.0
 11
107.5228630065
 21
-54.30381465
 31
0.0
  0
LINE
  5
359
330
1F
100
AcDbEntity
  8
0
  6
Continuous
 62
     7
370
    15
100
AcDbLine
 10
1336.8506318783
 20
-59.1076912965
 30
0.0
 11
1328.5
 21
-62.5
 31
0.0
  0
LINE
  5
35A
330
1F
100
AcDbEntity
  8
0
  6
Continuous
 62
     7
370
    15
100
AcDbLine
 10
1328.5
 20
-62.5
 30
0.0
 11
123.5
 21
-62.5
 31
0.0
  0
LINE
  5
35B
330
1F
100
AcDbEntity
  8
0
  6
Continuous
 62
     7
370
    15
100
AcDbLine
 10
123.5
 20
-62.5
 30
0.0
 11
115.1493681217
 21
-59.1076912965
 31
0.0
  0
LINE
  5
35C
330
1F
100
AcDbEntity
  8
0
  6
Continuous
 62
     7
370
    15
100
AcDbLine
 10
341.0
 20
60.6087191947
 30
0.0
 11
311.0
 21
60.6087191947
 31
0.0
  0
LINE
  5
35D
330
1F
100
AcDbEntity
  8
0
  6
Continuous
 62
     7
370
    15
100
AcDbLine
 10
1141.0
 20
60.6087191947
 30
0.0
 11
1111.0
 21
60.6087191947
 31
0.0
  0
LINE
  5
35E
330
1F
100
AcDbEntity
  8
0
  6
Continuous
 62
     7
370
    15
100
AcDbLine
 10
82.0
 20
62.9953141405
 30
0.0
 11
108.5545788745
 21
62.9953141405
 31
0.0
  0
LINE
  5
35F
330
1F
100
AcDbEntity
  8
0
  6
Continuous
 62
     7
370
    15
100
AcDbLine
 10
82.0
 20
64.9644267627
 30
0.0
 11
82.0
 21
62.5
 31
0.0
  0
LINE
  5
360
330
1F
100
AcDbEntity
  8
0
  6
Continuous
 62
     7
370
    15
100
AcDbLine
 10
1343.4454211255
 20
62.9953141405
 30
0.0
 11
1370.0
 21
62.9953141405
 31
0.0
  0
LINE
  5
361
330
1F
100
AcDbEntity
  8
0
  6
Continuous
 62
     7
370
    15
100
AcDbLine
 10
1370.0
 20
64.9644267627
 30
0.0
 11
1370.0000000018
 21
10.5
 31
0.0
  0
LINE
  5
362
330
1F
100
AcDbEntity
  8
0
  6
Continuous
 62
     7
370
    15
100
AcDbLine
 10
105.1906976744
 20
62.5
 30
0.0
 11
-65.0
 21
62.5
 31
0.0
  0
LINE
  5
363
330
1F
100
AcDbEntity
  8
0
  6
Continuous
 62
     7
370
    15
100
AcDbLine
 10
105.7869209574
 20
61.903330833
 30
0.0
 11
105.1906976744
 21
62.5
 31
0.0
  0
LINE
  5
364
330
1F
100
AcDbEntity
  8
0
  6
Continuous
 62
     7
370
    15
100
AcDbLine
 10
1367.546153872
 20
39.2497370322
 30
0.0
 11
1370.0
 21
39.2497370322
 31
0.0
  0
LINE
  5
365
330
1F
100
AcDbEntity
  8
0
  6
Continuous
 62
     7
370
    15
100
AcDbLine
 10
1141.0
 20
66.5089844799
 30
0.0
 11
1141.0
 21
60.6087191947
 31
0.0
  0
LINE
  5
366
330
1F
100
AcDbEntity
  8
0
  6
Continuous
 62
     7
370
    15
100
AcDbLine
 10
1111.0
 20
66.5089844799
 30
0.0
 11
1111.0
 21
60.6087191947
 31
0.0
  0
LINE
  5
367
330
1F
100
AcDbEntity
  8
0
  6
Continuous
 62
     7
370
    15
100
AcDbLine
 10
1111.0
 20
66.5089844799
 30
0.0
 11
1141.0
 21
66.5089844799
 31
0.0
  0
LINE
  5
368
330
1F
100
AcDbEntity
  8
0
  6
Continuous
 62
     7
370
    15
100
AcDbLine
 10
341.0
 20
60.6087191947
 30
0.0
 11
341.0
 21
66.5089844799
 31
0.0
  0
LINE
  5
369
330
1F
100
AcDbEntity
  8
0
  6
Continuous
 62
     7
370
    15
100
AcDbLine
 10
311.0
 20
66.5089844799
 30
0.0
 11
341.0
 21
66.5089844799
 31
0.0
  0
LINE
  5
36A
330
1F
100
AcDbEntity
  8
0
  6
Continuous
 62
     7
370
    15
100
AcDbLine
 10
311.0
 20
66.5089844799
 30
0.0
 11
311.0
 21
60.6087191947
 31
0.0
  0
LINE
  5
36B
330
1F
100
AcDbEntity
  8
0
  6
Continuous
 62
     8
370
    15
100
AcDbLine
 10
74.5283838189
 20
10.5
 30
0.0
 11
74.5283838189
 21
10.4910155201
 31
0.0
  0
ARC
  5
36C
330
1F
100
AcDbEntity
  8
0
  6
Continuous
 62
     7
370
    15
100
AcDbCircle
 10
55.0
 20
-52.5
 30
0.0
 40
10.0
100
AcDbArc
 50
270.0
 51
0.0
  0
ARC
  5
36D
330
1F
100
AcDbEntity
  8
0
  6
Continuous
 62
     7
370
    15
100
AcDbCircle
 10
-55.0
 20
-52.5
 30
0.0
 40
9.999999999999993
100
AcDbArc
 50
180.0
 51
270.0
  0
ARC
  5
36E
330
1F
100
AcDbEntity
  8
0
  6
Continuous
 62
     7
370
    15
100
AcDbCircle
 10
121.749156853
 20
25.5
 30
0.0
 40
39.7491568529928
100
AcDbArc
 50
125.4040233786
 51
136.0279707672
  0
ARC
  5
36F
330
1F
100
AcDbEntity
  8
0
  6
Continuous
 62
     7
370
    15
100
AcDbCircle
 10
-64.9481404424
 20
53.5382904914
 30
0.0
 40
8.961859557646378
100
AcDbArc
 50
150.9491484528
 51
180.0
  0
ENDSEC
  0
SECTION
  2
OBJECTS
  0
DICTIONARY
  5
C
330
0
100
AcDbDictionary
281
     1
  3
ACAD_GROUP
350
D
  3
ACAD_LAYOUT
350
1A
  3
ACAD_MLINESTYLE
350
17
  3
ACAD_PLOTSETTINGS
350
19
  3
ACAD_PLOTSTYLENAME
350
E
  3
ACAD_SCALELIST
350
47
  0
DICTIONARY
  5
D
102
{ACAD_REACTORS
330
C
102
}
330
C
100
AcDbDictionary
281
     1
  0
DICTIONARY
  5
1A
102
{ACAD_REACTORS
330
C
102
}
330
C
100
AcDbDictionary
281
     1
  3
Layout1
350
1E
  3
Layout2
350
26
  3
Model
350
22
  0
DICTIONARY
  5
17
102
{ACAD_REACTORS
330
C
102
}
330
C
100
AcDbDictionary
281
     1
  3
Standard
350
18
  0
DICTIONARY
  5
19
102
{ACAD_REACTORS
330
C
102
}
330
C
100
AcDbDictionary
281
     1
  0
ACDBDICTIONARYWDFLT
  5
E
102
{ACAD_REACTORS
330
C
102
}
330
C
100
AcDbDictionary
281
     1
  3
Normal
350
F
100
AcDbDictionaryWithDefault
340
F
  0
DICTIONARY
  5
47
102
{ACAD_REACTORS
330
C
102
}
330
C
100
AcDbDictionary
281
     1
  3
A0
350
48
  3
A1
350
49
  3
A2
350
4A
  3
A3
350
4B
  3
A4
350
4C
  3
A5
350
4D
  3
A6
350
4E
  3
A7
350
4F
  3
A8
350
50
  3
A9
350
51
  3
B0
350
52
  3
B1
350
53
  3
B2
350
54
  3
B3
350
55
  3
B4
350
56
  3
B5
350
57
  3
B6
350
58
  3
B7
350
59
  3
B8
350
5A
  3
B9
350
5B
  3
C0
350
5C
  3
C1
350
5D
  3
C2
350
5E
  3
C3
350
5F
  3
C4
350
60
  3
C5
350
61
  3
C6
350
62
  3
C7
350
63
  3
C8
350
64
  3
C9
350
65
  3
D0
350
66
  3
D1
350
67
  3
D2
350
68
  0
LAYOUT
  5
1E
102
{ACAD_REACTORS
330
1A
102
}
330
1A
100
AcDbPlotSettings
  1

  2
none_device
  4

  6

 40
0.0
 41
0.0
 42
0.0
 43
0.0
 44
0.0
 45
0.0
 46
0.0
 47
0.0
 48
0.0
 49
0.0
140
0.0
141
0.0
142
1.0
143
1.0
 70
   688
 72
     1
 73
     0
 74
     5
  7

 75
    16
147
1.0
148
0.0
149
0.0
100
AcDbLayout
  1
Layout1
 70
     1
 71
     1
 10
0.0
 20
0.0
 11
420.0
 21
297.0
 12
0.0
 22
0.0
 32
0.0
 14
1.0000000000E+20
 24
1.0000000000E+20
 34
1.0000000000E+20
 15
-1.0000000000E+20
 25
-1.0000000000E+20
 35
-1.0000000000E+20
146
0.0
 13
0.0
 23
0.0
 33
0.0
 16
1.0
 26
0.0
 36
0.0
 17
0.0
 27
1.0
 37
0.0
 76
     0
330
1B
  0
LAYOUT
  5
26
102
{ACAD_REACTORS
330
1A
102
}
330
1A
100
AcDbPlotSettings
  1

  2
none_device
  4

  6

 40
0.0
 41
0.0
 42
0.0
 43
0.0
 44
0.0
 45
0.0
 46
0.0
 47
0.0
 48
0.0
 49
0.0
140
0.0
141
0.0
142
1.0
143
1.0
 70
   688
 72
     1
 73
     0
 74
     5
  7

 75
    16
147
1.0
148
0.0
149
0.0
100
AcDbLayout
  1
Layout2
 70
     1
 71
     2
 10
0.0
 20
0.0
 11
0.0
 21
0.0
 12
0.0
 22
0.0
 32
0.0
 14
0.0
 24
0.0
 34
0.0
 15
0.0
 25
0.0
 35
0.0
146
0.0
 13
0.0
 23
0.0
 33
0.0
 16
1.0
 26
0.0
 36
0.0
 17
0.0
 27
1.0
 37
0.0
 76
     0
330
23
  0
LAYOUT
  5
22
102
{ACAD_REACTORS
330
1A
102
}
330
1A
100
AcDbPlotSettings
  1

  2
none_device
  4
ANSI_A_(11.00_x_8.50_Inches)
  6

 40
6.35
 41
19.05
 42
6.35000508
 43
19.05000254
 44
279.4
 45
215.9
 46
11.0958097467
 47
88.5215314395
 48
0.0
 49
0.0
140
0.0
141
0.0
142
0.0074334471
143
1.0
 70
  1696
 72
     0
 73
     0
 74
     0
  7

 75
     0
147
0.0179189148
148
-1300.4909072572
149
0.0
100
AcDbLayout
  1
Model
 70
     1
 71
     0
 10
0.0
 20
0.0
 11
420.0
 21
297.0
 12
0.0
 22
0.0
 32
0.0
 14
-85.0
 24
-62.5
 34
0.0
 15
1380.0
 25
66.5089844799
 35
0.0
146
0.0
 13
0.0
 23
0.0
 33
0.0
 16
1.0
 26
0.0
 36
0.0
 17
0.0
 27
1.0
 37
0.0
 76
     0
330
1F
331
29
  0
MLINESTYLE
  5
18
102
{ACAD_REACTORS
330
17
102
}
330
17
100
AcDbMlineStyle
  2
Standard
 70
     0
  3

 62
   256
 51
90.0
 52
90.0
 71
     2
 49
0.5
 62
   256
  6
BYLAYER
 49
-0.5
 62
   256
  6
BYLAYER
  0
ACDBPLACEHOLDER
  5
F
102
{ACAD_REACTORS
330
E
102
}
330
E
  0
SCALE
  5
48
102
{ACAD_REACTORS
330
47
102
}
330
47
100
AcDbScale
 70
     0
300
1:1
140
1.0
141
1.0
290
     1
  0
SCALE
  5
49
102
{ACAD_REACTORS
330
47
102
}
330
47
100
AcDbScale
 70
     0
300
1:2
140
1.0
141
2.0
290
     0
  0
SCALE
  5
4A
102
{ACAD_REACTORS
330
47
102
}
330
47
100
AcDbScale
 70
     0
300
1:4
140
1.0
141
4.0
290
     0
  0
SCALE
  5
4B
102
{ACAD_REACTORS
330
47
102
}
330
47
100
AcDbScale
 70
     0
300
1:5
140
1.0
141
5.0
290
     0
  0
SCALE
  5
4C
102
{ACAD_REACTORS
330
47
102
}
330
47
100
AcDbScale
 70
     0
300
1:8
140
1.0
141
8.0
290
     0
  0
SCALE
  5
4D
102
{ACAD_REACTORS
330
47
102
}
330
47
100
AcDbScale
 70
     0
300
1:10
140
1.0
141
10.0
290
     0
  0
SCALE
  5
4E
102
{ACAD_REACTORS
330
47
102
}
330
47
100
AcDbScale
 70
     0
300
1:16
140
1.0
141
16.0
290
     0
  0
SCALE
  5
4F
102
{ACAD_REACTORS
330
47
102
}
330
47
100
AcDbScale
 70
     0
300
1:20
140
1.0
141
20.0
290
     0
  0
SCALE
  5
50
102
{ACAD_REACTORS
330
47
102
}
330
47
100
AcDbScale
 70
     0
300
1:30
140
1.0
141
30.0
290
     0
  0
SCALE
  5
51
102
{ACAD_REACTORS
330
47
102
}
330
47
100
AcDbScale
 70
     0
300
1:40
140
1.0
141
40.0
290
     0
  0
SCALE
  5
52
102
{ACAD_REACTORS
330
47
102
}
330
47
100
AcDbScale
 70
     0
300
1:50
140
1.0
141
50.0
290
     0
  0
SCALE
  5
53
102
{ACAD_REACTORS
330
47
102
}
330
47
100
AcDbScale
 70
     0
300
1:100
140
1.0
141
100.0
290
     0
  0
SCALE
  5
54
102
{ACAD_REACTORS
330
47
102
}
330
47
100
AcDbScale
 70
     0
300
2:1
140
2.0
141
1.0
290
     0
  0
SCALE
  5
55
102
{ACAD_REACTORS
330
47
102
}
330
47
100
AcDbScale
 70
     0
300
4:1
140
4.0
141
1.0
290
     0
  0
SCALE
  5
56
102
{ACAD_REACTORS
330
47
102
}
330
47
100
AcDbScale
 70
     0
300
8:1
140
8.0
141
1.0
290
     0
  0
SCALE
  5
57
102
{ACAD_REACTORS
330
47
102
}
330
47
100
AcDbScale
 70
     0
300
10:1
140
10.0
141
1.0
290
     0
  0
SCALE
  5
58
102
{ACAD_REACTORS
330
47
102
}
330
47
100
AcDbScale
 70
     0
300
100:1
140
100.0
141
1.0
290
     0
  0
SCALE
  5
59
102
{ACAD_REACTORS
330
47
102
}
330
47
100
AcDbScale
 70
     0
300
1/128" = 1'-0"
140
0.0078125
141
12.0
290
     0
  0
SCALE
  5
5A
102
{ACAD_REACTORS
330
47
102
}
330
47
100
AcDbScale
 70
     0
300
1/64" = 1'-0"
140
0.015625
141
12.0
290
     0
  0
SCALE
  5
5B
102
{ACAD_REACTORS
330
47
102
}
330
47
100
AcDbScale
 70
     0
300
1/32" = 1'-0"
140
0.03125
141
12.0
290
     0
  0
SCALE
  5
5C
102
{ACAD_REACTORS
330
47
102
}
330
47
100
AcDbScale
 70
     0
300
1/16" = 1'-0"
140
0.0625
141
12.0
290
     0
  0
SCALE
  5
5D
102
{ACAD_REACTORS
330
47
102
}
330
47
100
AcDbScale
 70
     0
300
3/32" = 1'-0"
140
0.09375
141
12.0
290
     0
  0
SCALE
  5
5E
102
{ACAD_REACTORS
330
47
102
}
330
47
100
AcDbScale
 70
     0
300
1/8" = 1'-0"
140
0.125
141
12.0
290
     0
  0
SCALE
  5
5F
102
{ACAD_REACTORS
330
47
102
}
330
47
100
AcDbScale
 70
     0
300
3/16" = 1'-0"
140
0.1875
141
12.0
290
     0
  0
SCALE
  5
60
102
{ACAD_REACTORS
330
47
102
}
330
47
100
AcDbScale
 70
     0
300
1/4" = 1'-0"
140
0.25
141
12.0
290
     0
  0
SCALE
  5
61
102
{ACAD_REACTORS
330
47
102
}
330
47
100
AcDbScale
 70
     0
300
3/8" = 1'-0"
140
0.375
141
12.0
290
     0
  0
SCALE
  5
62
102
{ACAD_REACTORS
330
47
102
}
330
47
100
AcDbScale
 70
     0
300
1/2" = 1'-0"
140
0.5
141
12.0
290
     0
  0
SCALE
  5
63
102
{ACAD_REACTORS
330
47
102
}
330
47
100
AcDbScale
 70
     0
300
3/4" = 1'-0"
140
0.75
141
12.0
290
     0
  0
SCALE
  5
64
102
{ACAD_REACTORS
330
47
102
}
330
47
100
AcDbScale
 70
     0
300
1" = 1'-0"
140
1.0
141
12.0
290
     0
  0
SCALE
  5
65
102
{ACAD_REACTORS
330
47
102
}
330
47
100
AcDbScale
 70
     0
300
1-1/2" = 1'-0"
140
1.5
141
12.0
290
     0
  0
SCALE
  5
66
102
{ACAD_REACTORS
330
47
102
}
330
47
100
AcDbScale
 70
     0
300
3" = 1'-0"
140
3.0
141
12.0
290
     0
  0
SCALE
  5
67
102
{ACAD_REACTORS
330
47
102
}
330
47
100
AcDbScale
 70
     0
300
6" = 1'-0"
140
6.0
141
12.0
290
     0
  0
SCALE
  5
68
102
{ACAD_REACTORS
330
47
102
}
330
47
100
AcDbScale
 70
     0
300
1'-0" = 1'-0"
140
12.0
141
12.0
290
     0
  0
ENDSEC
  0
EOF
