  0
SECTION
  2
HEADER
  9
$ACADVER
  1
AC1015
  9
$ACADMAINTVER
 70
     6
  9
$DWGCODEPAGE
  3
ANSI_1252
  9
$INSBASE
 10
0.0
 20
0.0
 30
0.0
  9
$EXTMIN
 10
-276.5
 20
-28.6566732155
 30
0.0
  9
$EXTMAX
 10
457.0
 20
28.6566732157
 30
0.0
  9
$LIMMIN
 10
0.0
 20
0.0
  9
$LIMMAX
 10
420.0
 20
297.0
  9
$ORTHOMODE
 70
     0
  9
$REGENMODE
 70
     1
  9
$FILLMODE
 70
     1
  9
$QTEXTMODE
 70
     0
  9
$MIRRTEXT
 70
     1
  9
$LTSCALE
 40
1.0
  9
$ATTMODE
 70
     1
  9
$TEXTSIZE
 40
3.5
  9
$TRACEWID
 40
1.0
  9
$TEXTSTYLE
  7
Standard
  9
$CLAYER
  8
0
  9
$CELTYPE
  6
ByLayer
  9
$CECOLOR
 62
   256
  9
$CELTSCALE
 40
1.0
  9
$DISPSILH
 70
     0
  9
$DIMSCALE
 40
1.0
  9
$DIMASZ
 40
3.556
  9
$DIMEXO
 40
1.0
  9
$DIMDLI
 40
3.75
  9
$DIMRND
 40
0.0
  9
$DIMDLE
 40
0.0
  9
$DIMEXE
 40
1.0
  9
$DIMTP
 40
0.0
  9
$DIMTM
 40
0.0
  9
$DIMTXT
 40
3.5
  9
$DIMCEN
 40
2.5
  9
$DIMTSZ
 40
0.0
  9
$DIMTOL
 70
     0
  9
$DIMLIM
 70
     0
  9
$DIMTIH
 70
     1
  9
$DIMTOH
 70
     1
  9
$DIMSE1
 70
     0
  9
$DIMSE2
 70
     0
  9
$DIMTAD
 70
     1
  9
$DIMZIN
 70
     0
  9
$DIMBLK
  1

  9
$DIMASO
 70
     1
  9
$DIMSHO
 70
     1
  9
$DIMPOST
  1

  9
$DIMAPOST
  1

  9
$DIMALT
 70
     0
  9
$DIMALTD
 70
     3
  9
$DIMALTF
 40
0.0393700787
  9
$DIMLFAC
 40
1.0
  9
$DIMTOFL
 70
     1
  9
$DIMTVP
 40
0.0
  9
$DIMTIX
 70
     0
  9
$DIMSOXD
 70
     0
  9
$DIMSAH
 70
     0
  9
$DIMBLK1
  1

  9
$DIMBLK2
  1

  9
$DIMSTYLE
  2
ISO-25
  9
$DIMCLRD
 70
     0
  9
$DIMCLRE
 70
     0
  9
$DIMCLRT
 70
     0
  9
$DIMTFAC
 40
1.0
  9
$DIMGAP
 40
1.524
  9
$DIMJUST
 70
     0
  9
$DIMSD1
 70
     0
  9
$DIMSD2
 70
     0
  9
$DIMTOLJ
 70
     0
  9
$DIMTZIN
 70
     0
  9
$DIMALTZ
 70
     0
  9
$DIMALTTZ
 70
     0
  9
$DIMUPT
 70
     0
  9
$DIMDEC
 70
     2
  9
$DIMTDEC
 70
     2
  9
$DIMALTU
 70
     2
  9
$DIMALTTD
 70
     3
  9
$DIMTXSTY
  7
Standard
  9
$DIMAUNIT
 70
     0
  9
$DIMADEC
 70
     2
  9
$DIMALTRND
 40
0.0
  9
$DIMAZIN
 70
     0
  9
$DIMDSEP
 70
    44
  9
$DIMATFIT
 70
     3
  9
$DIMFRAC
 70
     0
  9
$DIMLDRBLK
  1

  9
$DIMLUNIT
 70
     2
  9
$DIMLWD
 70
    -2
  9
$DIMLWE
 70
    -2
  9
$DIMTMOVE
 70
     0
  9
$LUNITS
 70
     2
  9
$LUPREC
 70
     2
  9
$SKETCHINC
 40
1.0
  9
$FILLETRAD
 40
10.0
  9
$AUNITS
 70
     0
  9
$AUPREC
 70
     2
  9
$MENU
  1
.
  9
$ELEVATION
 40
0.0
  9
$PELEVATION
 40
0.0
  9
$THICKNESS
 40
0.0
  9
$LIMCHECK
 70
     0
  9
$CHAMFERA
 40
0.0
  9
$CHAMFERB
 40
0.0
  9
$CHAMFERC
 40
0.0
  9
$CHAMFERD
 40
0.0
  9
$SKPOLY
 70
     0
  9
$TDCREATE
 40
2457932.589017118
  9
$TDUCREATE
 40
2457932.505683785
  9
$TDUPDATE
 40
2457932.589420914
  9
$TDUUPDATE
 40
2457932.506087581
  9
$TDINDWG
 40
0.0000000116
  9
$TDUSRTIMER
 40
0.0000000116
  9
$USRTIMER
 70
     1
  9
$ANGBASE
 50
0.0
  9
$ANGDIR
 70
     0
  9
$PDMODE
 70
     0
  9
$PDSIZE
 40
-1.0
  9
$PLINEWID
 40
0.0
  9
$SPLFRAME
 70
     0
  9
$SPLINETYPE
 70
     6
  9
$SPLINESEGS
 70
     8
  9
$HANDSEED
  5
24B
  9
$SURFTAB1
 70
     6
  9
$SURFTAB2
 70
     6
  9
$SURFTYPE
 70
     6
  9
$SURFU
 70
     6
  9
$SURFV
 70
     6
  9
$UCSBASE
  2

  9
$UCSNAME
  2

  9
$UCSORG
 10
0.0
 20
0.0
 30
0.0
  9
$UCSXDIR
 10
1.0
 20
0.0
 30
0.0
  9
$UCSYDIR
 10
0.0
 20
1.0
 30
0.0
  9
$UCSORTHOREF
  2

  9
$UCSORTHOVIEW
 70
     0
  9
$UCSORGTOP
 10
0.0
 20
0.0
 30
0.0
  9
$UCSORGBOTTOM
 10
0.0
 20
0.0
 30
0.0
  9
$UCSORGLEFT
 10
0.0
 20
0.0
 30
0.0
  9
$UCSORGRIGHT
 10
0.0
 20
0.0
 30
0.0
  9
$UCSORGFRONT
 10
0.0
 20
0.0
 30
0.0
  9
$UCSORGBACK
 10
0.0
 20
0.0
 30
0.0
  9
$PUCSBASE
  2

  9
$PUCSNAME
  2

  9
$PUCSORG
 10
0.0
 20
0.0
 30
0.0
  9
$PUCSXDIR
 10
1.0
 20
0.0
 30
0.0
  9
$PUCSYDIR
 10
0.0
 20
1.0
 30
0.0
  9
$PUCSORTHOREF
  2

  9
$PUCSORTHOVIEW
 70
     0
  9
$PUCSORGTOP
 10
0.0
 20
0.0
 30
0.0
  9
$PUCSORGBOTTOM
 10
0.0
 20
0.0
 30
0.0
  9
$PUCSORGLEFT
 10
0.0
 20
0.0
 30
0.0
  9
$PUCSORGRIGHT
 10
0.0
 20
0.0
 30
0.0
  9
$PUCSORGFRONT
 10
0.0
 20
0.0
 30
0.0
  9
$PUCSORGBACK
 10
0.0
 20
0.0
 30
0.0
  9
$USERI1
 70
     0
  9
$USERI2
 70
     0
  9
$USERI3
 70
     0
  9
$USERI4
 70
     0
  9
$USERI5
 70
     0
  9
$USERR1
 40
0.0
  9
$USERR2
 40
0.0
  9
$USERR3
 40
0.0
  9
$USERR4
 40
0.0
  9
$USERR5
 40
0.0
  9
$WORLDVIEW
 70
     1
  9
$SHADEDGE
 70
     3
  9
$SHADEDIF
 70
    70
  9
$TILEMODE
 70
     1
  9
$MAXACTVP
 70
    64
  9
$PINSBASE
 10
0.0
 20
0.0
 30
0.0
  9
$PLIMCHECK
 70
     0
  9
$PEXTMIN
 10
1.0000000000E+20
 20
1.0000000000E+20
 30
1.0000000000E+20
  9
$PEXTMAX
 10
-1.0000000000E+20
 20
-1.0000000000E+20
 30
-1.0000000000E+20
  9
$PLIMMIN
 10
0.0
 20
0.0
  9
$PLIMMAX
 10
420.0
 20
297.0
  9
$UNITMODE
 70
     0
  9
$VISRETAIN
 70
     1
  9
$PLINEGEN
 70
     0
  9
$PSLTSCALE
 70
     1
  9
$TREEDEPTH
 70
  3020
  9
$CMLSTYLE
  2
Standard
  9
$CMLJUST
 70
     0
  9
$CMLSCALE
 40
20.0
  9
$PROXYGRAPHICS
 70
     1
  9
$MEASUREMENT
 70
     1
  9
$CELWEIGHT
370
    -1
  9
$ENDCAPS
280
     0
  9
$JOINSTYLE
280
     0
  9
$LWDISPLAY
290
     1
  9
$INSUNITS
 70
     4
  9
$HYPERLINKBASE
  1

  9
$STYLESHEET
  1

  9
$XEDIT
290
     1
  9
$CEPSNTYPE
380
     0
  9
$PSTYLEMODE
290
     1
  9
$FINGERPRINTGUID
  2
{F14DDBE2-6DA4-4123-A8B8-DEEE1FD21427}
  9
$VERSIONGUID
  2
{FAEB1C32-E019-11D5-929B-00C0DF256EC4}
  9
$EXTNAMES
290
     1
  9
$PSVPSCALE
 40
0.0
  9
$OLESTARTUP
290
     0
  0
ENDSEC
  0
SECTION
  2
CLASSES
  0
CLASS
  1
ACDBDICTIONARYWDFLT
  2
AcDbDictionaryWithDefault
  3
ObjectDBX Classes
 90
        0
280
     0
281
     0
  0
CLASS
  1
VISUALSTYLE
  2
AcDbVisualStyle
  3
ObjectDBX Classes
 90
     4095
280
     0
281
     0
  0
CLASS
  1
MATERIAL
  2
AcDbMaterial
  3
ObjectDBX Classes
 90
     1153
280
     0
281
     0
  0
CLASS
  1
SCALE
  2
AcDbScale
  3
ObjectDBX Classes
 90
     1153
280
     0
281
     0
  0
CLASS
  1
TABLESTYLE
  2
AcDbTableStyle
  3
ObjectDBX Classes
 90
     4095
280
     0
281
     0
  0
CLASS
  1
MLEADERSTYLE
  2
AcDbMLeaderStyle
  3
ACDB_MLEADERSTYLE_CLASS
 90
     4095
280
     0
281
     0
  0
CLASS
  1
SUN
  2
AcDbSun
  3
SCENEOE
 90
     1153
280
     0
281
     0
  0
CLASS
  1
ACDBPLACEHOLDER
  2
AcDbPlaceHolder
  3
ObjectDBX Classes
 90
        0
280
     0
281
     0
  0
CLASS
  1
LAYOUT
  2
AcDbLayout
  3
ObjectDBX Classes
 90
        0
280
     0
281
     0
  0
ENDSEC
  0
SECTION
  2
TABLES
  0
TABLE
  2
VPORT
  5
8
330
0
100
AcDbSymbolTable
 70
     1
  0
VPORT
  5
29
330
8
100
AcDbSymbolTableRecord
100
AcDbViewportTableRecord
  2
*Active
 70
     0
 10
0.0
 20
0.0
 11
1.0
 21
1.0
 12
90.25
 22
0.0000000001
 13
0.0
 23
0.0
 14
10.0
 24
10.0
 15
10.0
 25
10.0
 16
0.0
 26
0.0
 36
1.0
 17
0.0
 27
0.0
 37
0.0
 40
58.4596133598
 41
12.7980661691
 42
50.0
 43
0.0
 44
0.0
 50
0.0
 51
0.0
 71
     0
 72
   100
 73
     1
 74
     3
 75
     0
 76
     0
 77
     0
 78
     0
281
     0
 65
     1
110
0.0
120
0.0
130
0.0
111
1.0
121
0.0
131
0.0
112
0.0
122
1.0
132
0.0
 79
     0
146
0.0
  0
ENDTAB
  0
TABLE
  2
LTYPE
  5
5
330
0
100
AcDbSymbolTable
 70
     6
  0
LTYPE
  5
14
330
5
100
AcDbSymbolTableRecord
100
AcDbLinetypeTableRecord
  2
ByBlock
 70
     0
  3

 72
    65
 73
     0
 40
0.0
  0
LTYPE
  5
15
330
5
100
AcDbSymbolTableRecord
100
AcDbLinetypeTableRecord
  2
ByLayer
 70
     0
  3

 72
    65
 73
     0
 40
0.0
  0
LTYPE
  5
16
330
5
100
AcDbSymbolTableRecord
100
AcDbLinetypeTableRecord
  2
Continuous
 70
     0
  3
Solid line
 72
    65
 73
     0
 40
0.0
  0
LTYPE
  5
6E
330
5
100
AcDbSymbolTableRecord
100
AcDbLinetypeTableRecord
  2
HIDDEN
 70
     0
  3
Hidden __ __ __ __ __ __ __ __ __ __ __ __ __ __
 72
    65
 73
     2
 40
1.905
 49
1.27
 74
     0
 49
-0.635
 74
     0
  0
LTYPE
  5
6F
330
5
100
AcDbSymbolTableRecord
100
AcDbLinetypeTableRecord
  2
PHANTOM
 70
     0
  3
Phantom ______  __  __  ______  __  __  ______
 72
    65
 73
     6
 40
12.7
 49
6.35
 74
     0
 49
-1.27
 74
     0
 49
1.27
 74
     0
 49
-1.27
 74
     0
 49
1.27
 74
     0
 49
-1.27
 74
     0
  0
LTYPE
  5
70
330
5
100
AcDbSymbolTableRecord
100
AcDbLinetypeTableRecord
  2
CENTER
 70
     0
  3
Center ____ _ ____ _ ____ _ ____ _ ____ _ ____
 72
    65
 73
     4
 40
10.16
 49
6.35
 74
     0
 49
-1.27
 74
     0
 49
1.27
 74
     0
 49
-1.27
 74
     0
  0
LTYPE
  5
71
330
5
100
AcDbSymbolTableRecord
100
AcDbLinetypeTableRecord
  2
CENTERX2
 70
     0
  3
Center (2x) ________  __  ________  __  _____
 72
    65
 73
     4
 40
20.32
 49
12.7
 74
     0
 49
-2.54
 74
     0
 49
2.54
 74
     0
 49
-2.54
 74
     0
  0
LTYPE
  5
72
330
5
100
AcDbSymbolTableRecord
100
AcDbLinetypeTableRecord
  2
DOT2
 70
     0
  3
Dot (.5x) ........................................
 72
    65
 73
     2
 40
0.635
 49
0.0
 74
     0
 49
-0.635
 74
     0
  0
ENDTAB
  0
TABLE
  2
LAYER
  5
2
330
0
100
AcDbSymbolTable
 70
     1
  0
LAYER
  5
10
330
2
100
AcDbSymbolTableRecord
100
AcDbLayerTableRecord
  2
0
 70
     0
 62
     7
  6
Continuous
370
    -3
390
F
  0
ENDTAB
  0
TABLE
  2
STYLE
  5
3
330
0
100
AcDbSymbolTable
 70
     1
  0
STYLE
  5
11
330
3
100
AcDbSymbolTableRecord
100
AcDbTextStyleTableRecord
  2
Standard
 70
     0
 40
0.0
 41
1.0
 50
0.0
 71
     0
 42
3.5
  3
txt
  4

  0
ENDTAB
  0
TABLE
  2
VIEW
  5
6
330
0
100
AcDbSymbolTable
 70
     0
  0
ENDTAB
  0
TABLE
  2
UCS
  5
7
330
0
100
AcDbSymbolTable
 70
     0
  0
ENDTAB
  0
TABLE
  2
APPID
  5
9
330
0
100
AcDbSymbolTable
 70
     1
  0
APPID
  5
12
330
9
100
AcDbSymbolTableRecord
100
AcDbRegAppTableRecord
  2
ACAD
 70
     0
  0
ENDTAB
  0
TABLE
  2
DIMSTYLE
  5
A
330
0
100
AcDbSymbolTable
 70
     1
100
AcDbDimStyleTable
  0
DIMSTYLE
105
27
330
A
100
AcDbSymbolTableRecord
100
AcDbDimStyleTableRecord
  2
ISO-25
 70
     0
 41
2.5
 42
0.625
 43
3.75
 44
1.25
 73
     0
 74
     0
 77
     1
 78
     8
140
2.5
141
2.5
143
0.0393700787
147
0.625
171
     3
172
     1
178
     0
271
     2
272
     2
274
     3
278
    44
283
     0
284
     8
340
11
  0
ENDTAB
  0
TABLE
  2
BLOCK_RECORD
  5
1
330
0
100
AcDbSymbolTable
 70
     1
  0
BLOCK_RECORD
  5
1F
330
1
100
AcDbSymbolTableRecord
100
AcDbBlockTableRecord
  2
*Model_Space
340
22
  0
BLOCK_RECORD
  5
1B
330
1
100
AcDbSymbolTableRecord
100
AcDbBlockTableRecord
  2
*Paper_Space
340
1E
  0
BLOCK_RECORD
  5
23
330
1
100
AcDbSymbolTableRecord
100
AcDbBlockTableRecord
  2
*Paper_Space0
340
26
  0
ENDTAB
  0
ENDSEC
  0
SECTION
  2
BLOCKS
  0
BLOCK
  5
20
330
1F
100
AcDbEntity
  8
0
100
AcDbBlockBegin
  2
*Model_Space
 70
     0
 10
0.0
 20
0.0
 30
0.0
  3
*Model_Space
  1

  0
ENDBLK
  5
21
330
1F
100
AcDbEntity
  8
0
100
AcDbBlockEnd
  0
BLOCK
  5
1C
330
1B
100
AcDbEntity
 67
     1
  8
0
100
AcDbBlockBegin
  2
*Paper_Space
 70
     0
 10
0.0
 20
0.0
 30
0.0
  3
*Paper_Space
  1

  0
ENDBLK
  5
1D
330
1B
100
AcDbEntity
 67
     1
  8
0
100
AcDbBlockEnd
  0
BLOCK
  5
24
330
23
100
AcDbEntity
  8
0
100
AcDbBlockBegin
  2
*Paper_Space0
 70
     0
 10
0.0
 20
0.0
 30
0.0
  3
*Paper_Space0
  1

  0
ENDBLK
  5
25
330
23
100
AcDbEntity
  8
0
100
AcDbBlockEnd
  0
ENDSEC
  0
SECTION
  2
ENTITIES
  0
SPLINE
  5
8A
330
1F
100
AcDbEntity
  8
0
  6
Continuous
 62
     7
370
    25
100
AcDbSpline
210
0.0
220
0.0
230
1.0
 70
     8
 71
     3
 72
    10
 73
     6
 74
     0
 42
0.000000001
 43
0.00000001
 40
0.0
 40
0.0
 40
0.0
 40
0.0
 40
0.371339364172567
 40
0.8347169346754526
 40
1.0
 40
1.0
 40
1.0
 40
1.0
 10
389.7135652859542
 20
-27.45615124003517
 30
0.0
 10
389.9451765374645
 20
-27.44184247171874
 30
0.0
 10
390.4658049775106
 20
-27.40967843962186
 30
0.0
 10
391.0711680234293
 20
-27.20781526132628
 30
0.0
 10
391.4039763144257
 20
-26.99970360160456
 30
0.0
 10
391.4914759467654
 20
-26.94498833697962
 30
0.0
  0
SPLINE
  5
A8
330
1F
100
AcDbEntity
  8
0
  6
Continuous
 62
     7
370
    25
100
AcDbSpline
210
0.0
220
0.0
230
1.0
 70
     8
 71
     3
 72
    16
 73
    12
 74
     0
 42
0.000000001
 43
0.00000001
 40
0.0
 40
0.0
 40
0.0
 40
0.0
 40
0.1213222178806691
 40
0.2955853346278232
 40
0.4496960876327687
 40
0.5876416110832169
 40
0.7102241737363969
 40
0.8168221516289513
 40
0.9058057572694707
 40
0.9749091285705662
 40
1.0
 40
1.0
 40
1.0
 40
1.0
 10
420.3517092435386
 20
-20.80897280776953
 30
0.0
 10
420.4346374692417
 20
-21.02624241180397
 30
0.0
 10
420.6366809842114
 20
-21.55559070212405
 30
0.0
 10
421.2121027940797
 20
-22.21550010424381
 30
0.0
 10
421.91706819981
 20
-22.76277028874511
 30
0.0
 10
422.6377030087082
 20
-23.1033216396205
 30
0.0
 10
423.3178965899947
 20
-23.2818418608595
 30
0.0
 10
423.9245776031057
 20
-23.33862487020312
 30
0.0
 10
424.4296161648961
 20
-23.31302485654167
 30
0.0
 10
424.7759946448979
 20
-23.26071986785215
 30
0.0
 10
424.9497926418304
 20
-23.21581405592648
 30
0.0
 10
424.9960878618917
 20
-23.2038523274726
 30
0.0
  0
SPLINE
  5
DD
330
1F
100
AcDbEntity
  8
0
  6
Continuous
 62
     7
370
    25
100
AcDbSpline
210
0.0
220
0.0
230
1.0
 70
     8
 71
     3
 72
    17
 73
    13
 74
     0
 42
0.000000001
 43
0.00000001
 40
0.0
 40
0.0
 40
0.0
 40
0.0
 40
0.2801556047200007
 40
0.6706589151286481
 40
0.8678739708589401
 40
0.9666823693107086
 40
0.9911390621669488
 40
0.9942386696476293
 40
0.996529694967136
 40
0.9982084197083249
 40
0.999891702365193
 40
1.0
 40
1.0
 40
1.0
 40
1.0
 10
376.6609270986848
 20
-27.72441741458572
 30
0.0
 10
377.4231975527347
 20
-27.72613622015735
 30
0.0
 10
379.2479815910864
 20
-27.73025083453798
 30
0.0
 10
381.5923716312095
 20
-27.71561019847769
 30
0.0
 10
383.4297619780796
 20
-27.68796249771696
 30
0.0
 10
384.2619093706613
 20
-27.6703984866553
 30
0.0
 10
384.5936643880265
 20
-27.66244273993863
 30
0.0
 10
384.6531893615569
 20
-27.66098342409164
 30
0.0
 10
384.6636436214817
 20
-27.66072628829117
 30
0.0
 10
384.6665936978676
 20
-27.66065357423826
 30
0.0
 10
384.6660925607587
 20
-27.66066601454855
 30
0.0
 10
384.6637917681787
 20
-27.66072259310636
 30
0.0
 10
384.6636526896256
 20
-27.660726013173
 30
0.0
  0
SPLINE
  5
DE
330
1F
100
AcDbEntity
  8
0
  6
Continuous
 62
     7
370
    25
100
AcDbSpline
210
0.0
220
0.0
230
1.0
 70
     8
 71
     3
 72
    18
 73
    14
 74
     0
 42
0.000000001
 43
0.00000001
 40
0.0
 40
0.0
 40
0.0
 40
0.0
 40
0.0021765871193521
 40
0.0037080455898566
 40
0.0052551150210913
 40
0.0064154529512935
 40
0.0075714929527562
 40
0.0096634405512458
 40
0.0158895721690586
 40
0.0442503335865956
 40
0.1568662815570421
 40
0.6076791489883383
 40
1.0
 40
1.0
 40
1.0
 40
1.0
 10
369.1613793311792
 20
-27.60864223796112
 30
0.0
 10
369.1567586754171
 20
-27.60849570173776
 30
0.0
 10
369.1488869012672
 20
-27.608246061835
 30
0.0
 10
369.1407357838712
 20
-27.60798627718352
 30
0.0
 10
369.1366094798512
 20
-27.60785473504808
 30
0.0
 10
369.1369058227231
 20
-27.60786417902176
 30
0.0
 10
369.1409598895181
 20
-27.60799345049468
 30
0.0
 10
369.1566277235229
 20
-27.60849249058626
 30
0.0
 10
369.2384503751134
 20
-27.61108696885081
 30
0.0
 10
369.5987580532046
 20
-27.62224545615062
 30
0.0
 10
371.0681910581526
 20
-27.66302332254723
 30
0.0
 10
373.4924319984278
 20
-27.70562806469087
 30
0.0
 10
375.6547657026886
 20
-27.71845082326704
 30
0.0
 10
376.6609270985269
 20
-27.7244174160469
 30
0.0
  0
SPLINE
  5
DF
330
1F
100
AcDbEntity
  8
0
  6
Continuous
 62
     7
370
    25
100
AcDbSpline
210
0.0
220
0.0
230
1.0
 70
     8
 71
     3
 72
    22
 73
    18
 74
     0
 42
0.000000001
 43
0.00000001
 40
0.0
 40
0.0
 40
0.0
 40
0.0
 40
0.0133524121171653
 40
0.066669939824108
 40
0.2801458231468369
 40
0.5968369077154767
 40
0.9132586074191532
 40
0.9694755370096726
 40
0.9834329081850266
 40
0.9861406573039398
 40
0.9888637004143468
 40
0.9899370787000095
 40
0.9908504931338864
 40
0.9917686767350329
 40
0.992850643292304
 40
0.9947817690887192
 40
1.0
 40
1.0
 40
1.0
 40
1.0
 10
369.2282596386792
 20
-23.87522080588676
 30
0.0
 10
369.2943452864498
 20
-23.86492768044486
 30
0.0
 10
369.6243175881917
 20
-23.81353306741222
 30
0.0
 10
371.0639827025799
 20
-23.67888806321168
 30
0.0
 10
374.0923078566934
 20
-23.45041302268568
 30
0.0
 10
378.5743244011747
 20
-23.40513767951014
 30
0.0
 10
382.195478889969
 20
-23.63096877133721
 30
0.0
 10
384.1680432931543
 20
-23.8448792354346
 30
0.0
 10
384.5326294684659
 20
-23.90151064555702
 30
0.0
 10
384.6210393609304
 20
-23.92517556404819
 30
0.0
 10
384.6483488164478
 20
-23.93539857188239
 30
0.0
 10
384.6623540652229
 20
-23.94549831560655
 30
0.0
 10
384.6668035271668
 20
-23.95288529847918
 30
0.0
 10
384.6653055624119
 20
-23.96075505727543
 30
0.0
 10
384.655713485943
 20
-23.97033720106922
 30
0.0
 10
384.6244822675291
 20
-23.98656528245602
 30
0.0
 10
384.5895429534135
 20
-23.99489461093368
 30
0.0
 10
384.5640411612396
 20
-24.00097408928529
 30
0.0
  0
LWPOLYLINE
  5
E0
330
1F
100
AcDbEntity
  8
0
  6
Continuous
 62
     7
370
    25
100
AcDbPolyline
 90
       11
 70
   128
 43
0.0
 10
369.3324417613
 20
-23.9638581093
 10
369.2119349758
 20
-23.9438330075
 10
369.1631395805
 20
-23.9285783981
 10
369.1429107734
 20
-23.9181393391
 10
369.1382441962
 20
-23.91334465
 10
369.1369676366
 20
-23.9080785334
 10
369.1391625404
 20
-23.9037393026
 10
369.146564233
 20
-23.8981195179
 10
369.1743281874
 20
-23.887596646
 10
369.2282596387
 20
-23.8752208059
 10
369.2282596386
 20
-23.8752208061
  0
SPLINE
  5
E1
330
1F
100
AcDbEntity
  8
0
  6
Continuous
 62
     7
370
    25
100
AcDbSpline
210
0.0
220
0.0
230
1.0
 70
     8
 71
     3
 72
    22
 73
    18
 74
     0
 42
0.000000001
 43
0.00000001
 40
0.0
 40
0.0
 40
0.0
 40
0.0
 40
0.5000000000000083
 40
0.5000000000000083
 40
0.7500000000000124
 40
0.7500000000000124
 40
0.8750000000000145
 40
0.8750000000000145
 40
0.9375000000000074
 40
0.9375000000000074
 40
0.9687500000000039
 40
0.9687500000000039
 40
0.9843750000000021
 40
0.9843750000000021
 40
0.9921875000000011
 40
0.9921875000000011
 40
1.0
 40
1.0
 40
1.0
 40
1.0
 10
374.984691364974
 20
-12.93267201585645
 30
0.0
 10
376.6121922435854
 20
-12.84474721666913
 30
0.0
 10
378.2461733013579
 20
-12.86761701053403
 30
0.0
 10
380.676389194805
 20
-13.06735345419918
 30
0.0
 10
381.4851379396591
 20
-13.16143457624937
 30
0.0
 10
382.6875600572851
 20
-13.34495739912892
 30
0.0
 10
383.0870719828469
 20
-13.4130231172192
 30
0.0
 10
383.6823556288743
 20
-13.5288214525543
 30
0.0
 10
383.8801311097949
 20
-13.5695033159917
 30
0.0
 10
384.1746815507935
 20
-13.63754411992362
 30
0.0
 10
384.2726229591687
 20
-13.66129108099308
 30
0.0
 10
384.4176277299491
 20
-13.70171641610573
 30
0.0
 10
384.4657535275593
 20
-13.71596469876642
 30
0.0
 10
384.5363237354879
 20
-13.7406007865156
 30
0.0
 10
384.559575234552
 20
-13.74934066971143
 30
0.0
 10
384.6047472023635
 20
-13.76941296953069
 30
0.0
 10
384.6269474762774
 20
-13.7801928629938
 30
0.0
 10
384.6452942484551
 20
-13.79566382569414
 30
0.0
  0
LWPOLYLINE
  5
E2
330
1F
100
AcDbEntity
  8
0
  6
Continuous
 62
     7
370
    25
100
AcDbPolyline
 90
        3
 70
   128
 43
0.0
 10
369.7916492159
 20
-13.5999547338
 10
371.8360602251
 20
-13.2419505852
 10
374.984691365
 20
-12.9326720158
  0
SPLINE
  5
E3
330
1F
100
AcDbEntity
  8
0
  6
Continuous
 62
     7
370
    25
100
AcDbSpline
210
0.0
220
0.0
230
1.0
 70
    11
 71
     3
 72
    72
 73
    68
 74
     0
 42
0.000000001
 43
0.00000001
 40
0.0
 40
0.0
 40
0.0
 40
0.0
 40
0.1249999999998147
 40
0.1249999999998147
 40
0.1874999999997221
 40
0.1874999999997221
 40
0.2187499999996757
 40
0.2187499999996757
 40
0.23437499999965
 40
0.23437499999965
 40
0.2499999999996243
 40
0.2499999999996243
 40
0.2539062499996166
 40
0.2539062499996166
 40
0.2558593749996152
 40
0.2558593749996152
 40
0.2578124999996137
 40
0.2578124999996137
 40
0.2587890624996118
 40
0.2587890624996118
 40
0.2597656249996099
 40
0.2597656249996099
 40
0.2617187499996061
 40
0.2617187499996061
 40
0.2656249999996032
 40
0.2656249999996032
 40
0.2812499999996009
 40
0.2812499999996009
 40
0.3124999999995965
 40
0.3124999999995965
 40
0.3749999999995876
 40
0.3749999999995876
 40
0.4999999999995646
 40
0.4999999999995646
 40
0.5624999999995504
 40
0.5624999999995504
 40
0.6249999999995363
 40
0.6249999999995363
 40
0.687499999999522
 40
0.687499999999522
 40
0.7187499999995149
 40
0.7187499999995149
 40
0.734374999999509
 40
0.734374999999509
 40
0.7499999999995028
 40
0.7499999999995028
 40
0.7539062499995026
 40
0.7539062499995026
 40
0.7558593749995048
 40
0.7558593749995048
 40
0.7568359374995081
 40
0.7568359374995081
 40
0.7578124999995113
 40
0.7578124999995113
 40
0.7597656249995149
 40
0.7597656249995149
 40
0.7617187499995186
 40
0.7617187499995186
 40
0.7656249999995258
 40
0.7656249999995258
 40
0.7812499999995602
 40
0.7812499999995602
 40
0.8124999999996237
 40
0.8124999999996237
 40
0.874999999999751
 40
0.874999999999751
 40
1.0
 40
1.0
 40
1.0
 40
1.0
 10
376.6609270986847
 20
1.13274026338024
 30
0.0
 10
377.9749842928798
 20
1.146873354324735
 30
0.0
 10
379.289188375466
 20
1.074278565676274
 30
0.0
 10
381.2428747200121
 20
0.8350370481046072
 30
0.0
 10
381.8920898766636
 20
0.7336365986161403
 30
0.0
 10
382.8594087982618
 20
0.5467362455757396
 30
0.0
 10
383.180658577015
 20
0.478788261531772
 30
0.0
 10
383.6601734339021
 20
0.3656519624328335
 30
0.0
 10
383.8196595443382
 20
0.3261058369810518
 30
0.0
 10
384.1367593472804
 20
0.2408812172940296
 30
0.0
 10
384.2949757460675
 20
0.197121702329625
 30
0.0
 10
384.4879638544877
 20
0.1257700109828856
 30
0.0
 10
384.5261951391865
 20
0.1106328173924839
 30
0.0
 10
384.5814716122762
 20
0.0838292828907554
 30
0.0
 10
384.5995765243474
 20
0.0742464220890966
 30
0.0
 10
384.6339886498899
 20
0.0514443685545354
 30
0.0
 10
384.651794878386
 20
0.0381645815103554
 30
0.0
 10
384.6658595349588
 20
0.0100578049419005
 30
0.0
 10
384.667368111091
 20
-0.0010272612046729
 30
0.0
 10
384.6614989301191
 20
-0.0213144751458897
 30
0.0
 10
384.6551198707815
 20
-0.0300586562616876
 30
0.0
 10
384.6336012544172
 20
-0.0527479089728859
 30
0.0
 10
384.6157486112686
 20
-0.0642021824388647
 30
0.0
 10
384.561934724576
 20
-0.0951347304248306
 30
0.0
 10
384.5235569083446
 20
-0.1113277794708899
 30
0.0
 10
384.3306389475569
 20
-0.1871110986468424
 30
0.0
 10
384.1709072126221
 20
-0.2311427779121624
 30
0.0
 10
383.6914478002362
 20
-0.3615305368658476
 30
0.0
 10
383.3691336903036
 20
-0.4362435156504614
 30
0.0
 10
382.3986051185943
 20
-0.6440875655267374
 30
0.0
 10
381.7451197214095
 20
-0.7576958150133644
 30
0.0
 10
379.7858566309636
 20
-1.031998038645494
 30
0.0
 10
378.4764075536172
 20
-1.12590873492451
 30
0.0
 10
376.5074913616821
 20
-1.137913262832634
 30
0.0
 10
375.8503901253685
 20
-1.120290653468281
 30
0.0
 10
374.5345769448699
 20
-1.041279362731444
 30
0.0
 10
373.8745966091773
 20
-0.9796947633417049
 30
0.0
 10
372.5621488854254
 20
-0.8127902745634736
 30
0.0
 10
371.9089246818019
 20
-0.7076181674901894
 30
0.0
 10
370.9346544017033
 20
-0.5159795841665061
 30
0.0
 10
370.6111140974929
 20
-0.4465956956703175
 30
0.0
 10
370.1279880375394
 20
-0.3326301768360024
 30
0.0
 10
369.967270696831
 20
-0.2930267261684004
 30
0.0
 10
369.6472471659276
 20
-0.2088730266555064
 30
0.0
 10
369.487158888254
 20
-0.1661791839830901
 30
0.0
 10
369.2916544088175
 20
-0.0985639594842525
 30
0.0
 10
369.2526559052242
 20
-0.0843442382774607
 30
0.0
 10
369.196461124096
 20
-0.0581198615310941
 30
0.0
 10
369.1777870821215
 20
-0.0486736275565152
 30
0.0
 10
369.1531219168578
 20
-0.0298751102720625
 30
0.0
 10
369.1451035672146
 20
-0.0226727653421352
 30
0.0
 10
369.1355813250195
 20
-0.0041324203323651
 30
0.0
 10
369.136493614911
 20
0.0074736943495087
 30
0.0
 10
369.1530047612686
 20
0.033998577084699
 30
0.0
 10
369.1720476759538
 20
0.0444834031824233
 30
0.0
 10
369.2084238036035
 20
0.0642359589982016
 30
0.0
 10
369.2272062814454
 20
0.0725775184736986
 30
0.0
 10
369.2841269644392
 20
0.0961227082616726
 30
0.0
 10
369.3229021220799
 20
0.1096823463316439
 30
0.0
 10
369.5179453216361
 20
0.1744715835948915
 30
0.0
 10
369.6768253544692
 20
0.2169478523795141
 30
0.0
 10
370.1537968573219
 20
0.3413933475254019
 30
0.0
 10
370.4742031576145
 20
0.4156163685011267
 30
0.0
 10
371.4374437891379
 20
0.6222094473552158
 30
0.0
 10
372.0836295466694
 20
0.736959979415258
 30
0.0
 10
374.0332977600488
 20
1.017638935818021
 30
0.0
 10
375.346869904485
 20
1.118607172435696
 30
0.0
 10
376.6609270986847
 20
1.13274026338024
 30
0.0
  0
SPLINE
  5
E4
330
1F
100
AcDbEntity
  8
0
  6
Continuous
 62
     7
370
    25
100
AcDbSpline
210
0.0
220
0.0
230
1.0
 70
     8
 71
     3
 72
    18
 73
    14
 74
     0
 42
0.000000001
 43
0.00000001
 40
0.0
 40
0.0
 40
0.0
 40
0.0
 40
0.500000000000021
 40
0.500000000000021
 40
0.7500000000000315
 40
0.7500000000000315
 40
0.8750000000000367
 40
0.8750000000000367
 40
0.9375000000000288
 40
0.9375000000000288
 40
0.9687500000000144
 40
0.9687500000000144
 40
1.0
 40
1.0
 40
1.0
 40
1.0
 10
376.8946409944325
 20
12.88026215401855
 30
0.0
 10
375.594557957962
 20
12.8814036594847
 30
0.0
 10
374.2956479190863
 20
12.95320787972608
 30
0.0
 10
372.3654627672855
 20
13.16442658072139
 30
0.0
 10
371.7242680173923
 20
13.25203001064253
 30
0.0
 10
370.7692317011508
 20
13.40983075246347
 30
0.0
 10
370.4519723452856
 20
13.46670849251938
 30
0.0
 10
369.9783950123456
 20
13.56030327955631
 30
0.0
 10
369.8209590373946
 20
13.59278061831182
 30
0.0
 10
369.586038713164
 20
13.64538233968156
 30
0.0
 10
369.5079004338558
 20
13.66352895148285
 30
0.0
 10
369.3527314029939
 20
13.70299398042697
 30
0.0
 10
369.2745319179194
 20
13.72220607952874
 30
0.0
 10
369.2018179777331
 20
13.75265498756912
 30
0.0
  0
LWPOLYLINE
  5
E5
330
1F
100
AcDbEntity
  8
0
  6
Continuous
 62
     7
370
    25
100
AcDbPolyline
 90
        8
 70
   128
 43
0.0
 10
384.6660137959
 20
13.8318115161
 10
384.6639321326
 20
13.8192851259
 10
384.6553252836
 20
13.80546286
 10
384.6307120469
 20
13.7849274225
 10
384.514551826
 20
13.7330015192
 10
384.0187138173
 20
13.6016710986
 10
381.9882312052
 20
13.2395853518
 10
376.8946409945
 20
12.8802621539
  0
SPLINE
  5
E6
330
1F
100
AcDbEntity
  8
0
  6
Continuous
 62
     7
370
    25
100
AcDbSpline
210
0.0
220
0.0
230
1.0
 70
     8
 71
     3
 72
    30
 73
    26
 74
     0
 42
0.000000001
 43
0.00000001
 40
0.0
 40
0.0
 40
0.0
 40
0.0
 40
0.000762102474403
 40
0.0046431505753853
 40
0.0059383928075362
 40
0.0068407962256576
 40
0.0077487710358293
 40
0.0087751200357159
 40
0.0105387866488025
 40
0.0164327311006328
 40
0.0446298922787939
 40
0.156833604386209
 40
0.3830591343647624
 40
0.6093168974610471
 40
0.8117014054686665
 40
0.9139634141201373
 40
0.9652180879374462
 40
0.9908753881919273
 40
0.9924869529334823
 40
0.9931485900514784
 40
0.9938169604549427
 40
0.9944013234187926
 40
0.9952095618793455
 40
0.9971684961762775
 40
1.0
 40
1.0
 40
1.0
 40
1.0
 10
384.5887070110817
 20
23.99572924913346
 30
0.0
 10
384.5924125262869
 20
23.99481863128365
 30
0.0
 10
384.6149885782414
 20
23.98927064274496
 30
0.0
 10
384.6413155315155
 20
23.97908701174901
 30
0.0
 10
384.6612339273852
 20
23.96566246189681
 30
0.0
 10
384.6666071112348
 20
23.95753715429888
 30
0.0
 10
384.6657650439678
 20
23.9498062118118
 30
0.0
 10
384.6573072646215
 20
23.94086741019141
 30
0.0
 10
384.6246918857244
 20
23.92465301142332
 30
0.0
 10
384.4524153258676
 20
23.88399358450762
 30
0.0
 10
383.701708952355
 20
23.79077521972417
 30
0.0
 10
381.790075077844
 20
23.60720818570367
 30
0.0
 10
378.7913588837941
 20
23.44199555022648
 30
0.0
 10
375.285527289526
 20
23.42942457836639
 30
0.0
 10
372.4743831575466
 20
23.57091000599271
 30
0.0
 10
370.5963071842087
 20
23.71191449197938
 30
0.0
 10
369.6905064393796
 20
23.82240327853496
 30
0.0
 10
369.2626203423711
 20
23.85238699064259
 30
0.0
 10
369.1463454104405
 20
23.89740615383681
 30
0.0
 10
369.1382636562738
 20
23.90402282582652
 30
0.0
 10
369.1361971506494
 20
23.90911103864461
 30
0.0
 10
369.1384961575656
 20
23.91467526629125
 30
0.0
 10
369.1482121456594
 20
23.92260706566481
 30
0.0
 10
369.1718742808117
 20
23.93290980064337
 30
0.0
 10
369.1957261902726
 20
23.93827465973083
 30
0.0
 10
369.2098244358068
 20
23.94144568890128
 30
0.0
  0
SPLINE
  5
E7
330
1F
100
AcDbEntity
  8
0
  6
Continuous
 62
     7
370
    25
100
AcDbSpline
210
0.0
220
0.0
230
1.0
 70
     8
 71
     3
 72
    19
 73
    15
 74
     0
 42
0.000000001
 43
0.00000001
 40
0.0
 40
0.0
 40
0.0
 40
0.0
 40
0.298266312546404
 40
0.6705012610745091
 40
0.8581262391673353
 40
0.952103165602854
 40
0.9755332076349553
 40
0.98725609586738
 40
0.9931286876145895
 40
0.9951493236840669
 40
0.9971843200247585
 40
0.9984161078438459
 40
0.9996544990854541
 40
0.9999999999999999
 40
0.9999999999999999
 40
0.9999999999999999
 40
0.9999999999999999
 10
376.6609270986849
 20
27.72441741458569
 30
0.0
 10
375.8992460304482
 20
27.72025130459777
 30
0.0
 10
374.1869905885609
 20
27.71088590903287
 30
0.0
 10
372.0114815269601
 20
27.68033027585389
 30
0.0
 10
370.377895789689
 20
27.64392873644775
 30
0.0
 10
369.6227945351737
 20
27.62284093848904
 30
0.0
 10
369.3085330545102
 20
27.61326252817303
 30
0.0
 10
369.2114684673869
 20
27.61022860849087
 30
0.0
 10
369.1674945871677
 20
27.60883737823172
 30
0.0
 10
369.1483554156181
 20
27.608229031354
 30
0.0
 10
369.1399391527804
 20
27.60796091773594
 30
0.0
 10
369.1366272524373
 20
27.60785528712158
 30
0.0
 10
369.1365874794019
 20
27.6078540460105
 30
0.0
 10
369.1383400522818
 20
27.60790990334116
 30
0.0
 10
369.1387223482167
 20
27.60792208773058
 30
0.0
  0
SPLINE
  5
E8
330
1F
100
AcDbEntity
  8
0
  6
Continuous
 62
     7
370
    25
100
AcDbSpline
210
0.0
220
0.0
230
1.0
 70
     8
 71
     3
 72
    14
 73
    10
 74
     0
 42
0.000000001
 43
0.00000001
 40
0.0
 40
0.0
 40
0.0
 40
0.0
 40
0.0010580951942957
 40
0.0030459554969205
 40
0.0064089835619396
 40
0.0174067314640979
 40
0.0694998924965353
 40
0.2767166725764803
 40
1.0
 40
1.0
 40
1.0
 40
1.0
 10
384.6654106506557
 20
27.66068274219223
 30
0.0
 10
384.6654626444985
 20
27.66068146270881
 30
0.0
 10
384.6656123200023
 20
27.66067777943951
 30
0.0
 10
384.6576214295838
 20
27.6608745144913
 30
0.0
 10
384.6274668083503
 20
27.66161476411715
 30
0.0
 10
384.4650827682929
 20
27.66555898037779
 30
0.0
 10
383.7623881277992
 20
27.68160355050188
 30
0.0
 10
381.1583377949372
 20
27.7270552898784
 30
0.0
 10
378.6278727729004
 20
27.72557109198984
 30
0.0
 10
376.6609270989464
 20
27.72441741604855
 30
0.0
  0
SPLINE
  5
E9
330
1F
100
AcDbEntity
  8
0
  6
Continuous
 62
     7
370
    25
100
AcDbSpline
210
0.0
220
0.0
230
1.0
 70
     8
 71
     3
 72
    28
 73
    24
 74
     0
 42
0.000000001
 43
0.00000001
 40
0.0
 40
0.0
 40
0.0
 40
0.0
 40
0.1249999999999991
 40
0.1249999999999991
 40
0.1874999999999998
 40
0.1874999999999998
 40
0.2500000000000004
 40
0.2500000000000004
 40
0.3750000000000017
 40
0.3750000000000017
 40
0.4375000000000006
 40
0.4375000000000006
 40
0.4999999999999994
 40
0.4999999999999994
 40
0.6249999999999971
 40
0.6249999999999971
 40
0.6874999999999959
 40
0.6874999999999959
 40
0.7499999999999947
 40
0.7499999999999947
 40
0.8749999999999973
 40
0.8749999999999973
 40
1.0
 40
1.0
 40
1.0
 40
1.0
 10
395.2104989926437
 20
-5.361136286791754
 30
0.0
 10
395.4896920407031
 20
-4.289730744371837
 30
0.0
 10
395.8302845458347
 20
-3.236485613892709
 30
0.0
 10
396.4350723917174
 20
-1.685416440441142
 30
0.0
 10
396.6523912218282
 20
-1.173216016304315
 30
0.0
 10
397.1196038772417
 20
-0.1589880455031076
 30
0.0
 10
397.3706226605982
 20
0.3450116381607746
 30
0.0
 10
398.164248109768
 20
1.821262252049922
 30
0.0
 10
398.7474699318203
 20
2.76021760451827
 30
0.0
 10
399.7055571502938
 20
4.102046884107182
 30
0.0
 10
400.0388559680508
 20
4.538173923880969
 30
0.0
 10
400.7345011319578
 20
5.387707946360946
 30
0.0
 10
401.0966976354555
 20
5.800666391190799
 30
0.0
 10
402.2124897257111
 20
6.987629912854809
 30
0.0
 10
402.9996693021777
 20
7.716732323046747
 30
0.0
 10
404.2487935764475
 20
8.720159552577055
 30
0.0
 10
404.6766193830421
 20
9.039520887200437
 30
0.0
 10
405.556461376226
 20
9.647654783958387
 30
0.0
 10
406.0089357281576
 20
9.936499769069385
 30
0.0
 10
407.3845089618653
 20
10.74459952766632
 30
0.0
 10
408.331891038714
 20
11.21044530536519
 30
0.0
 10
410.2949740436915
 20
11.99713651573986
 30
0.0
 10
411.3111845183306
 20
12.31708275534401
 30
0.0
 10
412.3674412013635
 20
12.56015531029115
 30
0.0
  0
SPLINE
  5
EA
330
1F
100
AcDbEntity
  8
0
  6
Continuous
 62
     7
370
    25
100
AcDbSpline
210
0.0
220
0.0
230
1.0
 70
     8
 71
     3
 72
     8
 73
     4
 74
     0
 42
0.000000001
 43
0.00000001
 40
0.0
 40
0.0
 40
0.0
 40
0.0
 40
0.0004459103137665
 40
0.0004459103137665
 40
0.0004459103137665
 40
0.0004459103137665
 10
415.827021919291
 20
13.17120858966021
 30
0.0
 10
415.9699848768033
 20
13.18994673808858
 30
0.0
 10
416.1130270311468
 20
13.2082013378253
 30
0.0
 10
416.2561501736543
 20
13.22595186304065
 30
0.0
  0
SPLINE
  5
EB
330
1F
100
AcDbEntity
  8
0
  6
Continuous
 62
     7
370
    25
100
AcDbSpline
210
0.0
220
0.0
230
1.0
 70
     8
 71
     3
 72
     8
 73
     4
 74
     0
 42
0.000000001
 43
0.00000001
 40
0.0
 40
0.0
 40
0.0
 40
0.0
 40
1.0
 40
1.0
 40
1.0
 40
1.0
 10
412.3674799558597
 20
12.56005169309335
 30
0.0
 10
413.5087774846209
 20
12.81267931181692
 30
0.0
 10
414.6627458109249
 20
13.01677626751527
 30
0.0
 10
415.8270229668636
 20
13.17120479002951
 30
0.0
  0
SPLINE
  5
EC
330
1F
100
AcDbEntity
  8
0
  6
Continuous
 62
     7
370
    25
100
AcDbSpline
210
0.0
220
0.0
230
1.0
 70
     8
 71
     3
 72
    18
 73
    14
 74
     0
 42
0.000000001
 43
0.00000001
 40
0.0
 40
0.0
 40
0.0
 40
0.0
 40
0.3533830239284907
 40
0.7079072609422395
 40
0.8858072825173698
 40
0.9748029131411677
 40
0.9823699564449173
 40
0.9880365749245936
 40
0.993739658098124
 40
0.995819249876924
 40
0.9975475301451887
 40
0.9992832212077604
 40
0.9999999999999999
 40
0.9999999999999999
 40
0.9999999999999999
 40
0.9999999999999999
 10
374.4967563466882
 20
26.49917798421215
 30
0.0
 10
373.8524418503389
 20
26.50956397454699
 30
0.0
 10
372.5617321121476
 20
26.53036949567355
 30
0.0
 10
370.9619130472627
 20
26.57686618436244
 30
0.0
 10
369.8584451527221
 20
26.61999343105141
 30
0.0
 10
369.3692671455732
 20
26.63874373684595
 30
0.0
 10
369.1985229497184
 20
26.65367229169325
 30
0.0
 10
369.1684572362897
 20
26.65721340974756
 30
0.0
 10
369.1486560377394
 20
26.66058311550183
 30
0.0
 10
369.1389943822857
 20
26.66412221033343
 30
0.0
 10
369.1364612003386
 20
26.66661734673625
 30
0.0
 10
369.1369311924502
 20
26.66870002032569
 30
0.0
 10
369.1390972601101
 20
26.66979251959502
 30
0.0
 10
369.1397303326669
 20
26.67011182231968
 30
0.0
  0
SPLINE
  5
ED
330
1F
100
AcDbEntity
  8
0
  6
Continuous
 62
     7
370
    25
100
AcDbSpline
210
0.0
220
0.0
230
1.0
 70
     8
 71
     3
 72
    12
 73
     8
 74
     0
 42
0.000000001
 43
0.00000001
 40
0.0
 40
0.0
 40
0.0
 40
0.0
 40
0.0071368110146948
 40
0.0636360937998249
 40
0.2892040497563865
 40
0.6445886036575968
 40
1.0
 40
1.0
 40
1.0
 40
1.0
 10
384.5630647846426
 20
26.69773956267787
 30
0.0
 10
384.5416118016881
 20
26.69534048488078
 30
0.0
 10
384.3503241197297
 20
26.67394886621318
 30
0.0
 10
383.3851066507958
 20
26.63692342163886
 30
0.0
 10
381.2859966726996
 20
26.54588039887595
 30
0.0
 10
378.1077252010595
 20
26.47938851803669
 30
0.0
 10
375.7004429342882
 20
26.49258132943994
 30
0.0
 10
374.4967563466954
 20
26.49917798424771
 30
0.0
  0
SPLINE
  5
EE
330
1F
100
AcDbEntity
  8
0
  6
Continuous
 62
     7
370
    25
100
AcDbSpline
210
0.0
220
0.0
230
1.0
 70
     8
 71
     3
 72
    21
 73
    17
 74
     0
 42
0.000000001
 43
0.00000001
 40
0.0
 40
0.0
 40
0.0
 40
0.0
 40
0.2960123573053172
 40
0.6563394375917059
 40
0.8378585478324375
 40
0.9287627548455284
 40
0.9514148164890097
 40
0.9627532932545584
 40
0.9684491243727756
 40
0.9703952203960704
 40
0.9716865272781219
 40
0.9729871878612562
 40
0.9741412242394041
 40
0.9762787268545391
 40
0.9827045466504624
 40
1.0
 40
1.0
 40
1.0
 40
1.0
 10
376.4375164805619
 20
18.80479078138893
 30
0.0
 10
375.6838178200451
 20
18.82316196097561
 30
0.0
 10
374.0126640903142
 20
18.86389583366788
 30
0.0
 10
371.8960745505958
 20
19.0602178489624
 30
0.0
 10
370.320298546481
 20
19.27408089591804
 30
0.0
 10
369.592258494025
 20
19.39144594845363
 30
0.0
 10
369.2895167568746
 20
19.45478685346487
 30
0.0
 10
369.1966633442663
 20
19.48077327862167
 30
0.0
 10
369.1552181709559
 20
19.49840972444172
 30
0.0
 10
369.1407640838704
 20
19.5107805157034
 30
0.0
 10
369.1366404319908
 20
19.51847928593838
 30
0.0
 10
369.1368487052651
 20
19.5254109455587
 30
0.0
 10
369.1411530630422
 20
19.53331793221619
 30
0.0
 10
369.1572529917023
 20
19.54732608316716
 30
0.0
 10
369.2144785733344
 20
19.57308733923807
 30
0.0
 10
369.2721110482873
 20
19.5873549311867
 30
0.0
 10
369.3141315492889
 20
19.59775759673692
 30
0.0
  0
SPLINE
  5
EF
330
1F
100
AcDbEntity
  8
0
  6
Continuous
 62
     7
370
    25
100
AcDbSpline
210
0.0
220
0.0
230
1.0
 70
     8
 71
     3
 72
    13
 73
     9
 74
     0
 42
0.000000001
 43
0.00000001
 40
0.0
 40
0.0
 40
0.0
 40
0.0
 40
0.0013169160521889
 40
0.0085666134110807
 40
0.0407683722186767
 40
0.1684685954098149
 40
0.6798950688297551
 40
1.0
 40
1.0
 40
1.0
 40
1.0
 10
384.6556383129532
 20
19.54012387863153
 30
0.0
 10
384.6536250351327
 20
19.5379877148932
 30
0.0
 10
384.6405285490289
 20
19.52409184894292
 30
0.0
 10
384.5396792858529
 20
19.48354757526454
 30
0.0
 10
384.1051520281797
 20
19.38271661126464
 30
0.0
 10
382.2826661764227
 20
19.09864942318061
 30
0.0
 10
379.640195438848
 20
18.82891370458164
 30
0.0
 10
377.3277222649191
 20
18.81149590742169
 30
0.0
 10
376.4375164806428
 20
18.80479078151755
 30
0.0
  0
SPLINE
  5
F0
330
1F
100
AcDbEntity
  8
0
  6
Continuous
 62
     7
370
    25
100
AcDbSpline
210
0.0
220
0.0
230
1.0
 70
    11
 71
     3
 72
    76
 73
    72
 74
     0
 42
0.000000001
 43
0.00000001
 40
0.0
 40
0.0
 40
0.0
 40
0.0
 40
0.0009765624999986
 40
0.0009765624999986
 40
0.0019531249999972
 40
0.0019531249999972
 40
0.0039062499999961
 40
0.0039062499999961
 40
0.0078124999999939
 40
0.0078124999999939
 40
0.0156249999999894
 40
0.0156249999999894
 40
0.0312499999999806
 40
0.0312499999999806
 40
0.0624999999999577
 40
0.0624999999999577
 40
0.1249999999999173
 40
0.1249999999999173
 40
0.1874999999998768
 40
0.1874999999998768
 40
0.2499999999998363
 40
0.2499999999998363
 40
0.3749999999997553
 40
0.3749999999997553
 40
0.4374999999997148
 40
0.4374999999997148
 40
0.4687499999996946
 40
0.4687499999996946
 40
0.4843749999996845
 40
0.4843749999996845
 40
0.4921874999996769
 40
0.4921874999996769
 40
0.4999999999996693
 40
0.4999999999996693
 40
0.5019531249996674
 40
0.5019531249996674
 40
0.5039062499996654
 40
0.5039062499996654
 40
0.5048828124996645
 40
0.5048828124996645
 40
0.5058593749996635
 40
0.5058593749996635
 40
0.507812499999665
 40
0.507812499999665
 40
0.5156249999996712
 40
0.5156249999996712
 40
0.5312499999996834
 40
0.5312499999996834
 40
0.562499999999708
 40
0.562499999999708
 40
0.624999999999752
 40
0.624999999999752
 40
0.7499999999998346
 40
0.7499999999998346
 40
0.812499999999876
 40
0.812499999999876
 40
0.8749999999999174
 40
0.8749999999999174
 40
0.9374999999999588
 40
0.9374999999999588
 40
0.9687499999999769
 40
0.9687499999999769
 40
0.9843749999999885
 40
0.9843749999999885
 40
0.9921874999999941
 40
0.9921874999999941
 40
0.9960937499999971
 40
0.9960937499999971
 40
0.9980468749999984
 40
0.9980468749999984
 40
1.0
 40
1.0
 40
1.0
 40
1.0
 10
369.1671362889003
 20
7.106720812367699
 30
0.0
 10
369.1586413143942
 20
7.112334349568163
 30
0.0
 10
369.1504268739375
 20
7.118623084811123
 30
0.0
 10
369.1382088884245
 20
7.134318043557244
 30
0.0
 10
369.1350554328757
 20
7.145126944248241
 30
0.0
 10
369.1457176499819
 20
7.173509361193242
 30
0.0
 10
369.1656556133374
 20
7.184646150763665
 30
0.0
 10
369.21887968902
 20
7.214634154158292
 30
0.0
 10
369.2575382210119
 20
7.229150395343741
 30
0.0
 10
369.3728728580482
 20
7.270881322616433
 30
0.0
 10
369.4513179836021
 20
7.294397913178789
 30
0.0
 10
369.687287843039
 20
7.362679287555375
 30
0.0
 10
369.8457376544474
 20
7.403770945253225
 30
0.0
 10
370.3222885528532
 20
7.522302735964159
 30
0.0
 10
370.6420874583488
 20
7.593955232875115
 30
0.0
 10
371.6036219830526
 20
7.792561087720848
 30
0.0
 10
372.2477483702736
 20
7.902374559856632
 30
0.0
 10
373.5417768822792
 20
8.080111284670359
 30
0.0
 10
374.1917061220221
 20
8.147840933470048
 30
0.0
 10
375.4973838537359
 20
8.241225991771312
 30
0.0
 10
376.1525966230439
 20
8.266741726209846
 30
0.0
 10
378.1130389206004
 20
8.279685214093416
 30
0.0
 10
379.4196571983143
 20
8.204167941827553
 30
0.0
 10
381.3690395979188
 20
7.961700508480091
 30
0.0
 10
382.0154798267819
 20
7.859731792403942
 30
0.0
 10
382.9796073030365
 20
7.671769513243299
 30
0.0
 10
383.299866221101
 20
7.603485984399402
 30
0.0
 10
383.7773315480351
 20
7.489297475347245
 30
0.0
 10
383.9361495673484
 20
7.449336968556615
 30
0.0
 10
384.1726605264055
 20
7.383833813785651
 30
0.0
 10
384.2511793760985
 20
7.36110800274345
 30
0.0
 10
384.4067811672177
 20
7.311658612341173
 30
0.0
 10
384.4842947746337
 20
7.286127645045067
 30
0.0
 10
384.5770797979138
 20
7.242827134341517
 30
0.0
 10
384.595411455914
 20
7.233542317161973
 30
0.0
 10
384.6307827138602
 20
7.211393277968172
 30
0.0
 10
384.6482991759758
 20
7.199181098542279
 30
0.0
 10
384.6645393732087
 20
7.172695822384155
 30
0.0
 10
384.6673193986186
 20
7.162298100005248
 30
0.0
 10
384.6634693659084
 20
7.142177093642196
 30
0.0
 10
384.6576210952475
 20
7.13335891819504
 30
0.0
 10
384.6367755609161
 20
7.110531441491501
 30
0.0
 10
384.619204149856
 20
7.099547899726731
 30
0.0
 10
384.5290454003823
 20
7.04895975077748
 30
0.0
 10
384.4500826335572
 20
7.024246618374622
 30
0.0
 10
384.214038371827
 20
6.949075823503186
 30
0.0
 10
384.0539421148413
 20
6.907733740869135
 30
0.0
 10
383.5727405622061
 20
6.788756837448763
 30
0.0
 10
383.2489774095372
 20
6.719177578237184
 30
0.0
 10
382.2757089766393
 20
6.526621073680667
 30
0.0
 10
381.6233151411987
 20
6.421623583764739
 30
0.0
 10
379.6568680997178
 20
6.167973199957193
 30
0.0
 10
378.3294344320759
 20
6.082242705453544
 30
0.0
 10
376.3462047179881
 20
6.079054247826336
 30
0.0
 10
375.6856173572904
 20
6.098780425344147
 30
0.0
 10
374.3654238119544
 20
6.179801849567256
 30
0.0
 10
373.7047744315237
 20
6.241240841062784
 30
0.0
 10
372.3910397466412
 20
6.405388302935449
 30
0.0
 10
371.7377837397384
 20
6.507863874592974
 30
0.0
 10
370.7636220682368
 20
6.693604190387854
 30
0.0
 10
370.4395978810276
 20
6.760765648924552
 30
0.0
 10
369.9567665146635
 20
6.871392235758033
 30
0.0
 10
369.7962878050544
 20
6.909792563739405
 30
0.0
 10
369.5570173753614
 20
6.972251674085873
 30
0.0
 10
369.4774792228985
 20
6.993803376090669
 30
0.0
 10
369.3591374666593
 20
7.029420100865831
 30
0.0
 10
369.3198422389841
 20
7.041809977556349
 30
0.0
 10
369.261545408293
 20
7.062608408789605
 30
0.0
 10
369.2422195463386
 20
7.069905845569042
 30
0.0
 10
369.2040591852078
 20
7.086187721112016
 30
0.0
 10
369.1841262379126
 20
7.09549373796675
 30
0.0
 10
369.1671362889003
 20
7.106720812367699
 30
0.0
  0
SPLINE
  5
F1
330
1F
100
AcDbEntity
  8
0
  6
Continuous
 62
     7
370
    25
100
AcDbSpline
210
0.0
220
0.0
230
1.0
 70
    11
 71
     3
 72
    72
 73
    68
 74
     0
 42
0.000000001
 43
0.00000001
 40
0.0
 40
0.0
 40
0.0
 40
0.0
 40
0.1250000000002264
 40
0.1250000000002264
 40
0.1875000000003396
 40
0.1875000000003396
 40
0.2187500000003962
 40
0.2187500000003962
 40
0.2500000000004528
 40
0.2500000000004528
 40
0.257812500000467
 40
0.257812500000467
 40
0.2617187500004715
 40
0.2617187500004715
 40
0.2636718750004738
 40
0.2636718750004738
 40
0.2656250000004762
 40
0.2656250000004762
 40
0.2675781250004785
 40
0.2675781250004785
 40
0.2695312500004808
 40
0.2695312500004808
 40
0.2734375000004808
 40
0.2734375000004808
 40
0.2812500000004808
 40
0.2812500000004808
 40
0.3125000000004656
 40
0.3125000000004656
 40
0.3750000000004353
 40
0.3750000000004353
 40
0.5000000000003746
 40
0.5000000000003746
 40
0.6250000000003139
 40
0.6250000000003139
 40
0.6875000000002836
 40
0.6875000000002836
 40
0.7187500000002685
 40
0.7187500000002685
 40
0.7500000000002532
 40
0.7500000000002532
 40
0.7578125000002508
 40
0.7578125000002508
 40
0.761718750000252
 40
0.761718750000252
 40
0.7656250000002531
 40
0.7656250000002531
 40
0.7666015625002545
 40
0.7666015625002545
 40
0.7675781250002558
 40
0.7675781250002558
 40
0.7695312500002549
 40
0.7695312500002549
 40
0.7734375000002486
 40
0.7734375000002486
 40
0.7812500000002407
 40
0.7812500000002407
 40
0.8125000000002093
 40
0.8125000000002093
 40
0.8750000000001413
 40
0.8750000000001413
 40
0.9375000000000733
 40
0.9375000000000733
 40
0.9687500000000367
 40
0.9687500000000367
 40
0.9843750000000184
 40
0.9843750000000184
 40
1.0
 40
1.0
 40
1.0
 40
1.0
 10
376.4450305707334
 20
-6.084230332014177
 30
0.0
 10
377.7567618014587
 20
-6.062929272387191
 30
0.0
 10
379.0693147225202
 20
-6.123608102702251
 30
0.0
 10
381.0213018050833
 20
-6.337073142253235
 30
0.0
 10
381.6700081388982
 20
-6.428576814316923
 30
0.0
 10
382.6372995602871
 20
-6.597875076345503
 30
0.0
 10
382.9585728684621
 20
-6.65955106108928
 30
0.0
 10
383.5983218527621
 20
-6.795606465850104
 30
0.0
 10
383.9175729860991
 20
-6.867625942339619
 30
0.0
 10
384.3099366541355
 20
-6.979575076249335
 30
0.0
 10
384.3882470401046
 20
-7.003106713110201
 30
0.0
 10
384.5033246409295
 20
-7.044539319285499
 30
0.0
 10
384.5412805204782
 20
-7.059212466356035
 30
0.0
 10
384.5959364561406
 20
-7.08611021137082
 30
0.0
 10
384.6140349783469
 20
-7.095956311322307
 30
0.0
 10
384.6467295872223
 20
-7.119967388982418
 30
0.0
 10
384.6637089365633
 20
-7.135208630381385
 30
0.0
 10
384.66798665654
 20
-7.175354552559218
 30
0.0
 10
384.6522515354428
 20
-7.193158653873875
 30
0.0
 10
384.6202828619387
 20
-7.219098812956413
 30
0.0
 10
384.6022570858656
 20
-7.229471148245864
 30
0.0
 10
384.5476186658609
 20
-7.257889534991834
 30
0.0
 10
384.5092749787219
 20
-7.273348408210909
 30
0.0
 10
384.3933934984074
 20
-7.31688892423213
 30
0.0
 10
384.3147325622571
 20
-7.341507459900504
 30
0.0
 10
383.9196664440162
 20
-7.45904089428195
 30
0.0
 10
383.5979800410137
 20
-7.534764335593994
 30
0.0
 10
382.632118519349
 20
-7.74860065246712
 30
0.0
 10
381.981567224219
 20
-7.865125615252369
 30
0.0
 10
380.0248665648311
 20
-8.15022662178698
 30
0.0
 10
378.7205187265262
 20
-8.251285515576134
 30
0.0
 10
376.1120333207659
 20
-8.286597204977486
 30
0.0
 10
374.807896108026
 20
-8.220539460445407
 30
0.0
 10
372.8518598385675
 20
-7.992563815857407
 30
0.0
 10
372.1984520058956
 20
-7.894764997724898
 30
0.0
 10
371.2250333271637
 20
-7.714981268062374
 30
0.0
 10
370.9016337871051
 20
-7.64959022821516
 30
0.0
 10
370.2572178195315
 20
-7.506670202644433
 30
0.0
 10
369.9360594766347
 20
-7.430527646357596
 30
0.0
 10
369.5386045385994
 20
-7.320032843097374
 30
0.0
 10
369.4593768473958
 20
-7.297172070605127
 30
0.0
 10
369.3417840696094
 20
-7.259298817435285
 30
0.0
 10
369.3027784070917
 20
-7.246123651084183
 30
0.0
 10
369.2259601028192
 20
-7.216360351249909
 30
0.0
 10
369.185729645294
 20
-7.20208283611494
 30
0.0
 10
369.1466946105243
 20
-7.168331950764022
 30
0.0
 10
369.1391875491933
 20
-7.160074457573485
 30
0.0
 10
369.1354197885515
 20
-7.139807681216981
 30
0.0
 10
369.140769751181
 20
-7.129891458565095
 30
0.0
 10
369.162015809551
 20
-7.107297192196011
 30
0.0
 10
369.1808087657727
 20
-7.097791348354678
 30
0.0
 10
369.2364870664509
 20
-7.070848501301481
 30
0.0
 10
369.2754169993625
 20
-7.057182914555834
 30
0.0
 10
369.3929260443796
 20
-7.017879565249157
 30
0.0
 10
369.4726592675867
 20
-6.995458655765302
 30
0.0
 10
369.8718159762313
 20
-6.88731830818258
 30
0.0
 10
370.1953584967039
 20
-6.814706793366043
 30
0.0
 10
371.1674145387266
 20
-6.608824305270255
 30
0.0
 10
371.8200936209223
 20
-6.494320940847871
 30
0.0
 10
373.1336259888716
 20
-6.305657673989393
 30
0.0
 10
373.7941407474049
 20
-6.23208562805946
 30
0.0
 10
374.7863075471266
 20
-6.153135759729561
 30
0.0
 10
375.1174557718026
 20
-6.132033867862538
 30
0.0
 10
375.6148167074575
 20
-6.108218618723008
 30
0.0
 10
375.7807101517432
 20
-6.101586770474571
 30
0.0
 10
376.1127102874877
 20
-6.090942188356787
 30
0.0
 10
376.2810641668933
 20
-6.086892964467543
 30
0.0
 10
376.4450305707335
 20
-6.084230332014178
 30
0.0
  0
SPLINE
  5
F2
330
1F
100
AcDbEntity
  8
0
  6
Continuous
 62
     7
370
    25
100
AcDbSpline
210
0.0
220
0.0
230
1.0
 70
     8
 71
     3
 72
    23
 73
    19
 74
     0
 42
0.000000001
 43
0.00000001
 40
0.0
 40
0.0
 40
0.0
 40
0.0
 40
0.0130983265286821
 40
0.0653925498226867
 40
0.2747632167246616
 40
0.5873485573857297
 40
0.8996797449722
 40
0.9560956754041235
 40
0.9701097623806959
 40
0.9736215999621652
 40
0.9759223719333381
 40
0.9770713414478319
 40
0.9780045842973755
 40
0.9789444827520751
 40
0.9799711387918029
 40
0.9817366817302925
 40
0.9876435583660346
 40
1.0
 40
1.0
 40
1.0
 40
1.0
 10
369.2252142936638
 20
-19.47317188547963
 30
0.0
 10
369.2908471337558
 20
-19.45754820238632
 30
0.0
 10
369.6185148519433
 20
-19.37954797290235
 30
0.0
 10
371.0493658965206
 20
-19.17004083865669
 30
0.0
 10
374.0683168257518
 20
-18.81964078793029
 30
0.0
 10
378.5443522684714
 20
-18.73891654471431
 30
0.0
 10
382.1692744170705
 20
-19.07168259187398
 30
0.0
 10
384.1506281254564
 20
-19.39395974519218
 30
0.0
 10
384.5249681974682
 20
-19.47997580331427
 30
0.0
 10
384.617688477218
 20
-19.51475037874011
 30
0.0
 10
384.6469972426631
 20
-19.53081051131799
 30
0.0
 10
384.6610725739845
 20
-19.54398482228482
 30
0.0
 10
384.6666003862224
 20
-19.55484004317685
 30
0.0
 10
384.6658326854546
 20
-19.56609101529427
 30
0.0
 10
384.6572760986575
 20
-19.57925831592996
 30
0.0
 10
384.6245388684854
 20
-19.60372249002816
 30
0.0
 10
384.5287368938906
 20
-19.64147135768856
 30
0.0
 10
384.4350802023926
 20
-19.66217954384024
 30
0.0
 10
384.3717147490268
 20
-19.67619011353792
 30
0.0
  0
SPLINE
  5
F3
330
1F
100
AcDbEntity
  8
0
  6
Continuous
 62
     7
370
    25
100
AcDbSpline
210
0.0
220
0.0
230
1.0
 70
     8
 71
     3
 72
    16
 73
    12
 74
     0
 42
0.000000001
 43
0.00000001
 40
0.0
 40
0.0
 40
0.0
 40
0.0
 40
0.3453476868221261
 40
0.5099452263320269
 40
0.592627480332393
 40
0.6242676353359577
 40
0.6562374773493432
 40
0.6843987092579937
 40
0.7199552726246099
 40
0.7874843376488219
 40
1.0
 40
1.0
 40
1.0
 40
1.0
 10
369.332026724372
 20
-19.59501303144025
 30
0.0
 10
369.2926033323558
 20
-19.58895430304193
 30
0.0
 10
369.234390200108
 20
-19.58000789991759
 30
0.0
 10
369.1739246734643
 20
-19.55540195092298
 30
0.0
 10
369.1483658860766
 20
-19.54049369044712
 30
0.0
 10
369.1389889872517
 20
-19.53022195431494
 30
0.0
 10
369.1361833175554
 20
-19.52272323128566
 30
0.0
 10
369.1379683895554
 20
-19.51486771096149
 30
0.0
 10
369.1456929092155
 20
-19.50562074766264
 30
0.0
 10
369.173273463027
 20
-19.48892057093059
 30
0.0
 10
369.202804371438
 20
-19.47996667123616
 30
0.0
 10
369.2252142936659
 20
-19.47317188548168
 30
0.0
  0
SPLINE
  5
F4
330
1F
100
AcDbEntity
  8
0
  6
Continuous
 62
     7
370
    25
100
AcDbSpline
210
0.0
220
0.0
230
1.0
 70
     8
 71
     3
 72
    23
 73
    19
 74
     0
 42
0.000000001
 43
0.00000001
 40
0.0
 40
0.0
 40
0.0
 40
0.0
 40
0.0265455110387923
 40
0.1327736388728514
 40
0.3467385136766195
 40
0.5607114091852591
 40
0.7948656021927641
 40
0.9134420160141753
 40
0.9728944682660763
 40
0.9876642442268251
 40
0.9915465400527653
 40
0.9937680620649233
 40
0.9950967532049139
 40
0.9960680962975628
 40
0.9970464091653253
 40
0.9981090680653916
 40
0.9999096701255141
 40
1.0
 40
1.0
 40
1.0
 40
1.0
 10
369.6869294703576
 20
-26.62658618576566
 30
0.0
 10
369.8173906799295
 20
-26.62125104432943
 30
0.0
 10
370.4699232117504
 20
-26.59456607520775
 30
0.0
 10
372.196531740778
 20
-26.53882117392858
 30
0.0
 10
374.8950890768882
 20
-26.48426896896982
 30
0.0
 10
378.2660998902192
 20
-26.48371526579216
 30
0.0
 10
381.1398445231013
 20
-26.54641126834031
 30
0.0
 10
383.1970673009375
 20
-26.62329451448861
 30
0.0
 10
384.1474015922932
 20
-26.66618296331441
 30
0.0
 10
384.5236017215088
 20
-26.69153693544317
 30
0.0
 10
384.6167923953025
 20
-26.70263177231558
 30
0.0
 10
384.6464814636643
 20
-26.70807802024991
 30
0.0
 10
384.6606763455404
 20
-26.71250774603752
 30
0.0
 10
384.6664947287574
 20
-26.71648702341604
 30
0.0
 10
384.6660153283912
 20
-26.72058759253715
 30
0.0
 10
384.657602192265
 20
-26.7253825774481
 30
0.0
 10
384.6483557126686
 20
-26.72889836652798
 30
0.0
 10
384.6401651844044
 20
-26.73039248535379
 30
0.0
 10
384.6397739226268
 20
-26.73046385945431
 30
0.0
  0
SPLINE
  5
F5
330
1F
100
AcDbEntity
  8
0
  6
Continuous
 62
     7
370
    25
100
AcDbSpline
210
0.0
220
0.0
230
1.0
 70
     8
 71
     3
 72
    16
 73
    12
 74
     0
 42
0.000000001
 43
0.00000001
 40
0.0
 40
0.0
 40
0.0
 40
0.0
 40
0.0062645802400548
 40
0.024098289608426
 40
0.0421201975129038
 40
0.0580567708736372
 40
0.0770291089933228
 40
0.1122677734721762
 40
0.2445976060626606
 40
0.7682994835293846
 40
1.0
 40
1.0
 40
1.0
 40
1.0
 10
369.1493066809069
 20
-26.67394946213462
 30
0.0
 10
369.1482797613682
 20
-26.67370240539448
 30
0.0
 10
369.1443294560805
 20
-26.6727520392653
 30
0.0
 10
369.1396546309153
 20
-26.67059416616868
 30
0.0
 10
369.1361808948055
 20
-26.66775791447433
 30
0.0
 10
369.1376888497971
 20
-26.664858972584
 30
0.0
 10
369.1449414224798
 20
-26.66168244899691
 30
0.0
 10
369.174287923336
 20
-26.65563605697979
 30
0.0
 10
369.3080918756913
 20
-26.64390418220208
 30
0.0
 10
369.4868228339769
 20
-26.63545122991409
 30
0.0
 10
369.6399587320773
 20
-26.6286676589751
 30
0.0
 10
369.6869292830908
 20
-26.6265869707185
 30
0.0
  0
SPLINE
  5
F6
330
1F
100
AcDbEntity
  8
0
  6
Continuous
 62
     7
370
    25
100
AcDbSpline
210
0.0
220
0.0
230
1.0
 70
     8
 71
     3
 72
    39
 73
    35
 74
     0
 42
0.000000001
 43
0.00000001
 40
0.0
 40
0.0
 40
0.0
 40
0.0
 40
0.0156250000000032
 40
0.0156250000000032
 40
0.0312500000000064
 40
0.062500000000006
 40
0.062500000000006
 40
0.1250000000000052
 40
0.1250000000000052
 40
0.2500000000000102
 40
0.2500000000000102
 40
0.3125000000000097
 40
0.3125000000000097
 40
0.375000000000009
 40
0.375000000000009
 40
0.5000000000000078
 40
0.5000000000000078
 40
0.5625000000000072
 40
0.5625000000000072
 40
0.6250000000000064
 40
0.6250000000000064
 40
0.750000000000005
 40
0.750000000000005
 40
0.8125000000000043
 40
0.8125000000000043
 40
0.8750000000000037
 40
0.8750000000000037
 40
0.9375000000000029
 40
0.9375000000000029
 40
0.9687500000000026
 40
0.9687500000000026
 40
0.9843750000000013
 40
0.9843750000000013
 40
1.0
 40
1.0
 40
1.0
 40
1.0
 10
413.0239646696383
 20
8.831939133286385
 30
0.0
 10
412.9094017808145
 20
8.811762985003732
 30
0.0
 10
412.7922829872393
 20
8.790031341436817
 30
0.0
 10
412.5619248475383
 20
8.74507085894663
 30
0.0
 10
412.2177009334775
 20
8.674590255436051
 30
0.0
 10
411.877319611647
 20
8.59510040638298
 30
0.0
 10
411.2014536865734
 20
8.424326668814787
 30
0.0
 10
410.7573963879329
 20
8.294774051558097
 30
0.0
 10
409.4433365830812
 20
7.859881364306705
 30
0.0
 10
408.5913379062323
 20
7.50862149963337
 30
0.0
 10
407.3459133445095
 20
6.887216857418011
 30
0.0
 10
406.9350178559293
 20
6.663450646081947
 30
0.0
 10
406.1338562575692
 20
6.189052758579253
 30
0.0
 10
405.7427071674286
 20
5.938097575995547
 30
0.0
 10
404.5964974145794
 20
5.14389026179663
 30
0.0
 10
403.8684360543601
 20
4.559672500480593
 30
0.0
 10
402.8298506224316
 20
3.595590960690739
 30
0.0
 10
402.491464504209
 20
3.257979347184044
 30
0.0
 10
401.8411715766305
 20
2.560837039592475
 30
0.0
 10
401.5288527366764
 20
2.201135079551443
 30
0.0
 10
400.6294547710829
 20
1.088824734483745
 30
0.0
 10
400.079677128923
 20
0.3032469226844822
 30
0.0
 10
399.330958426223
 20
-0.9446648268782282
 30
0.0
 10
399.0943388615212
 20
-1.372334811271398
 30
0.0
 10
398.6556018738767
 20
-2.234525479005142
 30
0.0
 10
398.4522227279064
 20
-2.671051166426837
 30
0.0
 10
398.0767072039143
 20
-3.554531771563233
 30
0.0
 10
397.9045703812649
 20
-4.001486824200363
 30
0.0
 10
397.6696599751787
 20
-4.679561518976404
 30
0.0
 10
397.5952433147506
 20
-4.906861575736343
 30
0.0
 10
397.4894732483052
 20
-5.249715854991367
 30
0.0
 10
397.4551926858076
 20
-5.364318081377421
 30
0.0
 10
397.3885917890565
 20
-5.594157309717454
 30
0.0
 10
397.355801737995
 20
-5.711127184670962
 30
0.0
 10
397.3249368268806
 20
-5.824948203923371
 30
0.0
  0
SPLINE
  5
F7
330
1F
100
AcDbEntity
  8
0
  6
Continuous
 62
     7
370
    25
100
AcDbSpline
210
0.0
220
0.0
230
1.0
 70
     8
 71
     3
 72
    10
 73
     6
 74
     0
 42
0.000000001
 43
0.00000001
 40
0.0
 40
0.0
 40
0.0
 40
0.0
 40
0.5
 40
0.5
 40
1.0
 40
1.0
 40
1.0
 40
1.0
 10
397.3247106599213
 20
-5.824920992056395
 30
0.0
 10
397.0239407979481
 20
-5.781236863998106
 30
0.0
 10
396.6870435878737
 20
-5.719487650910479
 30
0.0
 10
395.9715784666732
 20
-5.562636627409394
 30
0.0
 10
395.5929965638113
 20
-5.467960722411715
 30
0.0
 10
395.2103958212722
 20
-5.361112505555767
 30
0.0
  0
SPLINE
  5
F8
330
1F
100
AcDbEntity
  8
0
  6
Continuous
 62
     7
370
    25
100
AcDbSpline
210
0.0
220
0.0
230
1.0
 70
     8
 71
     3
 72
    10
 73
     6
 74
     0
 42
0.000000001
 43
0.00000001
 40
0.0
 40
0.0
 40
0.0
 40
0.0
 40
0.5
 40
0.5
 40
1.0
 40
1.0
 40
1.0
 40
1.0
 10
413.0365706313412
 20
8.834172848469287
 30
0.0
 10
413.0085781009432
 20
9.411791581907107
 30
0.0
 10
412.930830536143
 20
10.06188465759095
 30
0.0
 10
412.6940519830391
 20
11.35461580166288
 30
0.0
 10
412.5352512927921
 20
11.99599652023423
 30
0.0
 10
412.3546533014729
 20
12.55721177428079
 30
0.0
  0
SPLINE
  5
FA
330
1F
100
AcDbEntity
  8
0
  6
Continuous
 62
   144
370
    18
100
AcDbSpline
210
0.0
220
0.0
230
1.0
 70
     8
 71
     3
 72
    11
 73
     7
 74
     0
 42
0.000000001
 43
0.00000001
 40
-0.00000006
 40
-0.00000006
 40
-0.00000006
 40
-0.00000006
 40
0.0
 40
0.0
 40
0.0
 40
0.0000866337803515
 40
0.0000866337803515
 40
0.0000866337803515
 40
0.0000866337803515
 10
398.7560825619063
 20
-5.997140231893045
 30
0.0
 10
398.7560771109559
 20
-5.997159128080424
 30
0.0
 10
398.7560716600307
 20
-5.997178024283994
 30
0.0
 10
398.7560662091382
 20
-5.997196920479228
 30
0.0
 10
398.7481956853721
 20
-6.024481067597344
 30
0.0
 10
398.740388010661
 20
-6.051765089242591
 30
0.0
 10
398.7326433163084
 20
-6.079047629862451
 30
0.0
  0
SPLINE
  5
FB
330
1F
100
AcDbEntity
  8
0
  6
Continuous
 62
   144
370
    18
100
AcDbSpline
210
0.0
220
0.0
230
1.0
 70
     8
 71
     3
 72
    11
 73
     7
 74
     0
 42
0.000000001
 43
0.00000001
 40
0.0
 40
0.0
 40
0.0
 40
0.0
 40
0.0000863005694349
 40
0.0000863005694349
 40
0.0000863005694349
 40
0.0000863605694349
 40
0.0000863605694349
 40
0.0000863605694349
 40
0.0000863605694349
 10
398.73273107494
 20
-6.078739744236798
 30
0.0
 10
398.7404464366677
 20
-6.051559862975036
 30
0.0
 10
398.748224265357
 20
-6.024378402776594
 30
0.0
 10
398.7560644260226
 20
-5.997196711098994
 30
0.0
 10
398.7560698768515
 20
-5.997177813176173
 30
0.0
 10
398.7560753277129
 20
-5.997158915244897
 30
0.0
 10
398.7560807785998
 20
-5.997140017329872
 30
0.0
  0
SPLINE
  5
FD
330
1F
100
AcDbEntity
  8
0
  6
Continuous
 62
     7
370
    25
100
AcDbSpline
210
0.0
220
0.0
230
1.0
 70
     8
 71
     3
 72
    26
 73
    22
 74
     0
 42
0.000000001
 43
0.00000001
 40
0.0
 40
0.0
 40
0.0
 40
0.0
 40
0.0625000000000014
 40
0.0625000000000014
 40
0.1250000000000028
 40
0.1250000000000028
 40
0.2500000000000023
 40
0.2500000000000023
 40
0.3125000000000021
 40
0.3125000000000021
 40
0.3750000000000019
 40
0.3750000000000019
 40
0.5000000000000014
 40
0.5000000000000014
 40
0.6250000000000011
 40
0.6250000000000011
 40
0.7500000000000008
 40
0.7500000000000008
 40
0.8750000000000004
 40
0.8750000000000004
 40
1.0
 40
1.0
 40
1.0
 40
1.0
 10
398.7560728986168
 20
-5.99713906922883
 30
0.0
 10
398.8738208876637
 20
-5.5811803761834
 30
0.0
 10
399.0072538434422
 20
-5.165073525754546
 30
0.0
 10
399.3032570182141
 20
-4.342763814868857
 30
0.0
 10
399.4651296498163
 20
-3.938143730619114
 30
0.0
 10
399.9918227993968
 20
-2.743732808549423
 30
0.0
 10
400.3975207766013
 20
-1.97329654730796
 30
0.0
 10
401.0893161142971
 20
-0.8574567656815979
 30
0.0
 10
401.3350452848954
 20
-0.4906011535873989
 30
0.0
 10
401.8473479181145
 20
0.2188314685048874
 30
0.0
 10
402.1140765154273
 20
0.5619743937070012
 30
0.0
 10
402.9453224995509
 20
1.55826927292778
 30
0.0
 10
403.5408263392998
 20
2.178583989044377
 30
0.0
 10
404.8150556556106
 20
3.334194085088761
 30
0.0
 10
405.4798265180362
 20
3.857072038244465
 30
0.0
 10
406.8644314090819
 20
4.803417605061312
 30
0.0
 10
407.5842638142497
 20
5.226824433982301
 30
0.0
 10
409.0831174145821
 20
5.976189453062381
 30
0.0
 10
409.8655904962786
 20
6.302763451733001
 30
0.0
 10
411.4614053779258
 20
6.842319064742338
 30
0.0
 10
412.2762013228468
 20
7.05716416638967
 30
0.0
 10
413.1169082481069
 20
7.216201488892298
 30
0.0
  0
SPLINE
  5
102
330
1F
100
AcDbEntity
  8
0
  6
Continuous
 62
     7
370
    25
100
AcDbSpline
210
0.0
220
0.0
230
1.0
 70
    24
 71
     3
 72
    16
 73
    12
 74
     0
 42
0.000000001
 43
0.00000001
 40
0.0
 40
0.0
 40
0.0
 40
0.0
 40
0.0754849669943131
 40
0.1965747241545313
 40
0.3209360337532156
 40
0.4384627401781032
 40
0.5591684618242039
 40
0.6685770760657714
 40
0.7807102593757386
 40
0.8901211650020534
 40
1.0
 40
1.0
 40
1.0
 40
1.0
 10
399.1000668294345
 20
-6.03852759529406
 30
0.0
 10
398.8714003547744
 20
-6.835982361845955
 30
0.0
 10
398.2759168966828
 20
-8.91267997466288
 30
0.0
 10
397.3437782469883
 20
-12.16343376526872
 30
0.0
 10
396.3669948290132
 20
-15.56988236561965
 30
0.0
 10
395.4969394107993
 20
-18.60412619804057
 30
0.0
 10
394.7857637517326
 20
-21.08429046357894
 30
0.0
 10
394.2225494048723
 20
-23.04845231179679
 30
0.0
 10
393.8247339155054
 20
-24.43579979540028
 30
0.0
 10
393.5683263098843
 20
-25.32999938275217
 30
0.0
 10
393.5371690181436
 20
-25.43865777200038
 30
0.0
 10
393.5215571299248
 20
-25.49310289647067
 30
0.0
  0
LWPOLYLINE
  5
103
330
1F
100
AcDbEntity
  8
0
  6
Continuous
 62
   144
370
    18
100
AcDbPolyline
 90
        9
 70
   128
 43
0.0
 10
399.1000668294
 20
-6.0385275953
 10
399.0891642063
 20
-6.0559623134
 10
399.0674757405
 20
-6.0700708895
 10
399.0352475794
 20
-6.080693202
 10
398.9928454879
 20
-6.087708696
 10
398.9407506969
 20
-6.091037751
 10
398.8795544422
 20
-6.0906425848
 10
398.809951254
 20
-6.0865276822
 10
398.7327310749
 20
-6.0787397442
  0
SPLINE
  5
106
330
1F
100
AcDbEntity
  8
0
  6
Continuous
 62
     7
370
    25
100
AcDbSpline
210
0.0
220
0.0
230
1.0
 70
     8
 71
     3
 72
    26
 73
    22
 74
     0
 42
0.000000001
 43
0.00000001
 40
0.0
 40
0.0
 40
0.0
 40
0.0
 40
0.1250000000000013
 40
0.1250000000000013
 40
0.2500000000000027
 40
0.2500000000000027
 40
0.375000000000004
 40
0.375000000000004
 40
0.5000000000000053
 40
0.5000000000000053
 40
0.6250000000000067
 40
0.6250000000000067
 40
0.6875000000000047
 40
0.6875000000000047
 40
0.7500000000000027
 40
0.7500000000000027
 40
0.8750000000000031
 40
0.8750000000000031
 40
0.9375000000000016
 40
0.9375000000000016
 40
1.0
 40
1.0
 40
1.0
 40
1.0
 10
412.9991063621491
 20
6.675265875324524
 30
0.0
 10
412.1949217085226
 20
6.520406536923842
 30
0.0
 10
411.4118428737699
 20
6.313073395528615
 30
0.0
 10
409.8817807786026
 20
5.79668244152557
 30
0.0
 10
409.1313126582117
 20
5.485486516382066
 30
0.0
 10
407.6915337781058
 20
4.772117798782115
 30
0.0
 10
406.9995504325825
 20
4.3696170944826
 30
0.0
 10
405.6673200799797
 20
3.470513580318252
 30
0.0
 10
405.0270742704651
 20
2.97397467905799
 30
0.0
 10
403.7982683027097
 20
1.876526726797485
 30
0.0
 10
403.2203066369388
 20
1.284640225549144
 30
0.0
 10
402.4138134862208
 20
0.3349622749967117
 30
0.0
 10
402.1547458492295
 20
0.007733413005015
 30
0.0
 10
401.6565686276728
 20
-0.669175983978923
 30
0.0
 10
401.4168630913167
 20
-1.020024472964266
 30
0.0
 10
400.7410204678748
 20
-2.08823683659354
 30
0.0
 10
400.3437260688552
 20
-2.826345244816777
 30
0.0
 10
399.8264236559626
 20
-3.971491048726597
 30
0.0
 10
399.6671427493565
 20
-4.35955962984677
 30
0.0
 10
399.3752401089255
 20
-5.148513924143061
 30
0.0
 10
399.2433553231307
 20
-5.547703931657158
 30
0.0
 10
399.1264995302996
 20
-5.947255747812575
 30
0.0
  0
SPLINE
  5
107
330
1F
100
AcDbEntity
  8
0
  6
Continuous
 62
   144
370
    18
100
AcDbSpline
210
0.0
220
0.0
230
1.0
 70
     8
 71
     3
 72
    10
 73
     6
 74
     0
 42
0.000000001
 43
0.00000001
 40
0.0
 40
0.0
 40
0.0
 40
0.0
 40
0.5
 40
0.5
 40
1.0
 40
1.0
 40
1.0
 40
1.0
 10
412.9991063621491
 20
6.675265875324449
 30
0.0
 10
413.0424090112386
 20
6.683604531824264
 30
0.0
 10
413.0766463786405
 20
6.738719478967942
 30
0.0
 10
413.1178046667067
 20
6.927714617946632
 30
0.0
 10
413.1246726902256
 20
7.061351910869623
 30
0.0
 10
413.116908248107
 20
7.216201488893322
 30
0.0
  0
SPLINE
  5
108
330
1F
100
AcDbEntity
  8
0
  6
Continuous
 62
   144
370
    18
100
AcDbSpline
210
0.0
220
0.0
230
1.0
 70
     8
 71
     3
 72
    10
 73
     6
 74
     0
 42
0.000000001
 43
0.00000001
 40
0.0
 40
0.0
 40
0.0
 40
0.0
 40
0.5
 40
0.5
 40
1.0
 40
1.0
 40
1.0
 40
1.0
 10
398.7560807785678
 20
-5.997140017311999
 30
0.0
 10
398.8639493052997
 20
-6.009031658446781
 30
0.0
 10
398.9536680965033
 20
-6.010769164080677
 30
0.0
 10
399.0809556712973
 20
-5.993629116309688
 30
0.0
 10
399.1184551881166
 20
-5.974760891221367
 30
0.0
 10
399.1264979160517
 20
-5.947261267231604
 30
0.0
  0
SPLINE
  5
109
330
1F
100
AcDbEntity
  8
0
  6
Continuous
 62
   144
370
    18
100
AcDbSpline
210
0.0
220
0.0
230
1.0
 70
     8
 71
     3
 72
     8
 73
     4
 74
     0
 42
0.000000001
 43
0.00000001
 40
0.0
 40
0.0
 40
0.0
 40
0.0
 40
0.0001547825692993
 40
0.0001547825692993
 40
0.0001547825692993
 40
0.0001547825692993
 10
413.146429629871
 20
6.70299973124394
 30
0.0
 10
413.0972881282069
 20
6.693960482548926
 30
0.0
 10
413.0481732304711
 20
6.684714606887299
 30
0.0
 10
412.999079523919
 20
6.67526070714886
 30
0.0
  0
SPLINE
  5
10A
330
1F
100
AcDbEntity
  8
0
  6
Continuous
 62
   144
370
    18
100
AcDbSpline
210
0.0
220
0.0
230
1.0
 70
     8
 71
     3
 72
     8
 73
     4
 74
     0
 42
0.000000001
 43
0.00000001
 40
0.0
 40
0.0
 40
0.0
 40
0.0
 40
0.0000968547662264
 40
0.0000968547662264
 40
0.0000968547662264
 40
0.0000968547662264
 10
399.1265109341491
 20
-5.947216756081183
 30
0.0
 10
399.1176094343589
 20
-5.977652394126591
 30
0.0
 10
399.1087936441049
 20
-6.008093575763418
 30
0.0
 10
399.1000668294344
 20
-6.038527595294062
 30
0.0
  0
SPLINE
  5
10C
330
1F
100
AcDbEntity
  8
0
  6
Continuous
 62
     7
370
    25
100
AcDbSpline
210
0.0
220
0.0
230
1.0
 70
     8
 71
     3
 72
    23
 73
    19
 74
     0
 42
0.000000001
 43
0.00000001
 40
-0.00000006
 40
-0.00000006
 40
-0.00000006
 40
-0.00000006
 40
0.0
 40
0.0
 40
0.0
 40
0.0007224602825298
 40
0.0007224602825298
 40
0.0007224602825298
 40
0.0015941845040166
 40
0.0015941845040166
 40
0.0015941845040166
 40
0.0024677099130484
 40
0.0024677099130484
 40
0.0024677099130484
 40
0.0033430273558163
 40
0.0033430273558163
 40
0.0033430273558163
 40
0.0033430873558163
 40
0.0033430873558163
 40
0.0033430873558163
 40
0.0033430873558163
 10
416.2401913190355
 20
9.28829047289251
 30
0.0
 10
416.2401719436581
 20
9.288288501632472
 30
0.0
 10
416.2401525682832
 20
9.288286530377587
 30
0.0
 10
416.2401331929103
 20
9.288284559099575
 30
0.0
 10
416.0068342366478
 20
9.264548391274555
 30
0.0
 10
415.7738410271072
 20
9.238825348815544
 30
0.0
 10
415.5411949713847
 20
9.211122100224124
 30
0.0
 10
415.2604876251577
 20
9.17769576350927
 30
0.0
 10
414.9802585518179
 20
9.141383232502955
 30
0.0
 10
414.7005782142469
 20
9.10219722079936
 30
0.0
 10
414.4203199342645
 20
9.062930233585297
 30
0.0
 10
414.1405832115815
 20
9.020773754459013
 30
0.0
 10
413.861436640452
 20
8.97574168341717
 30
0.0
 10
413.5817173567098
 20
8.930617222076705
 30
0.0
 10
413.3025614677886
 20
8.882600654691291
 30
0.0
 10
413.0240358979394
 20
8.831707065544006
 30
0.0
 10
413.0240168056664
 20
8.831703576908136
 30
0.0
 10
413.0239977133969
 20
8.831700088248915
 30
0.0
 10
413.0239786211293
 20
8.831696599595874
 30
0.0
  0
SPLINE
  5
10D
330
1F
100
AcDbEntity
  8
0
  6
Continuous
 62
     7
370
    25
100
AcDbSpline
210
0.0
220
0.0
230
1.0
 70
     8
 71
     3
 72
    10
 73
     6
 74
     0
 42
0.000000001
 43
0.00000001
 40
0.0
 40
0.0
 40
0.0
 40
0.0
 40
0.5
 40
0.5
 40
1.0
 40
1.0
 40
1.0
 40
1.0
 10
416.2401913190355
 20
9.288290472892632
 30
0.0
 10
416.251842574263
 20
9.892051247345833
 30
0.0
 10
416.2196858009115
 20
10.57469617295438
 30
0.0
 10
416.0758063297628
 20
11.92686086690633
 30
0.0
 10
415.9642438690238
 20
12.59487474361113
 30
0.0
 10
415.8270229668636
 20
13.17120479002947
 30
0.0
  0
SPLINE
  5
10E
330
1F
100
AcDbEntity
  8
0
  6
Continuous
 62
     7
370
    25
100
AcDbSpline
210
0.0
220
0.0
230
1.0
 70
     8
 71
     3
 72
    24
 73
    20
 74
     0
 42
0.000000001
 43
0.00000001
 40
0.0
 40
0.0
 40
0.0
 40
0.0
 40
0.0312500000000027
 40
0.0312500000000027
 40
0.0625000000000054
 40
0.0625000000000054
 40
0.125000000000005
 40
0.125000000000005
 40
0.2500000000000043
 40
0.2500000000000043
 40
0.3750000000000036
 40
0.3750000000000036
 40
0.5000000000000029
 40
0.5000000000000029
 40
0.6250000000000022
 40
0.6250000000000022
 40
0.7500000000000014
 40
0.7500000000000014
 40
1.0
 40
1.0
 40
1.0
 40
1.0
 10
440.2567936746987
 20
4.49473983804457
 30
0.0
 10
440.034271944866
 20
4.615155077502674
 30
0.0
 10
439.8079099354457
 20
4.734785910823289
 30
0.0
 10
439.3559210956112
 20
4.968081104026086
 30
0.0
 10
439.1289058876762
 20
5.082496816169835
 30
0.0
 10
438.4449057169573
 20
5.419180784853554
 30
0.0
 10
437.9849709613565
 20
5.634894584500031
 30
0.0
 10
436.5940279978524
 20
6.256517413624437
 30
0.0
 10
435.6519327601541
 20
6.637011947212724
 30
0.0
 10
433.7401226545123
 20
7.330964358272182
 30
0.0
 10
432.7703944221536
 20
7.644405716002121
 30
0.0
 10
430.8037327549866
 20
8.201822820486255
 30
0.0
 10
429.811616427818
 20
8.444342244242094
 30
0.0
 10
427.8162681634579
 20
8.852879297951807
 30
0.0
 10
426.8121617138211
 20
9.020278107209549
 30
0.0
 10
424.7910439220421
 20
9.282543841876288
 30
0.0
 10
423.7723355650883
 20
9.377163448917571
 30
0.0
 10
420.7197648937008
 20
9.54825607506104
 30
0.0
 10
418.6836100648133
 20
9.513998490558004
 30
0.0
 10
416.6441644750334
 20
9.326658665016323
 30
0.0
  0
SPLINE
  5
110
330
1F
100
AcDbEntity
  8
0
  6
Continuous
 62
     7
370
    25
100
AcDbSpline
210
0.0
220
0.0
230
1.0
 70
     8
 71
     3
 72
    18
 73
    14
 74
     0
 42
0.000000001
 43
0.00000001
 40
0.0
 40
0.0
 40
0.0
 40
0.0
 40
0.2499999999999969
 40
0.2499999999999969
 40
0.3749999999999983
 40
0.3749999999999983
 40
0.4999999999999998
 40
0.4999999999999998
 40
0.6250000000000012
 40
0.6250000000000012
 40
0.7500000000000027
 40
0.7500000000000027
 40
1.0
 40
1.0
 40
1.0
 40
1.0
 10
416.2561501736543
 20
13.22595186304066
 30
0.0
 10
418.4642453329026
 20
13.48675224452174
 30
0.0
 10
420.6762485335679
 20
13.57422004667454
 30
0.0
 10
423.9995355912982
 20
13.45296413221412
 30
0.0
 10
425.1101940119867
 20
13.36989364128625
 30
0.0
 10
427.3154554598485
 20
13.12006224305802
 30
0.0
 10
428.4120570600199
 20
12.95364535833403
 30
0.0
 10
430.593346470016
 20
12.53538360099074
 30
0.0
 10
431.6791943078422
 20
12.28208237098264
 30
0.0
 10
433.8335061264341
 20
11.69090958900031
 30
0.0
 10
434.895852921498
 20
11.35484422367822
 30
0.0
 10
438.037848339081
 20
10.22758056997892
 30
0.0
 10
440.0739982919571
 20
9.320632909310882
 30
0.0
 10
442.0361433021958
 20
8.233033061602372
 30
0.0
  0
SPLINE
  5
111
330
1F
100
AcDbEntity
  8
0
  6
Continuous
 62
     7
370
    25
100
AcDbSpline
210
0.0
220
0.0
230
1.0
 70
     8
 71
     3
 72
    10
 73
     6
 74
     0
 42
0.000000001
 43
0.00000001
 40
0.0
 40
0.0
 40
0.0
 40
0.0
 40
0.5
 40
0.5
 40
1.0
 40
1.0
 40
1.0
 40
1.0
 10
440.2567936746987
 20
4.494739838044571
 30
0.0
 10
440.6145155855924
 20
5.040361640042013
 30
0.0
 10
440.9749408306195
 20
5.686732045734795
 30
0.0
 10
441.5985274020043
 20
6.996845256812339
 30
0.0
 10
441.8607813912006
 20
7.65868180818715
 30
0.0
 10
442.0361433021958
 20
8.233033061602342
 30
0.0
  0
SPLINE
  5
112
330
1F
100
AcDbEntity
  8
0
  6
Continuous
 62
     7
370
    25
100
AcDbSpline
210
0.0
220
0.0
230
1.0
 70
     8
 71
     3
 72
     8
 73
     4
 74
     0
 42
0.000000001
 43
0.00000001
 40
0.0
 40
0.0
 40
0.0
 40
0.0
 40
1.0
 40
1.0
 40
1.0
 40
1.0
 10
442.0367847989517
 20
8.234964504051613
 30
0.0
 10
442.774239189657
 20
7.852053896794886
 30
0.0
 10
443.4629640178989
 20
7.380777383645439
 30
0.0
 10
444.1030648547164
 20
6.827838058010812
 30
0.0
  0
SPLINE
  5
114
330
1F
100
AcDbEntity
  8
0
  6
Continuous
 62
   144
370
    18
100
AcDbSpline
210
0.0
220
0.0
230
1.0
 70
     8
 71
     3
 72
    11
 73
     7
 74
     0
 42
0.000000001
 43
0.00000001
 40
-0.00000006
 40
-0.00000006
 40
-0.00000006
 40
-0.00000006
 40
0.0
 40
0.0
 40
0.0
 40
0.0001468582296537
 40
0.0001468582296537
 40
0.0001468582296537
 40
0.0001468582296537
 10
413.1169105099482
 20
7.216162168889084
 30
0.0
 10
413.1169296003857
 20
7.21616584591684
 30
0.0
 10
413.1169486908307
 20
7.216169522914894
 30
0.0
 10
413.1169677812779
 20
7.216173199882229
 30
0.0
 10
413.1636942693403
 20
7.225173081770706
 30
0.0
 10
413.2104450924492
 20
7.233991014877835
 30
0.0
 10
413.2572182602357
 20
7.242626828539612
 30
0.0
  0
SPLINE
  5
115
330
1F
100
AcDbEntity
  8
0
  6
Continuous
 62
   144
370
    18
100
AcDbSpline
210
0.0
220
0.0
230
1.0
 70
     8
 71
     3
 72
    20
 73
    16
 74
     0
 42
0.000000001
 43
0.00000001
 40
0.0
 40
0.0
 40
0.0
 40
0.0
 40
0.000475489634694
 40
0.000475489634694
 40
0.000475489634694
 40
0.0013458376492165
 40
0.0013458376492165
 40
0.0013458376492165
 40
0.0022156964021521
 40
0.0022156964021521
 40
0.0022156964021521
 40
0.003085019638534
 40
0.003085019638534
 40
0.003085019638534
 40
0.0030850796385341
 40
0.0030850796385341
 40
0.0030850796385341
 40
0.0030850796385341
 10
413.2572182602357
 20
7.242626828539594
 30
0.0
 10
413.4086578936615
 20
7.270587399036766
 30
0.0
 10
413.5602851757945
 20
7.297680224674652
 30
0.0
 10
413.7120889495862
 20
7.323901957446695
 30
0.0
 10
413.9899438194395
 20
7.371897049826298
 30
0.0
 10
414.2684132150886
 20
7.41697768552622
 30
0.0
 10
414.5474268685707
 20
7.459123199347047
 30
0.0
 10
414.8262835434765
 20
7.501245001271797
 30
0.0
 10
415.1057141655423
 20
7.540439542667107
 30
0.0
 10
415.3856458909977
 20
7.576686163935312
 30
0.0
 10
415.6654051307539
 20
7.612910451101155
 30
0.0
 10
415.9456956943235
 20
7.646194423516556
 30
0.0
 10
416.2264418703144
 20
7.676517632144754
 30
0.0
 10
416.226461247946
 20
7.676519725109914
 30
0.0
 10
416.2264806255806
 20
7.676521818061043
 30
0.0
 10
416.2265000032159
 20
7.676523910997934
 30
0.0
  0
SPLINE
  5
116
330
1F
100
AcDbEntity
  8
0
  6
Continuous
 62
     7
370
    25
100
AcDbSpline
210
0.0
220
0.0
230
1.0
 70
     8
 71
     3
 72
    11
 73
     7
 74
     0
 42
0.000000001
 43
0.00000001
 40
0.0
 40
0.0
 40
0.0
 40
0.0
 40
0.0004166652376307
 40
0.0004166652376307
 40
0.0004166652376307
 40
0.0004167252376307
 40
0.0004167252376307
 40
0.0004167252376307
 40
0.0004167252376307
 10
416.6441644750334
 20
9.326658665016357
 30
0.0
 10
416.509475031524
 20
9.314286333547553
 30
0.0
 10
416.374835472804
 20
9.301483489953569
 30
0.0
 10
416.2402490640176
 20
9.288249508296296
 30
0.0
 10
416.2402296835083
 20
9.288247602596403
 30
0.0
 10
416.2402103029999
 20
9.288245696880875
 30
0.0
 10
416.2401909224928
 20
9.288243791169759
 30
0.0
  0
SPLINE
  5
118
330
1F
100
AcDbEntity
  8
0
  6
Continuous
 62
     7
370
    25
100
AcDbSpline
210
0.0
220
0.0
230
1.0
 70
     8
 71
     3
 72
    29
 73
    25
 74
     0
 42
0.000000001
 43
0.00000001
 40
0.0
 40
0.0
 40
0.0
 40
0.0
 40
0.0312499999999987
 40
0.0312499999999987
 40
0.0624999999999975
 40
0.1249999999999949
 40
0.1249999999999949
 40
0.2499999999999965
 40
0.2499999999999965
 40
0.3749999999999981
 40
0.3749999999999981
 40
0.4999999999999996
 40
0.4999999999999996
 40
0.6250000000000011
 40
0.6250000000000011
 40
0.7500000000000028
 40
0.7500000000000028
 40
0.8750000000000043
 40
0.8750000000000043
 40
0.9375000000000022
 40
0.9375000000000022
 40
0.9687500000000011
 40
0.9687500000000011
 40
1.0
 40
1.0
 40
1.0
 40
1.0
 10
416.2265000006922
 20
7.676523613905352
 30
0.0
 10
416.4743093661355
 20
7.703141572656617
 30
0.0
 10
416.725191770057
 20
7.727734579197362
 30
0.0
 10
417.2236574974738
 20
7.771887848425047
 30
0.0
 10
417.9711343584108
 20
7.831075020475713
 30
0.0
 10
418.7179876919276
 20
7.869264610529779
 30
0.0
 10
420.210957448602
 20
7.917870875632294
 30
0.0
 10
421.2052939297707
 20
7.913284719809163
 30
0.0
 10
423.1923761658904
 20
7.830316007421336
 30
0.0
 10
424.1851224321628
 20
7.751932432643195
 30
0.0
 10
426.1691936118012
 20
7.520271343166986
 30
0.0
 10
427.1559181766607
 20
7.367439367826048
 30
0.0
 10
429.111635063458
 20
6.989427791689854
 30
0.0
 10
430.0822076530876
 20
6.763982790734484
 30
0.0
 10
432.0071021557613
 20
6.240131818174602
 30
0.0
 10
432.9622375862002
 20
5.941273041685317
 30
0.0
 10
434.8392996498815
 20
5.275757209826883
 30
0.0
 10
435.7631097601169
 20
4.908670515100265
 30
0.0
 10
437.1257523517094
 20
4.307323163165938
 30
0.0
 10
437.5761189740645
 20
4.098415286957049
 30
0.0
 10
438.2457526734938
 20
3.772409665088366
 30
0.0
 10
438.4679963860887
 20
3.661623917828609
 30
0.0
 10
438.9104074868102
 20
3.435879862356605
 30
0.0
 10
439.1318026457319
 20
3.320262503104782
 30
0.0
 10
439.3492298209646
 20
3.204127162880791
 30
0.0
  0
SPLINE
  5
119
330
1F
100
AcDbEntity
  8
0
  6
Continuous
 62
     7
370
    25
100
AcDbSpline
210
0.0
220
0.0
230
1.0
 70
     8
 71
     3
 72
    20
 73
    16
 74
     0
 42
0.000000001
 43
0.00000001
 40
0.0
 40
0.0
 40
0.0
 40
0.0
 40
0.125
 40
0.125
 40
0.25
 40
0.25
 40
0.375
 40
0.375
 40
0.5
 40
0.5
 40
0.625
 40
0.625
 40
0.75
 40
0.75
 40
1.0
 40
1.0
 40
1.0
 40
1.0
 10
438.8875133600318
 20
2.825290521964615
 30
0.0
 10
438.0208539636261
 20
3.277526406920174
 30
0.0
 10
437.1364219748874
 20
3.698543190747467
 30
0.0
 10
435.340229461826
 20
4.474063092404403
 30
0.0
 10
434.4275493915209
 20
4.829064427573455
 30
0.0
 10
432.5742858953348
 20
5.472431867356661
 30
0.0
 10
431.6319241236827
 20
5.761193798355872
 30
0.0
 10
429.7334855935011
 20
6.267099007651987
 30
0.0
 10
428.7766040819642
 20
6.484673317760627
 30
0.0
 10
426.8491605352373
 20
6.849043281956023
 30
0.0
 10
425.8770393578329
 20
6.996066355908146
 30
0.0
 10
423.9228454545938
 20
7.218173537684164
 30
0.0
 10
422.9451570557486
 20
7.292849237528498
 30
0.0
 10
420.0100287421564
 20
7.409173255181893
 30
0.0
 10
418.0506187721051
 20
7.343788533630052
 30
0.0
 10
416.0866219436579
 20
7.13162132231278
 30
0.0
  0
SPLINE
  5
11A
330
1F
100
AcDbEntity
  8
0
  6
Continuous
 62
   144
370
    18
100
AcDbSpline
210
0.0
220
0.0
230
1.0
 70
     8
 71
     3
 72
    10
 73
     6
 74
     0
 42
0.000000001
 43
0.00000001
 40
0.0
 40
0.0
 40
0.0
 40
0.0
 40
0.5
 40
0.5
 40
1.0
 40
1.0
 40
1.0
 40
1.0
 10
438.8875133600317
 20
2.825290521964467
 30
0.0
 10
438.9302629649046
 20
2.802983136304846
 30
0.0
 10
438.9969940404823
 20
2.826792187903534
 30
0.0
 10
439.1589937818244
 20
2.959712373844883
 30
0.0
 10
439.2540158924307
 20
3.068621210596127
 30
0.0
 10
439.3492298209646
 20
3.20412716288069
 30
0.0
  0
SPLINE
  5
11B
330
1F
100
AcDbEntity
  8
0
  6
Continuous
 62
   144
370
    18
100
AcDbSpline
210
0.0
220
0.0
230
1.0
 70
     8
 71
     3
 72
    10
 73
     6
 74
     0
 42
0.000000001
 43
0.00000001
 40
0.0
 40
0.0
 40
0.0
 40
0.0
 40
0.5
 40
0.5
 40
1.0
 40
1.0
 40
1.0
 40
1.0
 10
416.226453375626
 20
7.676518604506728
 30
0.0
 10
416.2244988067834
 20
7.517145828663408
 30
0.0
 10
416.210301417106
 20
7.380253153473664
 30
0.0
 10
416.1613719884023
 20
7.189523874187044
 30
0.0
 10
416.1267077807936
 20
7.135951680236
 30
0.0
 10
416.086667432008
 20
7.131626236314784
 30
0.0
  0
SPLINE
  5
11C
330
1F
100
AcDbEntity
  8
0
  6
Continuous
 62
   144
370
    18
100
AcDbSpline
210
0.0
220
0.0
230
1.0
 70
     8
 71
     3
 72
    17
 73
    13
 74
     0
 42
0.000000001
 43
0.00000001
 40
0.0
 40
0.0
 40
0.0
 40
0.0
 40
0.0008625500165079
 40
0.0008625500165079
 40
0.0008625500165079
 40
0.0017251388802088
 40
0.0017251388802088
 40
0.0017251388802088
 40
0.0025877612069986
 40
0.0025877612069986
 40
0.0025877612069986
 40
0.0030588334776232
 40
0.0030588334776232
 40
0.0030588334776232
 40
0.0030588334776232
 10
416.086621944856
 20
7.131621322442207
 30
0.0
 10
415.8084062947381
 20
7.101566162597396
 30
0.0
 10
415.5306499890571
 20
7.068606818743565
 30
0.0
 10
415.2534259641847
 20
7.032761529936623
 30
0.0
 10
414.9761892938953
 20
6.996914606067132
 30
0.0
 10
414.6994548911496
 20
6.958177605592295
 30
0.0
 10
414.4232927586787
 20
6.916568752829368
 30
0.0
 10
414.1471197728004
 20
6.87495826480302
 30
0.0
 10
413.8714896033272
 20
6.830471271035378
 30
0.0
 10
413.5964696404907
 20
6.78312579138499
 30
0.0
 10
413.446277494154
 20
6.757269780298788
 30
0.0
 10
413.2962605955427
 20
6.730560129584561
 30
0.0
 10
413.146429629871
 20
6.702999731243922
 30
0.0
  0
SPLINE
  5
11D
330
1F
100
AcDbEntity
  8
0
  6
Continuous
 62
   144
370
    18
100
AcDbSpline
210
0.0
220
0.0
230
1.0
 70
     8
 71
     3
 72
     8
 73
     4
 74
     0
 42
0.000000001
 43
0.00000001
 40
0.0
 40
0.0
 40
0.0
 40
0.0
 40
0.0001714533854443
 40
0.0001714533854443
 40
0.0001714533854443
 40
0.0001714533854443
 10
439.030211151621
 20
2.750462622832317
 30
0.0
 10
438.9822812216652
 20
2.775719340034774
 30
0.0
 10
438.9344585277351
 20
2.800795108262538
 30
0.0
 10
438.8867596399595
 20
2.825683814223851
 30
0.0
  0
SPLINE
  5
11E
330
1F
100
AcDbEntity
  8
0
  6
Continuous
 62
     7
370
    25
100
AcDbSpline
210
0.0
220
0.0
230
1.0
 70
     8
 71
     3
 72
    10
 73
     6
 74
     0
 42
0.000000001
 43
0.00000001
 40
0.0
 40
0.0
 40
0.0
 40
0.0
 40
0.5000000000000002
 40
0.5000000000000002
 40
1.0
 40
1.0
 40
1.0
 40
1.0
 10
441.6852640322113
 20
3.495282356291547
 30
0.0
 10
441.4610762299051
 20
3.687376197270443
 30
0.0
 10
441.2294750576163
 20
3.866537725880637
 30
0.0
 10
440.7522425485257
 20
4.198655017378085
 30
0.0
 10
440.5050117581611
 20
4.352509325412314
 30
0.0
 10
440.2537912176014
 20
4.490470155894406
 30
0.0
  0
SPLINE
  5
120
330
1F
100
AcDbEntity
  8
0
  6
Continuous
 62
     7
370
    25
100
AcDbSpline
210
0.0
220
0.0
230
1.0
 70
     8
 71
     3
 72
    30
 73
    26
 74
     0
 42
0.000000001
 43
0.00000001
 40
0.0
 40
0.0
 40
0.0
 40
0.0
 40
0.0625
 40
0.0625
 40
0.1250000000000001
 40
0.1250000000000001
 40
0.1875000000000001
 40
0.1875000000000001
 40
0.2500000000000001
 40
0.2500000000000001
 40
0.3750000000000003
 40
0.3750000000000003
 40
0.5000000000000004
 40
0.5000000000000004
 40
0.6250000000000006
 40
0.6250000000000006
 40
0.6875000000000014
 40
0.6875000000000014
 40
0.7500000000000023
 40
0.7500000000000023
 40
0.8125000000000032
 40
0.8125000000000032
 40
0.8750000000000042
 40
0.8750000000000042
 40
1.0
 40
1.0
 40
1.0
 40
1.0
 10
441.2023213844061
 20
-9.77844042492056
 30
0.0
 10
441.4736687441263
 20
-9.593046328838705
 30
0.0
 10
441.7268553754029
 20
-9.392466838038404
 30
0.0
 10
442.2014083863356
 20
-8.962106038765214
 30
0.0
 10
442.4207948503822
 20
-8.733712740098607
 30
0.0
 10
442.8208634006864
 20
-8.259811799935521
 30
0.0
 10
443.0029279531614
 20
-8.012996261770489
 30
0.0
 10
443.3348528994635
 20
-7.499264739259679
 30
0.0
 10
443.4859389231045
 20
-7.231595615784501
 30
0.0
 10
443.894125681316
 20
-6.406588450730793
 30
0.0
 10
444.1009142370143
 20
-5.834620518980258
 30
0.0
 10
444.3923985686113
 20
-4.642793647370196
 30
0.0
 10
444.4758978860146
 20
-4.018364124254603
 30
0.0
 10
444.5240911511465
 20
-2.769690288623866
 30
0.0
 10
444.4892378353547
 20
-2.139864369013891
 30
0.0
 10
444.3347564198187
 20
-1.190088495845114
 30
0.0
 10
444.266133958278
 20
-0.8737543598228157
 30
0.0
 10
444.0969223062448
 20
-0.2548032504844585
 30
0.0
 10
443.9960880840909
 20
0.0495930497368309
 30
0.0
 10
443.7617266178275
 20
0.647535695455959
 30
0.0
 10
443.6282096897782
 20
0.9410869412777886
 30
0.0
 10
443.3273501384978
 20
1.516282628191554
 30
0.0
 10
443.1578369727145
 20
1.796480044752833
 30
0.0
 10
442.6061447239331
 20
2.592479978422666
 30
0.0
 10
442.1781466108419
 20
3.072959166953171
 30
0.0
 10
441.6852640322113
 20
3.49528235629155
 30
0.0
  0
SPLINE
  5
121
330
1F
100
AcDbEntity
  8
0
  6
Continuous
 62
     7
370
    25
100
AcDbSpline
210
0.0
220
0.0
230
1.0
 70
     8
 71
     3
 72
    10
 73
     6
 74
     0
 42
0.000000001
 43
0.00000001
 40
0.0
 40
0.0
 40
0.0
 40
0.0
 40
0.5
 40
0.5
 40
1.0
 40
1.0
 40
1.0
 40
1.0
 10
440.0344131215808
 20
-10.47347686096009
 30
0.0
 10
440.2345862722457
 20
-10.36966188575399
 30
0.0
 10
440.4350653119347
 20
-10.25852819295366
 30
0.0
 10
440.8245607399255
 20
-10.02725746897609
 30
0.0
 10
441.015540287624
 20
-9.906055864550389
 30
0.0
 10
441.202321384406
 20
-9.778440424920557
 30
0.0
  0
SPLINE
  5
123
330
1F
100
AcDbEntity
  8
0
  6
Continuous
 62
     7
370
    25
100
AcDbSpline
210
0.0
220
0.0
230
1.0
 70
     8
 71
     3
 72
    38
 73
    34
 74
     0
 42
0.000000001
 43
0.00000001
 40
0.0
 40
0.0
 40
0.0
 40
0.0
 40
0.0625000000000005
 40
0.0625000000000005
 40
0.125000000000001
 40
0.125000000000001
 40
0.1875000000000015
 40
0.1875000000000015
 40
0.2500000000000021
 40
0.2500000000000021
 40
0.3125000000000026
 40
0.3125000000000026
 40
0.3750000000000032
 40
0.3750000000000032
 40
0.4375000000000036
 40
0.4375000000000036
 40
0.5000000000000041
 40
0.5000000000000041
 40
0.6250000000000052
 40
0.6250000000000052
 40
0.6875000000000057
 40
0.6875000000000057
 40
0.7500000000000062
 40
0.7500000000000062
 40
0.8125000000000067
 40
0.8125000000000067
 40
0.8750000000000071
 40
0.8750000000000071
 40
0.9062500000000074
 40
0.9062500000000074
 40
0.9375000000000079
 40
0.9375000000000079
 40
1.0
 40
1.0
 40
1.0
 40
1.0
 10
439.5291661824556
 20
3.102802790230798
 30
0.0
 10
439.7988485983604
 20
2.948770329469748
 30
0.0
 10
440.0605122241594
 20
2.774324619666797
 30
0.0
 10
440.5555575891387
 20
2.392372546958995
 30
0.0
 10
440.7903234495353
 20
2.184170732960657
 30
0.0
 10
441.2326096190104
 20
1.734036827710894
 30
0.0
 10
441.4412503609017
 20
1.490573600799168
 30
0.0
 10
441.8234380339876
 20
0.9764966251256803
 30
0.0
 10
441.9955435200791
 20
0.7082099843740077
 30
0.0
 10
442.3022026044368
 20
0.1518825663161832
 30
0.0
 10
442.436743128115
 20
-0.1359867847061735
 30
0.0
 10
442.6678727065065
 20
-0.7301949249403628
 30
0.0
 10
442.7639802691892
 20
-1.036367894819991
 30
0.0
 10
442.9134668565416
 20
-1.648461879420584
 30
0.0
 10
442.9677638760375
 20
-1.95654158801298
 30
0.0
 10
443.036981567963
 20
-2.575505478589748
 30
0.0
 10
443.0518619269564
 20
-2.887616443311518
 30
0.0
 10
443.0377609880703
 20
-3.818514766012345
 30
0.0
 10
442.9522823524446
 20
-4.416955057287471
 30
0.0
 10
442.7174515147638
 20
-5.29117982967714
 30
0.0
 10
442.6206132459619
 20
-5.579251616421255
 30
0.0
 10
442.3944841633569
 20
-6.135733264480182
 30
0.0
 10
442.2648691080418
 20
-6.405775065769284
 30
0.0
 10
441.9715345449449
 20
-6.930483159014648
 30
0.0
 10
441.8074684750535
 20
-7.185741783568818
 30
0.0
 10
441.4381742097127
 20
-7.683888073986603
 30
0.0
 10
441.2357165604327
 20
-7.922773398693362
 30
0.0
 10
440.9047065976759
 20
-8.262294641835254
 30
0.0
 10
440.7896491855503
 20
-8.372505887616075
 30
0.0
 10
440.5491088902025
 20
-8.586766117123632
 30
0.0
 10
440.4228884128203
 20
-8.691340281687847
 30
0.0
 10
440.0344069312554
 20
-8.989337638625049
 30
0.0
 10
439.761498535913
 20
-9.168227660700598
 30
0.0
 10
439.4738476806688
 20
-9.326352201793203
 30
0.0
  0
SPLINE
  5
124
330
1F
100
AcDbEntity
  8
0
  6
Continuous
 62
   144
370
    18
100
AcDbSpline
210
0.0
220
0.0
230
1.0
 70
     8
 71
     3
 72
    11
 73
     7
 74
     0
 42
0.000000001
 43
0.00000001
 40
-0.00000006
 40
-0.00000006
 40
-0.00000006
 40
-0.00000006
 40
0.0
 40
0.0
 40
0.0
 40
0.0002194516916482
 40
0.0002194516916482
 40
0.0002194516916482
 40
0.0002194516916482
 10
439.3498476227055
 20
3.205005715672619
 30
0.0
 10
439.3498638815219
 20
3.204996468302398
 30
0.0
 10
439.3498801403107
 20
3.204987220940476
 30
0.0
 10
439.3498963991466
 20
3.204977973547718
 30
0.0
 10
439.4093635498429
 20
3.171155373799001
 30
0.0
 10
439.4691336755873
 20
3.137091102012483
 30
0.0
 10
439.5291661824556
 20
3.102802790230825
 30
0.0
  0
SPLINE
  5
125
330
1F
100
AcDbEntity
  8
0
  6
Continuous
 62
   144
370
    18
100
AcDbSpline
210
0.0
220
0.0
230
1.0
 70
     8
 71
     3
 72
    11
 73
     7
 74
     0
 42
0.000000001
 43
0.00000001
 40
0.0
 40
0.0
 40
0.0
 40
0.0
 40
0.0000783578182424
 40
0.0000783578182424
 40
0.0000783578182424
 40
0.0000784178182424
 40
0.0000784178182424
 40
0.0000784178182424
 40
0.0000784178182424
 10
439.4738476806688
 20
-9.326352201793217
 30
0.0
 10
439.4510862341615
 20
-9.338864395718414
 30
0.0
 10
439.4283759392409
 20
-9.351410013728268
 30
0.0
 10
439.4057255995056
 20
-9.363984400977674
 30
0.0
 10
439.4057082557304
 20
-9.363994029413636
 30
0.0
 10
439.4056909120086
 20
-9.364003657856752
 30
0.0
 10
439.405673568283
 20
-9.364013286337514
 30
0.0
  0
SPLINE
  5
126
330
1F
100
AcDbEntity
  8
0
  6
Continuous
 62
     7
370
    25
100
AcDbSpline
210
0.0
220
0.0
230
1.0
 70
     8
 71
     3
 72
    32
 73
    28
 74
     0
 42
0.000000001
 43
0.00000001
 40
0.0
 40
0.0
 40
0.0
 40
0.0
 40
0.1250000000000007
 40
0.1250000000000007
 40
0.1875000000000011
 40
0.1875000000000011
 40
0.2500000000000014
 40
0.2500000000000014
 40
0.3125000000000018
 40
0.3125000000000018
 40
0.3750000000000022
 40
0.3750000000000022
 40
0.5000000000000016
 40
0.5000000000000016
 40
0.5625000000000013
 40
0.5625000000000013
 40
0.6250000000000011
 40
0.6250000000000011
 40
0.687500000000001
 40
0.687500000000001
 40
0.7500000000000008
 40
0.7500000000000008
 40
0.8750000000000003
 40
0.8750000000000003
 40
0.9375000000000002
 40
0.9375000000000002
 40
1.0
 40
1.0
 40
1.0
 40
1.0
 10
444.1030648547164
 20
6.827838058010824
 30
0.0
 10
444.8682525233964
 20
6.199420826730975
 30
0.0
 10
445.5308251182842
 20
5.479097356421559
 30
0.0
 10
446.3860808613962
 20
4.280175457403945
 30
0.0
 10
446.6490126719298
 20
3.857520436631484
 30
0.0
 10
447.1198611841357
 20
2.987923257660682
 30
0.0
 10
447.3291241443557
 20
2.543343321084882
 30
0.0
 10
447.6988473250535
 20
1.636784380134755
 30
0.0
 10
447.8592952236112
 20
1.174799274079004
 30
0.0
 10
448.1333594353141
 20
0.2349286248022109
 30
0.0
 10
448.2473662907358
 20
-0.2456049507932817
 30
0.0
 10
448.5161525137777
 20
-1.68478963314966
 30
0.0
 10
448.6000580078747
 20
-2.642073538257128
 30
0.0
 10
448.6022794958104
 20
-4.069085993191269
 30
0.0
 10
448.5814429672014
 20
-4.54587374410151
 30
0.0
 10
448.4944972718152
 20
-5.483602483108779
 30
0.0
 10
448.4287457412494
 20
-5.943994803041803
 30
0.0
 10
448.2517361275792
 20
-6.848922496351025
 30
0.0
 10
448.1404918893851
 20
-7.293455098299905
 30
0.0
 10
447.8702128532132
 20
-8.167642306917893
 30
0.0
 10
447.7101022118795
 20
-8.599587197944476
 30
0.0
 10
447.161126120188
 20
-9.854740896497596
 30
0.0
 10
446.7047660378194
 20
-10.63640019731877
 30
0.0
 10
445.8505444417907
 20
-11.73610658932611
 30
0.0
 10
445.5352755527398
 20
-12.09248600738617
 30
0.0
 10
444.8571814380034
 20
-12.76452578712518
 30
0.0
 10
444.493549670164
 20
-13.08189002217581
 30
0.0
 10
444.1030648547165
 20
-13.38071832196645
 30
0.0
  0
SPLINE
  5
128
330
1F
100
AcDbEntity
  8
0
  6
Continuous
 62
     7
370
    25
100
AcDbSpline
210
0.0
220
0.0
230
1.0
 70
     8
 71
     3
 72
    36
 73
    32
 74
     0
 42
0.000000001
 43
0.00000001
 40
0.0
 40
0.0
 40
0.0
 40
0.0
 40
0.0625000000000002
 40
0.0625000000000002
 40
0.1250000000000004
 40
0.1250000000000004
 40
0.1875000000000004
 40
0.1875000000000004
 40
0.2500000000000003
 40
0.2500000000000003
 40
0.3125000000000003
 40
0.3125000000000003
 40
0.3750000000000003
 40
0.3750000000000003
 40
0.5000000000000002
 40
0.5000000000000002
 40
0.5625000000000002
 40
0.5625000000000002
 40
0.6250000000000002
 40
0.6250000000000002
 40
0.6875000000000002
 40
0.6875000000000002
 40
0.7500000000000001
 40
0.7500000000000001
 40
0.8125000000000001
 40
0.8125000000000001
 40
0.8750000000000001
 40
0.8750000000000001
 40
0.9375000000000001
 40
0.9375000000000001
 40
1.0
 40
1.0
 40
1.0
 40
1.0
 10
439.0515651581083
 20
-8.73915935358308
 30
0.0
 10
439.3259896248062
 20
-8.59324527636108
 30
0.0
 10
439.5874852923794
 20
-8.42909383579022
 30
0.0
 10
440.0853919365853
 20
-8.065045244155135
 30
0.0
 10
440.321609862798
 20
-7.864475698962266
 30
0.0
 10
440.7500252848774
 20
-7.447099664394005
 30
0.0
 10
440.9455365741402
 20
-7.228050688537583
 30
0.0
 10
441.3036941298176
 20
-6.769028151704203
 30
0.0
 10
441.4646301476007
 20
-6.530840648478977
 30
0.0
 10
441.7490504189833
 20
-6.045888641267673
 30
0.0
 10
441.8738870844664
 20
-5.797324461895833
 30
0.0
 10
442.0916443920492
 20
-5.284609863192798
 30
0.0
 10
442.1846714414013
 20
-5.019650086106516
 30
0.0
 10
442.4117305997593
 20
-4.206772534357063
 30
0.0
 10
442.4931302190423
 20
-3.650673967789924
 30
0.0
 10
442.5028253345873
 20
-2.783685804211813
 30
0.0
 10
442.4865455033799
 20
-2.489745608016944
 30
0.0
 10
442.4144545633872
 20
-1.908943280026193
 30
0.0
 10
442.358735673158
 20
-1.619961405710595
 30
0.0
 10
442.2065731198981
 20
-1.046419699582696
 30
0.0
 10
442.1091652624575
 20
-0.7597426018268506
 30
0.0
 10
441.8759072684729
 20
-0.2045810356236859
 30
0.0
 10
441.7406659377869
 20
0.0634752394425085
 30
0.0
 10
441.4338487925503
 20
0.5795828320692336
 30
0.0
 10
441.2623828908195
 20
0.8274033021458482
 30
0.0
 10
440.8837641255673
 20
1.300062521951068
 30
0.0
 10
440.678792293384
 20
1.521871635515195
 30
0.0
 10
440.2463893524624
 20
1.930172195775739
 30
0.0
 10
440.0180551480673
 20
2.117786638342877
 30
0.0
 10
439.5394275136777
 20
2.459758247755266
 30
0.0
 10
439.2878231312727
 20
2.614713771873433
 30
0.0
 10
439.030211151621
 20
2.750462622832333
 30
0.0
  0
LWPOLYLINE
  5
129
330
1F
100
AcDbEntity
  8
0
  6
Continuous
 62
   144
370
    18
100
AcDbPolyline
 90
        9
 70
   128
 43
0.0
 10
439.5291661825
 20
3.1028027902
 10
439.454930763
 20
3.0091415898
 10
439.381474763
 20
2.9272469933
 10
439.3101788807
 20
2.8586583133
 10
439.2423832125
 20
2.8046647606
 10
439.1793620635
 20
2.7662812123
 10
439.122299996
 20
2.7442291358
 10
439.0722695637
 20
2.7389230276
 10
439.0302111516
 20
2.7504626228
  0
SPLINE
  5
12B
330
1F
100
AcDbEntity
  8
0
  6
Continuous
 62
     7
370
    25
100
AcDbSpline
210
0.0
220
0.0
230
1.0
 70
     8
 71
     3
 72
    34
 73
    30
 74
     0
 42
0.000000001
 43
0.00000001
 40
0.0
 40
0.0
 40
0.0
 40
0.0
 40
0.0156250000000006
 40
0.0156250000000006
 40
0.0312500000000012
 40
0.0312500000000012
 40
0.0625000000000002
 40
0.0625000000000002
 40
0.1249999999999954
 40
0.1249999999999954
 40
0.2499999999999895
 40
0.2499999999999895
 40
0.312499999999989
 40
0.312499999999989
 40
0.3749999999999884
 40
0.3749999999999884
 40
0.4999999999999817
 40
0.4999999999999817
 40
0.5624999999999812
 40
0.5624999999999812
 40
0.6249999999999806
 40
0.6249999999999806
 40
0.7499999999999851
 40
0.7499999999999851
 40
0.8749999999999896
 40
0.8749999999999896
 40
0.9374999999999948
 40
0.9374999999999948
 40
1.0
 40
1.0
 40
1.0
 40
1.0
 10
420.6110242996984
 20
-20.58984170853178
 30
0.0
 10
420.645524262719
 20
-20.57149350766521
 30
0.0
 10
420.6838138336085
 20
-20.55110645730266
 30
0.0
 10
420.7650610359806
 20
-20.50785555666229
 30
0.0
 10
420.8084679739792
 20
-20.4847528896047
 30
0.0
 10
420.9467465744596
 20
-20.41124045440129
 30
0.0
 10
421.0496683067285
 20
-20.35663446643644
 30
0.0
 10
421.3886167900306
 20
-20.17754576149412
 30
0.0
 10
421.6576392612846
 20
-20.03640427077129
 30
0.0
 10
422.5413595750766
 20
-19.57631414926266
 30
0.0
 10
423.2331175626247
 20
-19.22020865026468
 30
0.0
 10
424.3769408320932
 20
-18.63188368842844
 30
0.0
 10
424.7730320906779
 20
-18.42849424775792
 30
0.0
 10
425.5797148030342
 20
-18.01331428108919
 30
0.0
 10
425.9921328146485
 20
-17.80093919593364
 30
0.0
 10
427.2528879564576
 20
-17.15147103202479
 30
0.0
 10
428.1245446985681
 20
-16.70219033965559
 30
0.0
 10
429.4680605123066
 20
-16.00719986595377
 30
0.0
 10
429.9197906298041
 20
-15.77301852351154
 30
0.0
 10
430.8241723232586
 20
-15.30350449125168
 30
0.0
 10
431.2778352248457
 20
-15.06764973334398
 30
0.0
 10
432.6428621307364
 20
-14.35716651811972
 30
0.0
 10
433.5582633410294
 20
-13.87966852060753
 30
0.0
 10
435.3977192217722
 20
-12.91725990647977
 30
0.0
 10
436.3217666848738
 20
-12.43227386649848
 30
0.0
 10
437.7140425251564
 20
-11.70005508471067
 30
0.0
 10
438.1795222384341
 20
-11.45498407826091
 30
0.0
 10
439.1084369147911
 20
-10.9652932698283
 30
0.0
 10
439.5712700128562
 20
-10.72099241393032
 30
0.0
 10
440.0355614504558
 20
-10.47550318338851
 30
0.0
  0
SPLINE
  5
12C
330
1F
100
AcDbEntity
  8
0
  6
Continuous
 62
     7
370
    25
100
AcDbSpline
210
0.0
220
0.0
230
1.0
 70
     8
 71
     3
 72
    32
 73
    28
 74
     0
 42
0.000000001
 43
0.00000001
 40
0.0
 40
0.0
 40
0.0
 40
0.0
 40
0.1249999999999998
 40
0.1249999999999998
 40
0.2499999999999996
 40
0.2499999999999996
 40
0.4999999999999991
 40
0.4999999999999991
 40
0.5624999999999989
 40
0.5624999999999989
 40
0.6249999999999987
 40
0.6249999999999987
 40
0.7499999999999982
 40
0.7499999999999982
 40
0.8124999999999981
 40
0.8124999999999981
 40
0.874999999999998
 40
0.874999999999998
 40
0.906249999999998
 40
0.906249999999998
 40
0.9374999999999979
 40
0.9374999999999979
 40
0.9687499999999979
 40
0.9687499999999979
 40
0.9843749999999989
 40
0.9843749999999989
 40
1.0
 40
1.0
 40
1.0
 40
1.0
 10
439.4056135409463
 20
-9.363907363076937
 30
0.0
 10
438.4947426666141
 20
-9.85377968079535
 30
0.0
 10
437.5804070737726
 20
-10.3456524051831
 30
0.0
 10
435.7512731965664
 20
-11.33008993892725
 30
0.0
 10
434.8355028203815
 20
-11.82318108696649
 30
0.0
 10
432.1146589770285
 20
-13.28903980664332
 30
0.0
 10
430.3257109540642
 20
-14.25395190099012
 30
0.0
 10
428.1339222458337
 20
-15.43850642702642
 30
0.0
 10
427.6962910656842
 20
-15.6751383855263
 30
0.0
 10
426.8366769795537
 20
-16.14022284470792
 30
0.0
 10
426.4142642938374
 20
-16.36890697683859
 30
0.0
 10
425.1720257952844
 20
-17.04191098841581
 30
0.0
 10
424.3767377469387
 20
-17.47345213133117
 30
0.0
 10
423.2503659100962
 20
-18.08568332744446
 30
0.0
 10
422.8892425804706
 20
-18.28216064039525
 30
0.0
 10
422.213742002039
 20
-18.65006066755138
 30
0.0
 10
421.8973866714599
 20
-18.82256006783025
 30
0.0
 10
421.4620023885787
 20
-19.06023193112848
 30
0.0
 10
421.3234362862747
 20
-19.13592220288326
 30
0.0
 10
421.0612039172187
 20
-19.27924810564211
 30
0.0
 10
420.9374500264055
 20
-19.34693223826249
 30
0.0
 10
420.7115963916175
 20
-19.47052289093073
 30
0.0
 10
420.6088151770108
 20
-19.52680167473336
 30
0.0
 10
420.4708698604626
 20
-19.60236297277721
 30
0.0
 10
420.4275947180674
 20
-19.62607265584635
 30
0.0
 10
420.3466543237903
 20
-19.670423879198
 30
0.0
 10
420.308445777446
 20
-19.69136316549572
 30
0.0
 10
420.2742378031301
 20
-19.71011019188205
 30
0.0
  0
SPLINE
  5
12E
330
1F
100
AcDbEntity
  8
0
  6
Continuous
 62
     7
370
    25
100
AcDbSpline
210
0.0
220
0.0
230
1.0
 70
     8
 71
     3
 72
    30
 73
    26
 74
     0
 42
0.000000001
 43
0.00000001
 40
0.0
 40
0.0
 40
0.0
 40
0.0
 40
0.2500000000000008
 40
0.2500000000000008
 40
0.3750000000000014
 40
0.3750000000000014
 40
0.5000000000000019
 40
0.5000000000000019
 40
0.5625000000000052
 40
0.5625000000000052
 40
0.6250000000000085
 40
0.6250000000000085
 40
0.750000000000009
 40
0.750000000000009
 40
0.8125000000000064
 40
0.8125000000000064
 40
0.875000000000004
 40
0.875000000000004
 40
0.9375000000000016
 40
0.9375000000000016
 40
0.9687500000000018
 40
0.9687500000000018
 40
0.984375000000001
 40
0.984375000000001
 40
1.0
 40
1.0
 40
1.0
 40
1.0
 10
441.9303316664735
 20
-14.76555867910993
 30
0.0
 10
440.2905721319453
 20
-15.62206879158086
 30
0.0
 10
438.6655670092616
 20
-16.4673546275873
 30
0.0
 10
436.2530592945615
 20
-17.71304180568288
 30
0.0
 10
435.4528529509098
 20
-18.12428474191809
 30
0.0
 10
433.8618587875737
 20
-18.93744724143244
 30
0.0
 10
433.0710942471827
 20
-19.33943549591732
 30
0.0
 10
431.8932673178264
 20
-19.93296181020004
 30
0.0
 10
431.5016560377936
 20
-20.1293461702168
 30
0.0
 10
430.734236420788
 20
-20.51200798285883
 30
0.0
 10
430.3569627762622
 20
-20.69906626756153
 30
0.0
 10
429.2472378647539
 20
-21.24595908449411
 30
0.0
 10
428.5364210269302
 20
-21.59197286817668
 30
0.0
 10
427.5311417315311
 20
-22.07150697902335
 30
0.0
 10
427.2063727031241
 20
-22.22446771013036
 30
0.0
 10
426.6025195439334
 20
-22.50533408246283
 30
0.0
 10
426.3207647532544
 20
-22.63439243547759
 30
0.0
 10
425.8124231972884
 20
-22.86353839362982
 30
0.0
 10
425.5840555709644
 20
-22.96434461042348
 30
0.0
 10
425.3225878585591
 20
-23.07775776204553
 30
0.0
 10
425.2483645029538
 20
-23.10955372825491
 30
0.0
 10
425.1596541002679
 20
-23.14698695373597
 30
0.0
 10
425.132573270672
 20
-23.1580454279982
 30
0.0
 10
425.0756213058954
 20
-23.17914188954569
 30
0.0
 10
425.0468827463014
 20
-23.18891544435298
 30
0.0
 10
425.0178796541163
 20
-23.19791611669017
 30
0.0
  0
SPLINE
  5
12F
330
1F
100
AcDbEntity
  8
0
  6
Continuous
 62
     7
370
    25
100
AcDbSpline
210
0.0
220
0.0
230
1.0
 70
     8
 71
     3
 72
    34
 73
    30
 74
     0
 42
0.000000001
 43
0.00000001
 40
0.0
 40
0.0
 40
0.0
 40
0.0
 40
0.0329422683928335
 40
0.0659217461079388
 40
0.0989407036508499
 40
0.1320014615912437
 40
0.1651063840962492
 40
0.1982578709157459
 40
0.2314583476241177
 40
0.2647102538651891
 40
0.2980160292688933
 40
0.3313780965951418
 40
0.3647987704217859
 40
0.398279603758715
 40
0.4318224360887429
 40
0.465429109596145
 40
0.499101247821698
 40
0.5647199498367447
 40
0.6316767776127467
 40
0.6997297078604995
 40
0.7655521485206034
 40
0.82615490683871
 40
0.8742727642201089
 40
0.8899835156659975
 40
0.9077921881035608
 40
0.9276985001860325
 40
0.9497021395765202
 40
0.9738027636108311
 40
0.9999999999999999
 40
0.9999999999999999
 40
0.9999999999999999
 40
0.9999999999999999
 10
425.0178796541163
 20
-23.19791611669014
 30
0.0
 10
424.956900847538
 20
-23.2119180112187
 30
0.0
 10
424.8348743569123
 20
-23.23993761585353
 30
0.0
 10
424.6498370433867
 20
-23.27013492812206
 30
0.0
 10
424.4637828663884
 20
-23.29156688634924
 30
0.0
 10
424.2769969330211
 20
-23.30330462422097
 30
0.0
 10
424.0899820079657
 20
-23.30551169053553
 30
0.0
 10
423.9031854304999
 20
-23.29808477491417
 30
0.0
 10
423.7170711016576
 20
-23.2810189294462
 30
0.0
 10
423.5320987753885
 20
-23.25430980851367
 30
0.0
 10
423.3487283497951
 20
-23.21798017074461
 30
0.0
 10
423.1674170391585
 20
-23.17207306891149
 30
0.0
 10
422.9886214803656
 20
-23.11665418789104
 30
0.0
 10
422.8127850972483
 20
-23.05181271787042
 30
0.0
 10
422.6403383727543
 20
-22.97766094764573
 30
0.0
 10
422.4717682689911
 20
-22.89432690353546
 30
0.0
 10
422.255411329346
 20
-22.77284486372164
 30
0.0
 10
421.9982347424046
 20
-22.5997857209781
 30
0.0
 10
421.7118379039665
 20
-22.35925542026268
 30
0.0
 10
421.454105127982
 20
-22.08883867179184
 30
0.0
 10
421.2340565185274
 20
-21.80112589466174
 30
0.0
 10
421.0667505744606
 20
-21.5245883854684
 30
0.0
 10
420.9501732056558
 20
-21.31372736238247
 30
0.0
 10
420.8703286107815
 20
-21.17415114208058
 30
0.0
 10
420.8209988663977
 20
-21.08136651475733
 30
0.0
 10
420.7682735896418
 20
-20.97626185838395
 30
0.0
 10
420.7135109558448
 20
-20.85833830864145
 30
0.0
 10
420.6572871016111
 20
-20.72740575919956
 30
0.0
 10
420.6222550354561
 20
-20.6346657941249
 30
0.0
 10
420.6040088653299
 20
-20.58636292860878
 30
0.0
  0
SPLINE
  5
130
330
1F
100
AcDbEntity
  8
0
  6
Continuous
 62
     7
370
    25
100
AcDbSpline
210
0.0
220
0.0
230
1.0
 70
     8
 71
     3
 72
    14
 73
    10
 74
     0
 42
0.000000001
 43
0.00000001
 40
0.0
 40
0.0
 40
0.0
 40
0.0
 40
0.25
 40
0.25
 40
0.5
 40
0.5
 40
0.75
 40
0.75
 40
1.0
 40
1.0
 40
1.0
 40
1.0
 10
441.9303476866715
 20
-14.76555031113789
 30
0.0
 10
441.8676967142456
 20
-14.55959848457956
 30
0.0
 10
441.7710108481901
 20
-14.29135177176985
 30
0.0
 10
441.5214952439935
 20
-13.66131913567467
 30
0.0
 10
441.368726087079
 20
-13.29968009503772
 30
0.0
 10
441.0256027728371
 20
-12.52511267774469
 30
0.0
 10
440.8353308272891
 20
-12.1123649029386
 30
0.0
 10
440.4401574740332
 20
-11.28385248651506
 30
0.0
 10
440.2353502817973
 20
-10.86828085985739
 30
0.0
 10
440.0355614504556
 20
-10.47550318338848
 30
0.0
  0
SPLINE
  5
131
330
1F
100
AcDbEntity
  8
0
  6
Continuous
 62
     7
370
    25
100
AcDbSpline
210
0.0
220
0.0
230
1.0
 70
    24
 71
     3
 72
    32
 73
    28
 74
     0
 42
0.000000001
 43
0.00000001
 40
0.0
 40
0.0
 40
0.0
 40
0.0
 40
0.015624999999999
 40
0.015624999999999
 40
0.031249999999998
 40
0.031249999999998
 40
0.0624999999999959
 40
0.0624999999999959
 40
0.0937499999999939
 40
0.0937499999999939
 40
0.1249999999999918
 40
0.1249999999999918
 40
0.1874999999999876
 40
0.1874999999999876
 40
0.2499999999999834
 40
0.2499999999999834
 40
0.3749999999999802
 40
0.3749999999999802
 40
0.4374999999999787
 40
0.4374999999999787
 40
0.4999999999999771
 40
0.4999999999999771
 40
0.7499999999999886
 40
0.7499999999999886
 40
0.8749999999999943
 40
0.8749999999999943
 40
1.0
 40
1.0
 40
1.0
 40
1.0
 10
420.6770354652779
 20
-18.50907009360481
 30
0.0
 10
420.7101983541907
 20
-18.49143707278881
 30
0.0
 10
420.7440719009195
 20
-18.47342618850905
 30
0.0
 10
420.8196338930119
 20
-18.43324916463834
 30
0.0
 10
420.8603815217593
 20
-18.41158326611582
 30
0.0
 10
420.9911473035215
 20
-18.34205386661428
 30
0.0
 10
421.0896774601866
 20
-18.28966445301237
 30
0.0
 10
421.3076980405144
 20
-18.17374085415569
 30
0.0
 10
421.4278006115647
 20
-18.10988118436152
 30
0.0
 10
421.6821371458154
 20
-17.97464805028431
 30
0.0
 10
421.8167544305655
 20
-17.9030707703179
 30
0.0
 10
422.2399390849031
 20
-17.67805949827225
 30
0.0
 10
422.5476629118853
 20
-17.5144398371188
 30
0.0
 10
423.2041541022372
 20
-17.16537727940611
 30
0.0
 10
423.5554859345777
 20
-16.97857083050781
 30
0.0
 10
424.6409844671988
 20
-16.40140102265852
 30
0.0
 10
425.4061620705386
 20
-15.99454887406662
 30
0.0
 10
426.5995295776165
 20
-15.3600241151149
 30
0.0
 10
427.0050281984095
 20
-15.14441667391352
 30
0.0
 10
427.829661414518
 20
-14.70595141524726
 30
0.0
 10
428.2474461451922
 20
-14.48381133354372
 30
0.0
 10
430.340303315794
 20
-13.37101943681436
 30
0.0
 10
432.0469092281783
 20
-12.46360097707042
 30
0.0
 10
434.6409792810993
 20
-11.08430946354172
 30
0.0
 10
435.5137704131851
 20
-10.6202381867413
 30
0.0
 10
437.2560490268945
 20
-9.693852215249969
 30
0.0
 10
438.1258981482213
 20
-9.231345233317896
 30
0.0
 10
438.9946041072731
 20
-8.7694460815495
 30
0.0
  0
SPLINE
  5
132
330
1F
100
AcDbEntity
  8
0
  6
Continuous
 62
   144
370
    18
100
AcDbSpline
210
0.0
220
0.0
230
1.0
 70
     8
 71
     3
 72
    10
 73
     6
 74
     0
 42
0.000000001
 43
0.00000001
 40
0.0
 40
0.0
 40
0.0
 40
0.0
 40
0.5
 40
0.5
 40
1.0
 40
1.0
 40
1.0
 40
1.0
 10
439.4056135409463
 20
-9.363907363076915
 30
0.0
 10
439.3045122374938
 20
-9.18500713147342
 30
0.0
 10
439.207845553703
 20
-9.02709948562092
 30
0.0
 10
439.0609459560101
 20
-8.814632043402105
 30
0.0
 10
439.0111218084556
 20
-8.760663464041418
 30
0.0
 10
438.9946041072731
 20
-8.769446081549498
 30
0.0
  0
SPLINE
  5
133
330
1F
100
AcDbEntity
  8
0
  6
Continuous
 62
   144
370
    18
100
AcDbSpline
210
0.0
220
0.0
230
1.0
 70
     8
 71
     3
 72
    10
 73
     6
 74
     0
 42
0.000000001
 43
0.00000001
 40
0.0
 40
0.0
 40
0.0
 40
0.0
 40
0.5
 40
0.5
 40
1.0
 40
1.0
 40
1.0
 40
1.0
 10
420.6686926332869
 20
-18.51356192654846
 30
0.0
 10
420.4726169657609
 20
-18.62050245263594
 30
0.0
 10
420.3199167027516
 20
-18.8050828270789
 30
0.0
 10
420.175718248592
 20
-19.24060335494991
 30
0.0
 10
420.1848632801278
 20
-19.48966278246171
 30
0.0
 10
420.2739412118308
 20
-19.7102727061331
 30
0.0
  0
SPLINE
  5
134
330
1F
100
AcDbEntity
  8
0
  6
Continuous
 62
     7
370
    25
100
AcDbSpline
210
0.0
220
0.0
230
1.0
 70
     8
 71
     3
 72
     8
 73
     4
 74
     0
 42
0.000000001
 43
0.00000001
 40
0.0
 40
0.0
 40
0.0
 40
0.0
 40
1.0
 40
1.0
 40
1.0
 40
1.0
 10
444.1030648547165
 20
-13.38071832196644
 30
0.0
 10
443.4325828838534
 20
-13.91002794103069
 30
0.0
 10
442.7088498172191
 20
-14.37072728714247
 30
0.0
 10
441.9301184086637
 20
-14.76505693425763
 30
0.0
  0
SPLINE
  5
135
330
1F
100
AcDbEntity
  8
0
  6
Continuous
 62
   144
370
    18
100
AcDbSpline
210
0.0
220
0.0
230
1.0
 70
    24
 71
     3
 72
     8
 73
     4
 74
     0
 42
0.000000001
 43
0.00000001
 40
0.0
 40
0.0
 40
0.0
 40
0.0
 40
0.0000649473399339
 40
0.0000649473399339
 40
0.0000649473399339
 40
0.0000649473399339
 10
438.9945566853163
 20
-8.769471296251176
 30
0.0
 10
439.0135447799257
 20
-8.759375147258089
 30
0.0
 10
439.032548521406
 20
-8.749270678676158
 30
0.0
 10
439.0515651581083
 20
-8.739159353583084
 30
0.0
  0
SPLINE
  5
136
330
1F
100
AcDbEntity
  8
0
  6
Continuous
 62
   144
370
    18
100
AcDbSpline
210
0.0
220
0.0
230
1.0
 70
     8
 71
     3
 72
    18
 73
    14
 74
     0
 42
0.000000001
 43
0.00000001
 40
0.0
 40
0.0
 40
0.0
 40
0.0
 40
0.0625000000000013
 40
0.0625000000000013
 40
0.1250000000000026
 40
0.1250000000000026
 40
0.2500000000000048
 40
0.2500000000000048
 40
0.5000000000000032
 40
0.5000000000000032
 40
0.7500000000000017
 40
0.7500000000000017
 40
1.0
 40
1.0
 40
1.0
 40
1.0
 10
420.606920705475
 20
-20.57912256982909
 30
0.0
 10
420.5826621773801
 20
-20.59959517998073
 30
0.0
 10
420.5593648503603
 20
-20.6194792270354
 30
0.0
 10
420.5167640549119
 20
-20.65615661363312
 30
0.0
 10
420.4970933089188
 20
-20.67326013281868
 30
0.0
 10
420.4428111599527
 20
-20.72079391657077
 30
0.0
 10
420.4129167432706
 20
-20.74744711295769
 30
0.0
 10
420.3413191172878
 20
-20.81177212188377
 30
0.0
 10
420.31755435817
 20
-20.83378550084439
 30
0.0
 10
420.3184322066881
 20
-20.83324908856597
 30
0.0
 10
420.343104464697
 20
-20.81033815422118
 30
0.0
 10
420.4368519302914
 20
-20.72839308244287
 30
0.0
 10
420.5042667340588
 20
-20.66745252141812
 30
0.0
 10
420.6019446995747
 20
-20.58106254868955
 30
0.0
  0
LWPOLYLINE
  5
137
330
1F
100
AcDbEntity
  8
0
  6
Continuous
 62
   144
370
    18
100
AcDbPolyline
 90
        9
 70
   128
 43
0.0
 10
439.5289952004
 20
3.1028933629
 10
439.4547733481
 20
3.0092249212
 10
439.3813338746
 20
2.9273215272
 10
439.3100571689
 20
2.85872266
 10
439.242282968
 20
2.8047177233
 10
439.1792851747
 20
2.7663218088
 10
439.1222479131
 20
2.7442566169
 10
439.0722432717
 20
2.7389368913
 10
439.0302111516
 20
2.7504626228
  0
SPLINE
  5
138
330
1F
100
AcDbEntity
  8
0
  6
Continuous
 62
   144
370
    18
100
AcDbSpline
210
0.0
220
0.0
230
1.0
 70
     8
 71
     3
 72
    11
 73
     7
 74
     0
 42
0.000000001
 43
0.00000001
 40
0.0
 40
0.0
 40
0.0
 40
0.0
 40
0.0002192210328315
 40
0.0002192210328315
 40
0.0002192210328315
 40
0.0002192810328315
 40
0.0002192810328315
 40
0.0002192810328315
 40
0.0002192810328315
 10
439.5289952004105
 20
3.102893362857279
 30
0.0
 10
439.4690204927364
 20
3.137147605147041
 30
0.0
 10
439.409305544094
 20
3.171178535427993
 30
0.0
 10
439.3498899232258
 20
3.20496874896971
 30
0.0
 10
439.3498736613863
 20
3.204977997228357
 30
0.0
 10
439.3498573995934
 20
3.204987245456293
 30
0.0
 10
439.3498411377731
 20
3.204996493692368
 30
0.0
  0
SPLINE
  5
139
330
1F
100
AcDbEntity
  8
0
  6
Continuous
 62
   144
370
    18
100
AcDbSpline
210
0.0
220
0.0
230
1.0
 70
     8
 71
     3
 72
    10
 73
     6
 74
     0
 42
0.000000001
 43
0.00000001
 40
0.0
 40
0.0
 40
0.0
 40
0.0
 40
0.5
 40
0.5
 40
1.0
 40
1.0
 40
1.0
 40
1.0
 10
413.1169105096932
 20
7.216162169256271
 30
0.0
 10
413.1227707425472
 20
7.100039162966598
 30
0.0
 10
413.120497737355
 20
6.995674077412541
 30
0.0
 10
413.1000344339008
 20
6.82649149427462
 30
0.0
 10
413.0818525046449
 20
6.761743187409435
 30
0.0
 10
413.0571167915917
 20
6.721810930237071
 30
0.0
  0
SPLINE
  5
13A
330
1F
100
AcDbEntity
  8
0
  6
Continuous
 62
     7
370
    25
100
AcDbSpline
210
0.0
220
0.0
230
1.0
 70
     8
 71
     3
 72
    20
 73
    16
 74
     0
 42
0.000000001
 43
0.00000001
 40
0.0
 40
0.0
 40
0.0
 40
0.0
 40
0.0625000000000001
 40
0.0625000000000001
 40
0.1250000000000002
 40
0.1250000000000002
 40
0.2500000000000002
 40
0.2500000000000002
 40
0.3750000000000001
 40
0.3750000000000001
 40
0.5000000000000001
 40
0.5000000000000001
 40
0.75
 40
0.75
 40
1.0
 40
1.0
 40
1.0
 40
1.0
 10
6.500000000000061
 20
-9.031925841789016
 30
0.0
 10
6.958411065752679
 20
-8.767338089961628
 30
0.0
 10
7.431475679021693
 20
-8.52220786666891
 30
0.0
 10
8.392745036399196
 20
-8.063166636290786
 30
0.0
 10
8.881901626654255
 20
-7.848871577497758
 30
0.0
 10
10.36905785444758
 20
-7.241897585748659
 30
0.0
 10
11.38702248581758
 20
-6.883970830018669
 30
0.0
 10
13.45400165430727
 20
-6.234404800715785
 30
0.0
 10
14.49677081323319
 20
-5.94538424712932
 30
0.0
 10
16.59528516130116
 20
-5.420302723797919
 30
0.0
 10
17.65108334407534
 20
-5.184401343341393
 30
0.0
 10
20.83349638225584
 20
-4.541483947840523
 30
0.0
 10
22.97489452085444
 20
-4.198509982386375
 30
0.0
 10
27.28437586748611
 20
-3.640687421040893
 30
0.0
 10
29.45272170032437
 20
-3.426809356836148
 30
0.0
 10
31.63175911166532
 20
-3.268139867841889
 30
0.0
  0
SPLINE
  5
13C
330
1F
100
AcDbEntity
  8
0
  6
Continuous
 62
     7
370
    25
100
AcDbSpline
210
0.0
220
0.0
230
1.0
 70
     8
 71
     3
 72
    18
 73
    14
 74
     0
 42
0.000000001
 43
0.00000001
 40
0.0
 40
0.0
 40
0.0
 40
0.0
 40
0.2500000000000003
 40
0.2500000000000003
 40
0.5000000000000007
 40
0.5000000000000007
 40
0.6250000000000006
 40
0.6250000000000006
 40
0.7500000000000004
 40
0.7500000000000004
 40
0.8750000000000002
 40
0.8750000000000002
 40
1.0
 40
1.0
 40
1.0
 40
1.0
 10
31.63175911166538
 20
3.268139867841959
 30
0.0
 10
29.4531831914695
 20
3.426775752748617
 30
0.0
 10
27.28508959240245
 20
3.640610074066177
 30
0.0
 10
22.97562250888513
 20
4.198400717964673
 30
0.0
 10
20.8339894743601
 20
4.541382595177498
 30
0.0
 10
17.65074607420935
 20
5.184470347915877
 30
0.0
 10
16.59459076905168
 20
5.420455635035814
 30
0.0
 10
14.49516837318143
 20
5.945806062519378
 30
0.0
 10
13.45043753546127
 20
6.235461035289905
 30
0.0
 10
11.38551182681835
 20
6.884509545175803
 30
0.0
 10
10.36934321664079
 20
7.241788552565977
 30
0.0
 10
8.386272602413868
 20
8.051152189102574
 30
0.0
 10
7.41526830029704
 20
8.50364718539006
 30
0.0
 10
6.500000000000061
 20
9.031925841788897
 30
0.0
  0
SPLINE
  5
13F
330
1F
100
AcDbEntity
  8
0
  6
Continuous
 62
     7
370
    25
100
AcDbSpline
210
0.0
220
0.0
230
1.0
 70
     8
 71
     3
 72
    20
 73
    16
 74
     0
 42
0.000000001
 43
0.00000001
 40
0.0
 40
0.0
 40
0.0
 40
0.0
 40
0.2500000000000001
 40
0.2500000000000001
 40
0.5000000000000001
 40
0.5000000000000001
 40
0.6250000000000001
 40
0.6250000000000001
 40
0.75
 40
0.75
 40
0.875
 40
0.875
 40
0.9375
 40
0.9375
 40
1.0
 40
1.0
 40
1.0
 40
1.0
 10
31.75403990115522
 20
-3.714903037317067
 30
0.0
 10
29.56350747827052
 20
-3.871226031896907
 30
0.0
 10
27.38343636175933
 20
-4.082561802181651
 30
0.0
 10
23.05006080558864
 20
-4.635139261787018
 30
0.0
 10
20.89648283059215
 20
-4.975356699332223
 30
0.0
 10
17.69563418187681
 20
-5.61490464986818
 30
0.0
 10
16.63366090100315
 20
-5.849802532152232
 30
0.0
 10
14.52286745786596
 20
-6.37365595106603
 30
0.0
 10
13.47366911190578
 20
-6.662559288099485
 30
0.0
 10
11.39552476675598
 20
-7.313480060587722
 30
0.0
 10
10.37376964731368
 20
-7.672335338713504
 30
0.0
 10
8.881584210632232
 20
-8.285221807400296
 30
0.0
 10
8.391050784907428
 20
-8.502180997511601
 30
0.0
 10
7.428294172301619
 20
-8.969141830300227
 30
0.0
 10
6.955458516479718
 20
-9.21946292269085
 30
0.0
 10
6.500000000000061
 20
-9.491110090474942
 30
0.0
  0
SPLINE
  5
140
330
1F
100
AcDbEntity
  8
0
  6
Continuous
 62
     7
370
    25
100
AcDbSpline
210
0.0
220
0.0
230
1.0
 70
    24
 71
     3
 72
    10
 73
     6
 74
     0
 42
0.000000001
 43
0.00000001
 40
0.0
 40
0.0
 40
0.0
 40
0.0
 40
0.5
 40
0.5
 40
1.0
 40
1.0
 40
1.0
 40
1.0
 10
6.500000000000061
 20
-9.491110090474942
 30
0.0
 10
6.500000000000061
 20
-9.48007401609556
 30
0.0
 10
6.500000000000061
 20
-9.423271648391706
 30
0.0
 10
6.500000000000061
 20
-9.25849423643869
 30
0.0
 10
6.500000000000061
 20
-9.151978155031873
 30
0.0
 10
6.500000000000061
 20
-9.031925841789013
 30
0.0
  0
SPLINE
  5
141
330
1F
100
AcDbEntity
  8
0
  6
Continuous
 62
     7
370
    25
100
AcDbSpline
210
0.0
220
0.0
230
1.0
 70
     8
 71
     3
 72
    20
 73
    16
 74
     0
 42
0.000000001
 43
0.00000001
 40
0.0
 40
0.0
 40
0.0
 40
0.0
 40
0.1249999999999999
 40
0.1249999999999999
 40
0.2499999999999998
 40
0.2499999999999998
 40
0.3749999999999998
 40
0.3749999999999998
 40
0.4999999999999999
 40
0.4999999999999999
 40
0.625
 40
0.625
 40
0.7500000000000001
 40
0.7500000000000001
 40
1.0
 40
1.0
 40
1.0
 40
1.0
 10
6.500000000000061
 20
9.491110090474658
 30
0.0
 10
7.412887338136276
 20
8.946640614248285
 30
0.0
 10
8.391563242642231
 20
8.486214897461885
 30
0.0
 10
10.37949617311795
 20
7.670258685733235
 30
0.0
 10
11.39478567595853
 20
7.313999758378033
 30
0.0
 10
13.45194853461146
 20
6.66907758374774
 30
0.0
 10
14.49420286822345
 20
6.381364064866089
 30
0.0
 10
16.59825065170562
 20
5.858014226026342
 30
0.0
 10
17.66010269459839
 20
5.622486249537859
 30
0.0
 10
19.79911685221542
 20
5.194149158289527
 30
0.0
 10
20.87725039248439
 20
5.001369603895355
 30
0.0
 10
23.03823557789586
 20
4.653655604622519
 30
0.0
 10
24.12187332743837
 20
4.498555362263957
 30
0.0
 10
27.38058934556647
 20
4.082745864928845
 30
0.0
 10
29.5633882841525
 20
3.871234537948455
 30
0.0
 10
31.75403990115522
 20
3.71490303731713
 30
0.0
  0
SPLINE
  5
143
330
1F
100
AcDbEntity
  8
0
  6
Continuous
 62
     7
370
    25
100
AcDbSpline
210
0.0
220
0.0
230
1.0
 70
    24
 71
     3
 72
    10
 73
     6
 74
     0
 42
0.000000001
 43
0.00000001
 40
0.0
 40
0.0
 40
0.0
 40
0.0
 40
0.5
 40
0.5
 40
1.0
 40
1.0
 40
1.0
 40
1.0
 10
6.500000000000061
 20
9.031925841788903
 30
0.0
 10
6.500000000000061
 20
9.15220637977387
 30
0.0
 10
6.500000000000061
 20
9.258642590151826
 30
0.0
 10
6.500000000000061
 20
9.421904611059267
 30
0.0
 10
6.500000000000061
 20
9.48006188528226
 30
0.0
 10
6.500000000000061
 20
9.491110090474658
 30
0.0
  0
SPLINE
  5
144
330
1F
100
AcDbEntity
  8
0
  6
Continuous
 62
     7
370
    25
100
AcDbSpline
210
0.0
220
0.0
230
1.0
 70
    24
 71
     3
 72
     8
 73
     4
 74
     0
 42
0.000000001
 43
0.00000001
 40
0.0
 40
0.0
 40
0.0
 40
0.0
 40
1.0
 40
1.0
 40
1.0
 40
1.0
 10
6.500000000000061
 20
-9.507388150596817
 30
0.0
 10
6.500000000000061
 20
-9.501922188623707
 30
0.0
 10
6.500000000000061
 20
-9.49649665506734
 30
0.0
 10
6.500000000000061
 20
-9.49111009047494
 30
0.0
  0
SPLINE
  5
145
330
1F
100
AcDbEntity
  8
0
  6
Continuous
 62
     7
370
    25
100
AcDbSpline
210
0.0
220
0.0
230
1.0
 70
     8
 71
     3
 72
    22
 73
    18
 74
     0
 42
0.000000001
 43
0.00000001
 40
0.0
 40
0.0
 40
0.0
 40
0.0
 40
0.125
 40
0.125
 40
0.25
 40
0.25
 40
0.375
 40
0.375
 40
0.5
 40
0.5
 40
0.625
 40
0.625
 40
0.75
 40
0.75
 40
0.875
 40
0.875
 40
1.0
 40
1.0
 40
1.0
 40
1.0
 10
37.01625851781598
 20
-3.446405781467242
 30
0.0
 10
37.01623591907926
 20
-3.446305207864551
 30
0.0
 10
36.98019453752794
 20
-3.447364105702148
 30
0.0
 10
36.84066153672222
 20
-3.4517900567851
 30
0.0
 10
36.7362737801315
 20
-3.455185967330954
 30
0.0
 10
36.46076657266117
 20
-3.464701288824959
 30
0.0
 10
36.2929306199194
 20
-3.470708974919701
 30
0.0
 10
35.89791868398395
 20
-3.485835371565827
 30
0.0
 10
35.66872890510642
 20
-3.495051571856352
 30
0.0
 10
35.17112095085312
 20
-3.516565649700653
 30
0.0
 10
34.8993918612146
 20
-3.528992534273421
 30
0.0
 10
34.31550863345834
 20
-3.557734037987087
 30
0.0
 10
34.0119184762091
 20
-3.573625905100901
 30
0.0
 10
33.38212677002061
 20
-3.608938740382345
 30
0.0
 10
33.05300518404653
 20
-3.628568343474048
 30
0.0
 10
32.40263753391903
 20
-3.669905876884645
 30
0.0
 10
32.07803716676705
 20
-3.691781616119651
 30
0.0
 10
31.75403990115522
 20
-3.714903037317068
 30
0.0
  0
SPLINE
  5
146
330
1F
100
AcDbEntity
  8
0
  6
Continuous
 62
     7
370
    25
100
AcDbSpline
210
0.0
220
0.0
230
1.0
 70
     8
 71
     3
 72
    20
 73
    16
 74
     0
 42
0.000000001
 43
0.00000001
 40
0.0
 40
0.0
 40
0.0
 40
0.0
 40
0.2499999999999998
 40
0.2499999999999998
 40
0.4999999999999996
 40
0.4999999999999996
 40
0.6249999999999997
 40
0.6249999999999997
 40
0.7499999999999998
 40
0.7499999999999998
 40
0.8749999999999999
 40
0.8749999999999999
 40
0.9374999999999999
 40
0.9374999999999999
 40
1.0
 40
1.0
 40
1.0
 40
1.0
 10
37.01702311382621
 20
-3.44641117200533
 30
0.0
 10
34.39773902439403
 20
-3.531651952065065
 30
0.0
 10
31.78209416469912
 20
-3.691661908374877
 30
0.0
 10
26.56421608673565
 20
-4.180198534592193
 30
0.0
 10
23.9662265129042
 20
-4.507670518365935
 30
0.0
 10
20.09337184722682
 20
-5.16190930143082
 30
0.0
 10
18.80638401521584
 20
-5.407685119506026
 30
0.0
 10
16.25121219016518
 20
-5.966072462985513
 30
0.0
 10
14.9819433092126
 20
-6.278307437189499
 30
0.0
 10
12.4666858247382
 20
-6.993796449269361
 30
0.0
 10
11.22546178740091
 20
-7.394775229374802
 30
0.0
 10
9.408485646092313
 20
-8.093366848292797
 30
0.0
 10
8.81022761905237
 20
-8.342876647551686
 30
0.0
 10
7.634091125331088
 20
-8.887205583294422
 30
0.0
 10
7.054109012743504
 20
-9.183047788151216
 30
0.0
 10
6.499999999999728
 20
-9.50738815059696
 30
0.0
  0
SPLINE
  5
147
330
1F
100
AcDbEntity
  8
0
  6
Continuous
 62
   144
370
    18
100
AcDbSpline
210
0.0
220
0.0
230
1.0
 70
     8
 71
     3
 72
     8
 73
     4
 74
     0
 42
0.000000001
 43
0.00000001
 40
0.0000000000000003
 40
0.0000000000000003
 40
0.0000000000000003
 40
0.0000000000000003
 40
0.0000620694496781
 40
0.0000620694496781
 40
0.0000620694496781
 40
0.0000620694496781
 10
37.01702311382621
 20
-3.44641117200533
 30
0.0
 10
37.0165164908598
 20
-3.446421310712869
 30
0.0
 10
37.01626243788686
 20
-3.4464232273146
 30
0.0
 10
37.01626102169398
 20
-3.446416924714448
 30
0.0
  0
SPLINE
  5
149
330
1F
100
AcDbEntity
  8
0
  6
Continuous
 62
     7
370
    25
100
AcDbSpline
210
0.0
220
0.0
230
1.0
 70
     8
 71
     3
 72
    26
 73
    22
 74
     0
 42
0.000000001
 43
0.00000001
 40
0.0
 40
0.0
 40
0.0
 40
0.0
 40
0.1249999999999996
 40
0.1249999999999996
 40
0.1874999999999994
 40
0.1874999999999994
 40
0.2499999999999993
 40
0.2499999999999993
 40
0.3749999999999961
 40
0.3749999999999961
 40
0.4374999999999956
 40
0.4374999999999956
 40
0.4999999999999952
 40
0.4999999999999952
 40
0.6249999999999964
 40
0.6249999999999964
 40
0.7499999999999977
 40
0.7499999999999977
 40
0.8749999999999988
 40
0.8749999999999988
 40
1.0
 40
1.0
 40
1.0
 40
1.0
 10
31.75403990115522
 20
3.71490303731713
 30
0.0
 10
32.07809358458319
 20
3.691777589974338
 30
0.0
 10
32.40694904855835
 20
3.669621814080535
 30
0.0
 10
32.8941875487469
 20
3.63866793576503
 30
0.0
 10
33.056188654559
 20
3.628686708328763
 30
0.0
 10
33.37935184960006
 20
3.609379115937339
 30
0.0
 10
33.54149908732951
 20
3.599999212999486
 30
0.0
 10
34.01664416067774
 20
3.57336785960769
 30
0.0
 10
34.31977026179417
 20
3.557520044051697
 30
0.0
 10
34.75423857192011
 20
3.536139797817571
 30
0.0
 10
34.89651632203267
 20
3.529375520068053
 30
0.0
 10
35.16891024129393
 20
3.516823954493499
 30
0.0
 10
35.2990362996139
 20
3.51103223306717
 30
0.0
 10
35.67171835943672
 20
3.494928439399957
 30
0.0
 10
35.89819385001197
 20
3.485822562180179
 30
0.0
 10
36.29578446905879
 20
3.470601981262054
 30
0.0
 10
36.46299600565683
 20
3.464623184558166
 30
0.0
 10
36.73613681374716
 20
3.455191811599363
 30
0.0
 10
36.84181910245987
 20
3.45175249985236
 30
0.0
 10
36.98086869601247
 20
3.447343571930024
 30
0.0
 10
37.01623591598119
 20
3.44630519407763
 30
0.0
 10
37.01625851781603
 20
3.446405781468249
 30
0.0
  0
SPLINE
  5
14A
330
1F
100
AcDbEntity
  8
0
  6
Continuous
 62
     7
370
    25
100
AcDbSpline
210
0.0
220
0.0
230
1.0
 70
     8
 71
     3
 72
    22
 73
    18
 74
     0
 42
0.000000001
 43
0.00000001
 40
0.0
 40
0.0
 40
0.0
 40
0.0
 40
0.0624999999999999
 40
0.0624999999999999
 40
0.1249999999999999
 40
0.1249999999999999
 40
0.1874999999999999
 40
0.1874999999999999
 40
0.2499999999999998
 40
0.2499999999999998
 40
0.3749999999999998
 40
0.3749999999999998
 40
0.4999999999999998
 40
0.4999999999999998
 40
0.7499999999999997
 40
0.7499999999999997
 40
1.0
 40
1.0
 40
1.0
 40
1.0
 10
6.49999999999995
 20
9.507388150596512
 30
0.0
 10
7.054599510171844
 20
9.182760681985979
 30
0.0
 10
7.628370494796921
 20
8.890090612436863
 30
0.0
 10
8.800924817514822
 20
8.346947650473238
 30
0.0
 10
9.399905053726897
 20
8.096793803487714
 30
0.0
 10
10.6167131075034
 20
7.628700468025354
 30
0.0
 10
11.23498843163495
 20
7.410658485745172
 30
0.0
 10
12.47670966702963
 20
7.003116881214658
 30
0.0
 10
13.10150510447977
 20
6.813147741839596
 30
0.0
 10
14.98554437100302
 20
6.277420534887424
 30
0.0
 10
16.25429331421469
 20
5.965336445682481
 30
0.0
 10
18.81004618279503
 20
5.406947676033803
 30
0.0
 10
20.09852144115337
 20
5.160938435537146
 30
0.0
 10
23.97653941621797
 20
4.506131070216878
 30
0.0
 10
26.57309444707479
 20
4.179261216580453
 30
0.0
 10
31.78290649086035
 20
3.691692109575604
 30
0.0
 10
34.39624153898679
 20
3.531700685544555
 30
0.0
 10
37.01702311382626
 20
3.446411172006344
 30
0.0
  0
SPLINE
  5
14C
330
1F
100
AcDbEntity
  8
0
  6
Continuous
 62
   144
370
    18
100
AcDbSpline
210
0.0
220
0.0
230
1.0
 70
     8
 71
     3
 72
     8
 73
     4
 74
     0
 42
0.000000001
 43
0.00000001
 40
0.0
 40
0.0
 40
0.0
 40
0.0
 40
0.000062069449677
 40
0.000062069449677
 40
0.000062069449677
 40
0.000062069449677
 10
37.01626102169403
 20
3.446416924715458
 30
0.0
 10
37.01626243788692
 20
3.446423227315611
 30
0.0
 10
37.01651649085985
 20
3.446421310713881
 30
0.0
 10
37.01702311382626
 20
3.446411172006343
 30
0.0
  0
SPLINE
  5
14D
330
1F
100
AcDbEntity
  8
0
  6
Continuous
 62
     7
370
    25
100
AcDbSpline
210
0.0
220
0.0
230
1.0
 70
     8
 71
     3
 72
    26
 73
    22
 74
     0
 42
0.000000001
 43
0.00000001
 40
0.0
 40
0.0
 40
0.0
 40
0.0
 40
0.1249999999999986
 40
0.1249999999999986
 40
0.2499999999999971
 40
0.2499999999999971
 40
0.3749999999999957
 40
0.3749999999999957
 40
0.4999999999999942
 40
0.4999999999999942
 40
0.5624999999999936
 40
0.5624999999999936
 40
0.6249999999999928
 40
0.6249999999999928
 40
0.7499999999999934
 40
0.7499999999999934
 40
0.812499999999995
 40
0.812499999999995
 40
0.8749999999999967
 40
0.8749999999999967
 40
1.0
 40
1.0
 40
1.0
 40
1.0
 10
37.50000000000004
 20
2.946670214294561
 30
0.0
 10
37.50000000000004
 20
2.950707283918266
 30
0.0
 10
37.46035896970373
 20
2.955663655505395
 30
0.0
 10
37.30458077249682
 20
2.96756019856771
 30
0.0
 10
37.186191232914
 20
2.974603717190009
 30
0.0
 10
36.88051895448152
 20
2.990668622196961
 30
0.0
 10
36.69348290421404
 20
2.999709584114016
 30
0.0
 10
36.24904997319794
 20
3.020638100466145
 30
0.0
 10
35.99620755007826
 20
3.032316037169158
 30
0.0
 10
35.58030763952286
 20
3.05186445618812
 30
0.0
 10
35.43513229339857
 20
3.058739030361445
 30
0.0
 10
35.13132973490962
 20
3.073331283407702
 30
0.0
 10
34.97276115936288
 20
3.081048384381901
 30
0.0
 10
34.48860883921834
 20
3.105041544870889
 30
0.0
 10
34.15093020508853
 20
3.12233340509906
 30
0.0
 10
33.6218110725483
 20
3.150702224091021
 30
0.0
 10
33.44131697060393
 20
3.160586223493968
 30
0.0
 10
33.08156267958151
 20
3.180735534844216
 30
0.0
 10
32.90121142965774
 20
3.191058158269722
 30
0.0
 10
32.35876053570053
 20
3.22279823489939
 30
0.0
 10
31.99263875889607
 20
3.245161432302883
 30
0.0
 10
31.63175911166538
 20
3.268139867841958
 30
0.0
  0
SPLINE
  5
14F
330
1F
100
AcDbEntity
  8
0
  6
Continuous
 62
     7
370
    25
100
AcDbSpline
210
0.0
220
0.0
230
1.0
 70
     8
 71
     3
 72
    24
 73
    20
 74
     0
 42
0.000000001
 43
0.00000001
 40
0.0
 40
0.0
 40
0.0
 40
0.0
 40
0.1250000000000001
 40
0.1250000000000001
 40
0.2500000000000002
 40
0.2500000000000002
 40
0.3750000000000003
 40
0.3750000000000003
 40
0.5000000000000004
 40
0.5000000000000004
 40
0.6250000000000006
 40
0.6250000000000006
 40
0.7500000000000007
 40
0.7500000000000007
 40
0.8125000000000001
 40
0.8125000000000001
 40
0.8749999999999997
 40
0.8749999999999997
 40
1.0
 40
1.0
 40
1.0
 40
1.0
 10
31.63175911166538
 20
-3.268139867841895
 30
0.0
 10
31.99257573716568
 20
-3.245165445110922
 30
0.0
 10
32.35400249480047
 20
-3.223084106457824
 30
0.0
 10
33.07803887289307
 20
-3.18070419127134
 30
0.0
 10
33.44436995816979
 20
-3.160220582915377
 30
0.0
 10
34.14570143681301
 20
-3.12260896850655
 30
0.0
 10
34.48386993405406
 20
-3.105278971472448
 30
0.0
 10
35.1344378518671
 20
-3.073033601659614
 30
0.0
 10
35.43758643098599
 20
-3.058574591069377
 30
0.0
 10
35.9928505435525
 20
-3.032471997555525
 30
0.0
 10
36.24879145031623
 20
-3.020649097032974
 30
0.0
 10
36.69029165062094
 20
-2.999861029661882
 30
0.0
 10
36.87801102240412
 20
-2.99079630134229
 30
0.0
 10
37.10924469834037
 20
-2.978649757479106
 30
0.0
 10
37.17747738296795
 20
-2.974862900739484
 30
0.0
 10
37.29379939969652
 20
-2.967883300591613
 30
0.0
 10
37.34236043055228
 20
-2.964666386779676
 30
0.0
 10
37.45959678137029
 20
-2.955738798658005
 30
0.0
 10
37.50000000000004
 20
-2.950706691576285
 30
0.0
 10
37.50000000000004
 20
-2.946670214293553
 30
0.0
  0
SPLINE
  5
152
330
1F
100
AcDbEntity
  8
0
  6
Continuous
 62
     7
370
    25
100
AcDbSpline
210
0.0
220
0.0
230
1.0
 70
     8
 71
     3
 72
    18
 73
    14
 74
     0
 42
0.000000001
 43
0.00000001
 40
0.0
 40
0.0
 40
0.0
 40
0.0
 40
0.2500000000000002
 40
0.2500000000000002
 40
0.5000000000000004
 40
0.5000000000000004
 40
0.6250000000000003
 40
0.6250000000000003
 40
0.7500000000000002
 40
0.7500000000000002
 40
0.8750000000000001
 40
0.8750000000000001
 40
1.0
 40
1.0
 40
1.0
 40
1.0
 10
31.63175911166538
 20
28.2967530692443
 30
0.0
 10
29.45221227504075
 20
28.02682177642793
 30
0.0
 10
27.2830232270142
 20
27.77961550080399
 30
0.0
 10
22.9710805857159
 20
27.33040154488194
 30
0.0
 10
20.8280685730044
 20
27.12830347275452
 30
0.0
 10
17.64249381158656
 20
26.85817352629653
 30
0.0
 10
16.58551712751233
 20
26.7736151812784
 30
0.0
 10
14.48435151628324
 20
26.61500222111516
 30
0.0
 10
13.43766540350838
 20
26.5408147288422
 30
0.0
 10
11.37476810297622
 20
26.4032099530762
 30
0.0
 10
10.36033915495288
 20
26.33982286349783
 30
0.0
 10
8.38263286452101
 20
26.22246268958959
 30
0.0
 10
7.418356672249882
 20
26.16856951826276
 30
0.0
 10
6.500000000000061
 20
26.11823963104849
 30
0.0
  0
SPLINE
  5
154
330
1F
100
AcDbEntity
  8
0
  6
Continuous
 62
     7
370
    25
100
AcDbSpline
210
0.0
220
0.0
230
1.0
 70
     8
 71
     3
 72
    20
 73
    16
 74
     0
 42
0.000000001
 43
0.00000001
 40
0.0
 40
0.0
 40
0.0
 40
0.0
 40
0.0624999999999999
 40
0.0624999999999999
 40
0.1249999999999999
 40
0.1249999999999999
 40
0.2499999999999997
 40
0.2499999999999997
 40
0.3749999999999994
 40
0.3749999999999994
 40
0.4999999999999994
 40
0.4999999999999994
 40
0.7499999999999998
 40
0.7499999999999998
 40
1.0
 40
1.0
 40
1.0
 40
1.0
 10
6.500000000000061
 20
17.08631378925911
 30
0.0
 10
6.966117981480391
 20
17.3808951191774
 30
0.0
 10
7.44823640442116
 20
17.65694570938008
 30
0.0
 10
8.427264100412724
 20
18.17844001497506
 30
0.0
 10
8.92244975764922
 20
18.4229619781345
 30
0.0
 10
10.42058581309607
 20
19.12084701427541
 30
0.0
 10
11.43577799619139
 20
19.53948131905678
 30
0.0
 10
13.48686174526109
 20
20.31913497517467
 30
0.0
 10
14.52302616625922
 20
20.67938256396575
 30
0.0
 10
16.61044589391319
 20
21.35870762786357
 30
0.0
 10
17.6617572327703
 20
21.67761694578546
 30
0.0
 10
20.83336816016423
 20
22.58713314699717
 30
0.0
 10
22.97108024552391
 20
23.13131199029761
 30
0.0
 10
27.27857467999456
 20
24.13779932963991
 30
0.0
 10
29.44865193588431
 20
24.59927513543163
 30
0.0
 10
31.63175911166538
 20
25.0286132014032
 30
0.0
  0
SPLINE
  5
157
330
1F
100
AcDbEntity
  8
0
  6
Continuous
 62
     7
370
    25
100
AcDbSpline
210
0.0
220
0.0
230
1.0
 70
     8
 71
     3
 72
    18
 73
    14
 74
     0
 42
0.000000001
 43
0.00000001
 40
0.0
 40
0.0
 40
0.0
 40
0.0
 40
0.2500000000000002
 40
0.2500000000000002
 40
0.5000000000000004
 40
0.5000000000000004
 40
0.6250000000000003
 40
0.6250000000000003
 40
0.7500000000000002
 40
0.7500000000000002
 40
0.8750000000000001
 40
0.8750000000000001
 40
1.0
 40
1.0
 40
1.0
 40
1.0
 10
31.75403990115516
 20
24.38180996181316
 30
0.0
 10
29.56382637654076
 20
23.95190491276699
 30
0.0
 10
27.38235249086918
 20
23.4893439425439
 30
0.0
 10
23.04213358556084
 20
22.47807369088301
 30
0.0
 10
20.88314085174803
 20
21.93033831751767
 30
0.0
 10
17.67022622031489
 20
21.01022775719516
 30
0.0
 10
16.60280372544426
 20
20.68658036983832
 30
0.0
 10
14.49191573070674
 20
19.9987291220678
 30
0.0
 10
13.4470923487528
 20
19.63431903893496
 30
0.0
 10
11.38699287602352
 20
18.84672451308301
 30
0.0
 10
10.37131592158269
 20
18.42434582290786
 30
0.0
 10
8.38567485926478
 20
17.48606947736403
 30
0.0
 10
7.410334232572535
 20
16.96970758369845
 30
0.0
 10
6.500000000000061
 20
16.37352858417455
 30
0.0
  0
SPLINE
  5
158
330
1F
100
AcDbEntity
  8
0
  6
Continuous
 62
     7
370
    25
100
AcDbSpline
210
0.0
220
0.0
230
1.0
 70
    24
 71
     3
 72
    10
 73
     6
 74
     0
 42
0.000000001
 43
0.00000001
 40
0.0
 40
0.0
 40
0.0
 40
0.0
 40
0.5
 40
0.5
 40
1.0
 40
1.0
 40
1.0
 40
1.0
 10
6.500000000000061
 20
16.37352858417455
 30
0.0
 10
6.500000000000061
 20
16.48956093271591
 30
0.0
 10
6.500000000000061
 20
16.6201742582608
 30
0.0
 10
6.500000000000061
 20
16.87079809641066
 30
0.0
 10
6.500000000000061
 20
16.9886421703714
 30
0.0
 10
6.500000000000061
 20
17.08631378925911
 30
0.0
  0
SPLINE
  5
15B
330
1F
100
AcDbEntity
  8
0
  6
Continuous
 62
     7
370
    25
100
AcDbSpline
210
0.0
220
0.0
230
1.0
 70
    24
 71
     3
 72
     8
 73
     4
 74
     0
 42
0.000000001
 43
0.00000001
 40
0.0
 40
0.0
 40
0.0
 40
0.0
 40
1.0
 40
1.0
 40
1.0
 40
1.0
 10
6.500000000000061
 20
-16.37352858417505
 30
0.0
 10
6.500000000000061
 20
-16.31689470162414
 30
0.0
 10
6.500000000000061
 20
-16.26024411953778
 30
0.0
 10
6.500000000000061
 20
-16.20357621249049
 30
0.0
  0
SPLINE
  5
15C
330
1F
100
AcDbEntity
  8
0
  6
Continuous
 62
     7
370
    25
100
AcDbSpline
210
0.0
220
0.0
230
1.0
 70
    24
 71
     3
 72
    10
 73
     6
 74
     0
 42
0.000000001
 43
0.00000001
 40
0.0
 40
0.0
 40
0.0
 40
0.0
 40
0.5
 40
0.5
 40
1.0
 40
1.0
 40
1.0
 40
1.0
 10
6.500000000000061
 20
-17.08631378925937
 30
0.0
 10
6.500000000000061
 20
-16.98845649231658
 30
0.0
 10
6.500000000000061
 20
-16.87035024748781
 30
0.0
 10
6.500000000000061
 20
-16.62247405180786
 30
0.0
 10
6.500000000000061
 20
-16.48968847505416
 30
0.0
 10
6.500000000000061
 20
-16.37352858417506
 30
0.0
  0
SPLINE
  5
15E
330
1F
100
AcDbEntity
  8
0
  6
Continuous
 62
     7
370
    25
100
AcDbSpline
210
0.0
220
0.0
230
1.0
 70
    24
 71
     3
 72
     8
 73
     4
 74
     0
 42
0.000000001
 43
0.00000001
 40
0.0
 40
0.0
 40
0.0
 40
0.0
 40
1.0
 40
1.0
 40
1.0
 40
1.0
 10
6.500000000000061
 20
16.20357621249236
 30
0.0
 10
6.500000000000061
 20
16.26024377489063
 30
0.0
 10
6.500000000000061
 20
16.31689436137424
 30
0.0
 10
6.500000000000061
 20
16.37352858417456
 30
0.0
  0
SPLINE
  5
15F
330
1F
100
AcDbEntity
  8
0
  6
Continuous
 62
     7
370
    25
100
AcDbSpline
210
0.0
220
0.0
230
1.0
 70
     8
 71
     3
 72
    20
 73
    16
 74
     0
 42
0.000000001
 43
0.00000001
 40
0.0
 40
0.0
 40
0.0
 40
0.0
 40
0.2500000000000002
 40
0.2500000000000002
 40
0.5000000000000001
 40
0.5000000000000001
 40
0.6250000000000001
 40
0.6250000000000001
 40
0.7500000000000001
 40
0.7500000000000001
 40
0.8750000000000001
 40
0.8750000000000001
 40
0.9375
 40
0.9375
 40
1.0
 40
1.0
 40
1.0
 40
1.0
 10
37.01702311382632
 20
20.59476223199263
 30
0.0
 10
34.39664618364336
 20
20.54224757734838
 30
0.0
 10
31.77775066686356
 20
20.44352191927007
 30
0.0
 10
26.56183708608262
 20
20.13447719209258
 30
0.0
 10
23.96974032725718
 20
19.92525931685958
 30
0.0
 10
20.11301971945212
 20
19.49069660082306
 30
0.0
 10
18.83276782840593
 20
19.32534331908103
 30
0.0
 10
16.28563841977754
 20
18.93988849701234
 30
0.0
 10
15.01865032286964
 20
18.72028658769515
 30
0.0
 10
12.50320664292009
 20
18.2006153122189
 30
0.0
 10
11.25003701895666
 20
17.90020300849442
 30
0.0
 10
9.419254319196767
 20
17.35584769450616
 30
0.0
 10
8.816800435453187
 20
17.15835902631815
 30
0.0
 10
7.633357123730033
 20
16.71810283406799
 30
0.0
 10
7.053549573267759
 20
16.47582542347365
 30
0.0
 10
6.500000000000616
 20
16.20357621249025
 30
0.0
  0
SPLINE
  5
161
330
1F
100
AcDbEntity
  8
0
  6
Continuous
 62
   144
370
    18
100
AcDbSpline
210
0.0
220
0.0
230
1.0
 70
     8
 71
     3
 72
     8
 73
     4
 74
     0
 42
0.000000001
 43
0.00000001
 40
0.0
 40
0.0
 40
0.0
 40
0.0
 40
0.0000335617288667
 40
0.0000335617288667
 40
0.0000335617288667
 40
0.0000335617288667
 10
37.05051025721684
 20
20.59612713325979
 30
0.0
 10
37.03937951349173
 20
20.59544179828205
 30
0.0
 10
37.0282043315967
 20
20.59498631341502
 30
0.0
 10
37.01702311382632
 20
20.59476223199263
 30
0.0
  0
SPLINE
  5
162
330
1F
100
AcDbEntity
  8
0
  6
Continuous
 62
     7
370
    25
100
AcDbSpline
210
0.0
220
0.0
230
1.0
 70
     8
 71
     3
 72
    22
 73
    18
 74
     0
 42
0.000000001
 43
0.00000001
 40
0.0
 40
0.0
 40
0.0
 40
0.0
 40
0.0625
 40
0.0625
 40
0.125
 40
0.125
 40
0.1874999999999999
 40
0.1874999999999999
 40
0.2499999999999999
 40
0.2499999999999999
 40
0.3749999999999998
 40
0.3749999999999998
 40
0.4999999999999996
 40
0.4999999999999996
 40
0.7499999999999997
 40
0.7499999999999997
 40
1.0
 40
1.0
 40
1.0
 40
1.0
 10
6.500000000000061
 20
-16.2035762124905
 30
0.0
 10
7.054022691785788
 20
-16.47605811472597
 30
0.0
 10
7.627224432913748
 20
-16.71545108463198
 30
0.0
 10
8.798669741421072
 20
-17.15197689627594
 30
0.0
 10
9.39710902863422
 20
-17.34875479304788
 30
0.0
 10
10.61286425280095
 20
-17.71123765221616
 30
0.0
 10
11.230508623149
 20
-17.87694286322881
 30
0.0
 10
12.47092918368276
 20
-18.18236580784082
 30
0.0
 10
13.0950864388546
 20
-18.32243960453151
 30
0.0
 10
14.97724230606123
 20
-18.7125986061681
 30
0.0
 10
16.24477847205075
 20
-18.93312773619427
 30
0.0
 10
18.79816995351374
 20
-19.32066830796855
 30
0.0
 10
20.08524816852475
 20
-19.48732603789666
 30
0.0
 10
23.96074880450144
 20
-19.92472291420968
 30
0.0
 10
26.56023195015916
 20
-20.13439381740966
 30
0.0
 10
31.78095401382874
 20
-20.44369998493156
 30
0.0
 10
34.39664692955613
 20
-20.54224759229811
 30
0.0
 10
37.01702311382621
 20
-20.59476223199332
 30
0.0
  0
SPLINE
  5
164
330
1F
100
AcDbEntity
  8
0
  6
Continuous
 62
   144
370
    18
100
AcDbSpline
210
0.0
220
0.0
230
1.0
 70
     8
 71
     3
 72
     8
 73
     4
 74
     0
 42
0.000000001
 43
0.00000001
 40
0.0
 40
0.0
 40
0.0
 40
0.0
 40
0.0000335617288668
 40
0.0000335617288668
 40
0.0000335617288668
 40
0.0000335617288668
 10
37.01702311382621
 20
-20.59476223199335
 30
0.0
 10
37.02820433159659
 20
-20.59498631341574
 30
0.0
 10
37.03937951349167
 20
-20.59544179828273
 30
0.0
 10
37.05051025721684
 20
-20.59612713326047
 30
0.0
  0
SPLINE
  5
167
330
1F
100
AcDbEntity
  8
0
  6
Continuous
 62
   144
370
    18
100
AcDbSpline
210
0.0
220
0.0
230
1.0
 70
     8
 71
     3
 72
     8
 73
     4
 74
     0
 42
0.000000001
 43
0.00000001
 40
0.0
 40
0.0
 40
0.0
 40
0.0
 40
1.0
 40
1.0
 40
1.0
 40
1.0
 10
37.50000000000004
 20
-23.84492540573128
 30
0.0
 10
37.50000000000004
 20
-23.72913429335443
 30
0.0
 10
37.51345488223462
 20
-23.61424162216906
 30
0.0
 10
37.54040820577342
 20
-23.50025482720083
 30
0.0
  0
SPLINE
  5
169
330
1F
100
AcDbEntity
  8
0
  6
Continuous
 62
   144
370
    18
100
AcDbSpline
210
0.0
220
0.0
230
1.0
 70
     8
 71
     3
 72
     8
 73
     4
 74
     0
 42
0.000000001
 43
0.00000001
 40
0.0
 40
0.0
 40
0.0
 40
0.0
 40
1.0
 40
1.0
 40
1.0
 40
1.0
 10
37.54040820577342
 20
23.50025482720083
 30
0.0
 10
37.51345488223468
 20
23.61424162216888
 30
0.0
 10
37.50000000000009
 20
23.72913429335393
 30
0.0
 10
37.50000000000004
 20
23.8449254057306
 30
0.0
  0
SPLINE
  5
16A
330
1F
100
AcDbEntity
  8
0
  6
Continuous
 62
   144
370
    18
100
AcDbSpline
210
0.0
220
0.0
230
1.0
 70
     8
 71
     3
 72
     8
 73
     4
 74
     0
 42
0.000000001
 43
0.00000001
 40
0.0
 40
0.0
 40
0.0
 40
0.0
 40
1.0
 40
1.0
 40
1.0
 40
1.0
 10
37.50000000000004
 20
20.89824396670706
 30
0.0
 10
37.50000000000004
 20
20.7785865656583
 30
0.0
 10
37.51345488223462
 20
20.66034063324488
 30
0.0
 10
37.54040820577342
 20
20.54350658730115
 30
0.0
  0
SPLINE
  5
16B
330
1F
100
AcDbEntity
  8
0
  6
Continuous
 62
   144
370
    18
100
AcDbSpline
210
0.0
220
0.0
230
1.0
 70
     8
 71
     3
 72
     8
 73
     4
 74
     0
 42
0.000000001
 43
0.00000001
 40
0.0
 40
0.0
 40
0.0
 40
0.0
 40
1.0
 40
1.0
 40
1.0
 40
1.0
 10
37.54040820577342
 20
2.956748239899735
 30
0.0
 10
37.51345488223468
 20
2.953900988924222
 30
0.0
 10
37.50000000000009
 20
2.950547727696173
 30
0.0
 10
37.50000000000004
 20
2.946681439024254
 30
0.0
  0
SPLINE
  5
16C
330
1F
100
AcDbEntity
  8
0
  6
Continuous
 62
   144
370
    18
100
AcDbSpline
210
0.0
220
0.0
230
1.0
 70
     8
 71
     3
 72
     8
 73
     4
 74
     0
 42
0.000000001
 43
0.00000001
 40
0.0
 40
0.0
 40
0.0
 40
0.0
 40
1.0
 40
1.0
 40
1.0
 40
1.0
 10
37.50000000000004
 20
-2.946681439023221
 30
0.0
 10
37.50000000000004
 20
-2.950547727695135
 30
0.0
 10
37.51345488223462
 20
-2.95390098892318
 30
0.0
 10
37.54040820577342
 20
-2.956748239898688
 30
0.0
  0
SPLINE
  5
16D
330
1F
100
AcDbEntity
  8
0
  6
Continuous
 62
   144
370
    18
100
AcDbSpline
210
0.0
220
0.0
230
1.0
 70
     8
 71
     3
 72
     8
 73
     4
 74
     0
 42
0.000000001
 43
0.00000001
 40
0.0
 40
0.0
 40
0.0
 40
0.0
 40
1.0
 40
1.0
 40
1.0
 40
1.0
 10
37.54040820577342
 20
-20.54350658730181
 30
0.0
 10
37.51345488223468
 20
-20.66034063324537
 30
0.0
 10
37.50000000000004
 20
-20.77858656565915
 30
0.0
 10
37.50000000000004
 20
-20.89824396670772
 30
0.0
  0
SPLINE
  5
16F
330
1F
100
AcDbEntity
  8
0
  6
Continuous
 62
   144
370
    18
100
AcDbSpline
210
0.0
220
0.0
230
1.0
 70
     8
 71
     3
 72
    12
 73
     8
 74
     0
 42
0.000000001
 43
0.00000001
 40
0.0
 40
0.0
 40
0.0
 40
0.0
 40
0.2500000000000026
 40
0.2500000000000026
 40
0.5000000000000051
 40
0.5000000000000051
 40
1.0
 40
1.0
 40
1.0
 40
1.0
 10
37.05051025721684
 20
-20.59612713326047
 30
0.0
 10
37.1203520700285
 20
-20.60042738833874
 30
0.0
 10
37.18689658190593
 20
-20.60086822729801
 30
0.0
 10
37.30291637388883
 20
-20.59713638699305
 30
0.0
 10
37.35255753908729
 20
-20.59301389305298
 30
0.0
 10
37.47357814682073
 20
-20.57730467265069
 30
0.0
 10
37.52082721786748
 20
-20.56246754774705
 30
0.0
 10
37.54040820577359
 20
-20.54350658730115
 30
0.0
  0
SPLINE
  5
170
330
1F
100
AcDbEntity
  8
0
  6
Continuous
 62
   144
370
    18
100
AcDbSpline
210
0.0
220
0.0
230
1.0
 70
     8
 71
     3
 72
    11
 73
     7
 74
     0
 42
0.000000001
 43
0.00000001
 40
0.0
 40
0.0
 40
0.0
 40
0.0
 40
0.0097982426798383
 40
0.0950232656092251
 40
0.7258565749106505
 40
1.0
 40
1.0
 40
1.0
 40
1.0
 10
37.54040820577348
 20
-2.956748239898693
 30
0.0
 10
37.54019355581223
 20
-2.957917467412034
 30
0.0
 10
37.53811188250139
 20
-2.969256624869978
 30
0.0
 10
37.51936275223989
 20
-3.055556386656323
 30
0.0
 10
37.47663799969803
 20
-3.177560163006961
 30
0.0
 10
37.38601319517754
 20
-3.26403134769782
 30
0.0
 10
37.35856034101548
 20
-3.290225951207318
 30
0.0
  0
SPLINE
  5
171
330
1F
100
AcDbEntity
  8
0
  6
Continuous
 62
   144
370
    18
100
AcDbSpline
210
0.0
220
0.0
230
1.0
 70
     8
 71
     3
 72
    11
 73
     7
 74
     0
 42
0.000000001
 43
0.00000001
 40
0.0
 40
0.0
 40
0.0
 40
0.0
 40
0.2741434250975029
 40
0.9049767343909905
 40
0.9902017573195336
 40
1.0
 40
1.0
 40
1.0
 40
1.0
 10
37.35856034101215
 20
3.290225951211752
 30
0.0
 10
37.38601319517537
 20
3.264031347700894
 30
0.0
 10
37.47663799969697
 20
3.177560163008092
 30
0.0
 10
37.51936275224143
 20
3.055556386665208
 30
0.0
 10
37.53811188250095
 20
2.969256624868677
 30
0.0
 10
37.54019355581223
 20
2.957917467412883
 30
0.0
 10
37.54040820577353
 20
2.956748239899686
 30
0.0
  0
SPLINE
  5
172
330
1F
100
AcDbEntity
  8
0
  6
Continuous
 62
   144
370
    18
100
AcDbSpline
210
0.0
220
0.0
230
1.0
 70
     8
 71
     3
 72
    12
 73
     8
 74
     0
 42
0.000000001
 43
0.00000001
 40
0.0
 40
0.0
 40
0.0
 40
0.0
 40
0.25
 40
0.25
 40
0.5
 40
0.5
 40
1.0
 40
1.0
 40
1.0
 40
1.0
 10
37.05051025721684
 20
20.59612713325979
 30
0.0
 10
37.1203520700285
 20
20.60042738833805
 30
0.0
 10
37.18689658190593
 20
20.60086822729733
 30
0.0
 10
37.30291637388883
 20
20.59713638699236
 30
0.0
 10
37.35255753908729
 20
20.59301389305229
 30
0.0
 10
37.47357814682073
 20
20.57730467265
 30
0.0
 10
37.5208272178793
 20
20.56246754766498
 30
0.0
 10
37.54040820577359
 20
20.54350658730049
 30
0.0
  0
SPLINE
  5
174
330
1F
100
AcDbEntity
  8
0
  6
Continuous
 62
     7
370
    25
100
AcDbSpline
210
0.0
220
0.0
230
1.0
 70
     8
 71
     3
 72
    26
 73
    22
 74
     0
 42
0.000000001
 43
0.00000001
 40
0.0
 40
0.0
 40
0.0
 40
0.0
 40
0.1250000000000021
 40
0.1250000000000021
 40
0.1875000000000018
 40
0.1875000000000018
 40
0.2500000000000015
 40
0.2500000000000015
 40
0.3750000000000012
 40
0.3750000000000012
 40
0.4375000000000011
 40
0.4375000000000011
 40
0.500000000000001
 40
0.500000000000001
 40
0.6250000000000008
 40
0.6250000000000008
 40
0.7500000000000004
 40
0.7500000000000004
 40
0.8750000000000002
 40
0.8750000000000002
 40
1.0
 40
1.0
 40
1.0
 40
1.0
 10
31.75403990115527
 20
-24.38180996181226
 30
0.0
 10
32.07809358458319
 20
-24.44541668923956
 30
0.0
 10
32.40694904855835
 20
-24.47680596922852
 30
0.0
 10
32.89418754874696
 20
-24.47606601229791
 30
0.0
 10
33.05618865455906
 20
-24.46792045813119
 30
0.0
 10
33.37935184960006
 20
-24.4355840336702
 30
0.0
 10
33.54149908732951
 20
-24.41114905570215
 30
0.0
 10
34.01664416067774
 20
-24.3148124689692
 30
0.0
 10
34.31977026179423
 20
-24.22047966561201
 30
0.0
 10
34.75423857192011
 20
-24.03460274411077
 30
0.0
 10
34.89651632203267
 20
-23.96466771116415
 30
0.0
 10
35.16891024129393
 20
-23.81215005603984
 30
0.0
 10
35.2990362996139
 20
-23.7297209186144
 30
0.0
 10
35.67171835943677
 20
-23.46452326740328
 30
0.0
 10
35.89819385001197
 20
-23.26243968366393
 30
0.0
 10
36.29578446905879
 20
-22.81606955171009
 30
0.0
 10
36.46299600565689
 20
-22.57694260912692
 30
0.0
 10
36.7361368137471
 20
-22.06808727517384
 30
0.0
 10
36.84181910245976
 20
-21.79617274749373
 30
0.0
 10
36.98086869601236
 20
-21.24665137726889
 30
0.0
 10
37.01623591598102
 20
-20.96630040316885
 30
0.0
 10
37.01625851781593
 20
-20.68019900065901
 30
0.0
  0
SPLINE
  5
175
330
1F
100
AcDbEntity
  8
0
  6
Continuous
 62
     7
370
    25
100
AcDbSpline
210
0.0
220
0.0
230
1.0
 70
     8
 71
     3
 72
    20
 73
    16
 74
     0
 42
0.000000001
 43
0.00000001
 40
0.0
 40
0.0
 40
0.0
 40
0.0
 40
0.0624999999999999
 40
0.0624999999999999
 40
0.1249999999999999
 40
0.1249999999999999
 40
0.2499999999999999
 40
0.2499999999999999
 40
0.3749999999999999
 40
0.3749999999999999
 40
0.5
 40
0.5
 40
0.7499999999999999
 40
0.7499999999999999
 40
1.0
 40
1.0
 40
1.0
 40
1.0
 10
6.500000000000061
 20
-16.37352858417506
 30
0.0
 10
6.955458516480051
 20
-16.67180892227926
 30
0.0
 10
7.428294172301952
 20
-16.94976335727511
 30
0.0
 10
8.39105078490765
 20
-17.47390322454403
 30
0.0
 10
8.881584210632788
 20
-17.72041154553405
 30
0.0
 10
10.37376964731529
 20
-18.42548591124613
 30
0.0
 10
11.39552476675726
 20
-18.850389264971
 30
0.0
 10
13.47366911190701
 20
-19.64406977230421
 30
0.0
 10
14.52286745786707
 20
-20.0092832500017
 30
0.0
 10
16.63366090100432
 20
-20.69615328809428
 30
0.0
 10
17.69563418187797
 20
-21.01774194309482
 30
0.0
 10
20.89648283059265
 20
-21.93367618021081
 30
0.0
 10
23.05006080558886
 20
-22.47998483849305
 30
0.0
 10
27.38343636175966
 20
-23.48953224410207
 30
0.0
 10
29.56350747827069
 20
-23.95184231796635
 30
0.0
 10
31.75403990115527
 20
-24.38180996181225
 30
0.0
  0
SPLINE
  5
177
330
1F
100
AcDbEntity
  8
0
  6
Continuous
 62
   144
370
    18
100
AcDbSpline
210
0.0
220
0.0
230
1.0
 70
     8
 71
     3
 72
     8
 73
     4
 74
     0
 42
0.000000001
 43
0.00000001
 40
0.0
 40
0.0
 40
0.0
 40
0.0
 40
0.0000620694496776
 40
0.0000620694496776
 40
0.0000620694496776
 40
0.0000620694496776
 10
37.01626102169398
 20
-20.64850902377107
 30
0.0
 10
37.0162624378868
 20
-20.63058796660439
 30
0.0
 10
37.0165164908598
 20
-20.61266969469741
 30
0.0
 10
37.01702311382621
 20
-20.59476223199335
 30
0.0
  0
SPLINE
  5
179
330
1F
100
AcDbEntity
  8
0
  6
Continuous
 62
     7
370
    25
100
AcDbSpline
210
0.0
220
0.0
230
1.0
 70
     8
 71
     3
 72
    18
 73
    14
 74
     0
 42
0.000000001
 43
0.00000001
 40
0.0
 40
0.0
 40
0.0
 40
0.0
 40
0.2499999999999999
 40
0.2499999999999999
 40
0.4999999999999998
 40
0.4999999999999998
 40
0.6249999999999998
 40
0.6249999999999998
 40
0.7499999999999999
 40
0.7499999999999999
 40
0.8749999999999999
 40
0.8749999999999999
 40
1.0
 40
1.0
 40
1.0
 40
1.0
 10
31.63175911166538
 20
-25.02861320140229
 30
0.0
 10
29.45224560479304
 20
-24.59998187987076
 30
0.0
 10
27.28342826695074
 20
-24.13888473319555
 30
0.0
 10
22.97301740356039
 20
-23.13181323272354
 30
0.0
 10
20.83116091646692
 20
-22.586720023751
 30
0.0
 10
17.64807916247257
 20
-21.67358382525095
 30
0.0
 10
16.59206120535844
 20
-21.35308529419368
 30
0.0
 10
14.49311728455599
 20
-20.66927995673833
 30
0.0
 10
13.4501383381197
 20
-20.30615851841284
 30
0.0
 10
11.38275688212437
 20
-19.51830071695641
 30
0.0
 10
10.36498275235287
 20
-19.09667415733854
 30
0.0
 10
8.383662513687828
 20
-18.17016190741941
 30
0.0
 10
7.418316866244501
 20
-17.66667973627809
 30
0.0
 10
6.500000000000061
 20
-17.08631378925937
 30
0.0
  0
SPLINE
  5
17A
330
1F
100
AcDbEntity
  8
0
  6
Continuous
 62
     7
370
    25
100
AcDbSpline
210
0.0
220
0.0
230
1.0
 70
     8
 71
     3
 72
    22
 73
    18
 74
     0
 42
0.000000001
 43
0.00000001
 40
0.0
 40
0.0
 40
0.0
 40
0.0
 40
0.125
 40
0.125
 40
0.25
 40
0.25
 40
0.375
 40
0.375
 40
0.5
 40
0.5
 40
0.625
 40
0.625
 40
0.75
 40
0.75
 40
0.875
 40
0.875
 40
1.0
 40
1.0
 40
1.0
 40
1.0
 10
37.01625851781603
 20
20.68019900065836
 30
0.0
 10
37.01623591907932
 20
20.96626118613407
 30
0.0
 10
36.98019453752799
 20
21.25055314987621
 30
0.0
 10
36.84066153672227
 20
21.79949352630866
 30
0.0
 10
36.73627378013155
 20
22.06820740142335
 30
0.0
 10
36.46076657266117
 20
22.58071783937224
 30
0.0
 10
36.29293061991945
 20
22.81954333124888
 30
0.0
 10
35.89791868398395
 20
23.26247666477403
 30
0.0
 10
35.66872890510642
 20
23.46701363855278
 30
0.0
 10
35.17112095085307
 20
23.82037647844041
 30
0.0
 10
34.8993918612146
 20
23.97266488394383
 30
0.0
 10
34.31550863345834
 20
24.22213928533969
 30
0.0
 10
34.0119184762091
 20
24.31596857644338
 30
0.0
 10
33.38212677002061
 20
24.44326233171088
 30
0.0
 10
33.05300518404647
 20
24.47608066427613
 30
0.0
 10
32.40263753391903
 20
24.47655354321413
 30
0.0
 10
32.07803716676699
 20
24.44540561529548
 30
0.0
 10
31.75403990115522
 20
24.38180996181315
 30
0.0
  0
SPLINE
  5
17B
330
1F
100
AcDbEntity
  8
0
  6
Continuous
 62
   144
370
    18
100
AcDbSpline
210
0.0
220
0.0
230
1.0
 70
     8
 71
     3
 72
     8
 73
     4
 74
     0
 42
0.000000001
 43
0.00000001
 40
0.0000000000000004
 40
0.0000000000000004
 40
0.0000000000000004
 40
0.0000000000000004
 40
0.0000620694496781
 40
0.0000620694496781
 40
0.0000620694496781
 40
0.0000620694496781
 10
37.01702311382632
 20
20.59476223199229
 30
0.0
 10
37.01651649085991
 20
20.61266969469649
 30
0.0
 10
37.01626243788692
 20
20.63058796660362
 30
0.0
 10
37.01626102169408
 20
20.64850902377042
 30
0.0
  0
SPLINE
  5
17E
330
1F
100
AcDbEntity
  8
0
  6
Continuous
 62
     7
370
    25
100
AcDbSpline
210
0.0
220
0.0
230
1.0
 70
     8
 71
     3
 72
    18
 73
    14
 74
     0
 42
0.000000001
 43
0.00000001
 40
0.0
 40
0.0
 40
0.0
 40
0.0
 40
0.125
 40
0.125
 40
0.2499999999999999
 40
0.2499999999999999
 40
0.3749999999999999
 40
0.3749999999999999
 40
0.5000000000000001
 40
0.5000000000000001
 40
0.75
 40
0.75
 40
1.0
 40
1.0
 40
1.0
 40
1.0
 10
6.500000000000061
 20
-26.11823963104844
 30
0.0
 10
7.418356672249882
 20
-26.1685695182626
 30
0.0
 10
8.382632864521234
 20
-26.22246268958947
 30
0.0
 10
10.36033915495371
 20
-26.33982286349779
 30
0.0
 10
11.374768102978
 20
-26.4032099530766
 30
0.0
 10
13.4376654035106
 20
-26.54081472884247
 30
0.0
 10
14.48435151628463
 20
-26.61500222111468
 30
0.0
 10
16.58551712751327
 20
-26.77361518127754
 30
0.0
 10
17.64249381158745
 20
-26.85817352629578
 30
0.0
 10
20.82806857300557
 20
-27.12830347275502
 30
0.0
 10
22.97108058571667
 20
-27.3304015448821
 30
0.0
 10
27.28302322701443
 20
-27.77961550080372
 30
0.0
 10
29.45221227504091
 20
-28.02682177642795
 30
0.0
 10
31.63175911166538
 20
-28.29675306924426
 30
0.0
  0
SPLINE
  5
17F
330
1F
100
AcDbEntity
  8
0
  6
Continuous
 62
     7
370
    25
100
AcDbSpline
210
0.0
220
0.0
230
1.0
 70
     8
 71
     3
 72
    26
 73
    22
 74
     0
 42
0.000000001
 43
0.00000001
 40
0.0
 40
0.0
 40
0.0
 40
0.0
 40
0.1250000000000011
 40
0.1250000000000011
 40
0.2500000000000023
 40
0.2500000000000023
 40
0.3750000000000034
 40
0.3750000000000034
 40
0.5000000000000046
 40
0.5000000000000046
 40
0.562500000000005
 40
0.562500000000005
 40
0.6250000000000054
 40
0.6250000000000054
 40
0.7500000000000042
 40
0.7500000000000042
 40
0.8125000000000039
 40
0.8125000000000039
 40
0.8750000000000034
 40
0.8750000000000034
 40
1.0
 40
1.0
 40
1.0
 40
1.0
 10
37.50000000000004
 20
-20.9299340250095
 30
0.0
 10
37.50000000000004
 20
-21.24626046210038
 30
0.0
 10
37.46035896970373
 20
-21.55628463647245
 30
0.0
 10
37.30458077249682
 20
-22.16406365825955
 30
0.0
 10
37.186191232914
 20
-22.46484573958214
 30
0.0
 10
36.88051895448152
 20
-23.02752372695325
 30
0.0
 10
36.69348290421398
 20
-23.29191383292151
 30
0.0
 10
36.24904997319789
 20
-23.78541994272209
 30
0.0
 10
35.99620755007821
 20
-24.00866055099487
 30
0.0
 10
35.58030763952286
 20
-24.301768790686
 30
0.0
 10
35.43513229339857
 20
-24.3928826062886
 30
0.0
 10
35.13132973490962
 20
-24.56150402680233
 30
0.0
 10
34.97276115936288
 20
-24.63880860516499
 30
0.0
 10
34.48860883921828
 20
-24.84441086943626
 30
0.0
 10
34.15093020508847
 20
-24.94892556084497
 30
0.0
 10
33.6218110725483
 20
-25.05606921209751
 30
0.0
 10
33.44131697060393
 20
-25.08334325247883
 30
0.0
 10
33.08156267958145
 20
-25.11973281296901
 30
0.0
 10
32.90121142965774
 20
-25.12911574231785
 30
0.0
 10
32.35876053570053
 20
-25.13123304642835
 30
0.0
 10
31.99263875889607
 20
-25.09763208038747
 30
0.0
 10
31.63175911166538
 20
-25.0286132014023
 30
0.0
  0
LWPOLYLINE
  5
180
330
1F
100
AcDbEntity
  8
0
  6
Continuous
 62
   144
370
    18
100
AcDbPolyline
 90
        9
 70
   128
 43
0.0
 10
37.0162585178
 20
-20.6801990007
 10
37.1114590936
 20
-20.6863542344
 10
37.2025513502
 20
-20.7014876814
 10
37.2861776788
 20
-20.7250415311
 10
37.3592556603
 20
-20.7561476022
 10
37.4190916816
 20
-20.7936593423
 10
37.4634802208
 20
-20.8361940901
 10
37.4907851416
 20
-20.8821840389
 10
37.5
 20
-20.929934025
  0
SPLINE
  5
181
330
1F
100
AcDbEntity
  8
0
  6
Continuous
 62
     7
370
    25
100
AcDbSpline
210
0.0
220
0.0
230
1.0
 70
     8
 71
     3
 72
    24
 73
    20
 74
     0
 42
0.000000001
 43
0.00000001
 40
0.0
 40
0.0
 40
0.0
 40
0.0
 40
0.1250000000000005
 40
0.1250000000000005
 40
0.250000000000001
 40
0.250000000000001
 40
0.3750000000000015
 40
0.3750000000000015
 40
0.500000000000002
 40
0.500000000000002
 40
0.6250000000000024
 40
0.6250000000000024
 40
0.750000000000003
 40
0.750000000000003
 40
0.812500000000002
 40
0.812500000000002
 40
0.875000000000001
 40
0.875000000000001
 40
1.0
 40
1.0
 40
1.0
 40
1.0
 10
31.63175911166538
 20
25.02861320140319
 30
0.0
 10
31.99257573716568
 20
25.0976200273695
 30
0.0
 10
32.35400249480047
 20
25.13096889931097
 30
0.0
 10
33.07803887289312
 20
25.12870486977945
 30
0.0
 10
33.44436995816985
 20
25.09178284100761
 30
0.0
 10
34.14570143681306
 20
24.95019961520503
 30
0.0
 10
34.48386993405411
 20
24.84624067616227
 30
0.0
 10
35.13443785186715
 20
24.57033165983744
 30
0.0
 10
35.43758643098604
 20
24.40194757655635
 30
0.0
 10
35.9928505435525
 20
24.01142596743617
 30
0.0
 10
36.24879145031623
 20
23.78541116789422
 30
0.0
 10
36.69029165062094
 20
23.29575099646258
 30
0.0
 10
36.87801102240412
 20
23.03171663652346
 30
0.0
 10
37.10924469834037
 20
22.60669741860247
 30
0.0
 10
37.17747738296795
 20
22.46056581847253
 30
0.0
 10
37.29379939969657
 20
22.16561105640813
 30
0.0
 10
37.34236043055228
 20
22.01596320731492
 30
0.0
 10
37.45959678137029
 20
21.56063214418824
 30
0.0
 10
37.50000000000004
 20
21.24621404895003
 30
0.0
 10
37.50000000000004
 20
20.92993402500886
 30
0.0
  0
LWPOLYLINE
  5
182
330
1F
100
AcDbEntity
  8
0
  6
Continuous
 62
   144
370
    18
100
AcDbPolyline
 90
        9
 70
   128
 43
0.0
 10
37.5
 20
20.929934025
 10
37.4907851416
 20
20.8821840389
 10
37.4634802208
 20
20.8361940901
 10
37.4190916816
 20
20.7936593423
 10
37.3592556603
 20
20.7561476022
 10
37.2861776788
 20
20.7250415311
 10
37.2025513502
 20
20.7014876814
 10
37.1114590936
 20
20.6863542344
 10
37.0162585178
 20
20.6801990007
  0
SPLINE
  5
183
330
1F
100
AcDbEntity
  8
0
  6
Continuous
 62
     7
370
    25
100
AcDbSpline
210
0.0
220
0.0
230
1.0
 70
     8
 71
     3
 72
    24
 73
    20
 74
     0
 42
0.000000001
 43
0.00000001
 40
0.0
 40
0.0
 40
0.0
 40
0.0
 40
0.1249999999999997
 40
0.1249999999999997
 40
0.2499999999999993
 40
0.2499999999999993
 40
0.374999999999999
 40
0.374999999999999
 40
0.4999999999999987
 40
0.4999999999999987
 40
0.6249999999999983
 40
0.6249999999999983
 40
0.749999999999998
 40
0.749999999999998
 40
0.8124999999999982
 40
0.8124999999999982
 40
0.8749999999999986
 40
0.8749999999999986
 40
1.0
 40
1.0
 40
1.0
 40
1.0
 10
31.63175911166538
 20
-28.29675306924424
 30
0.0
 10
31.99257573716568
 20
-28.34278547247959
 30
0.0
 10
32.35400249480047
 20
-28.35405300576805
 30
0.0
 10
33.07803887289307
 20
-28.30940906105029
 30
0.0
 10
33.44436995816985
 20
-28.25200342392269
 30
0.0
 10
34.14570143681301
 20
-28.0728085837118
 30
0.0
 10
34.48386993405406
 20
-27.95151964763514
 30
0.0
 10
35.1344378518671
 20
-27.6433652614978
 30
0.0
 10
35.43758643098599
 20
-27.46052216762656
 30
0.0
 10
35.9928505435525
 20
-27.04389796499268
 30
0.0
 10
36.24879145031623
 20
-26.80606026492821
 30
0.0
 10
36.69029165062094
 20
-26.29561202612551
 30
0.0
 10
36.87801102240412
 20
-26.02251293786678
 30
0.0
 10
37.10924469834043
 20
-25.5853471760826
 30
0.0
 10
37.17747738296795
 20
-25.43542871921303
 30
0.0
 10
37.29379939969657
 20
-25.13349435700075
 30
0.0
 10
37.34236043055228
 20
-24.98062959409561
 30
0.0
 10
37.45959678137029
 20
-24.51637094284725
 30
0.0
 10
37.49999999999998
 20
-24.19692074052731
 30
0.0
 10
37.50000000000004
 20
-23.87660423930341
 30
0.0
  0
SPLINE
  5
185
330
1F
100
AcDbEntity
  8
0
  6
Continuous
 62
     7
370
    25
100
AcDbSpline
210
0.0
220
0.0
230
1.0
 70
     8
 71
     3
 72
    26
 73
    22
 74
     0
 42
0.000000001
 43
0.00000001
 40
0.0
 40
0.0
 40
0.0
 40
0.0
 40
0.1250000000000008
 40
0.1250000000000008
 40
0.2500000000000017
 40
0.2500000000000017
 40
0.3750000000000025
 40
0.3750000000000025
 40
0.5000000000000033
 40
0.5000000000000033
 40
0.5625000000000037
 40
0.5625000000000037
 40
0.6250000000000039
 40
0.6250000000000039
 40
0.7500000000000029
 40
0.7500000000000029
 40
0.8125000000000022
 40
0.8125000000000022
 40
0.8750000000000014
 40
0.8750000000000014
 40
1.0
 40
1.0
 40
1.0
 40
1.0
 10
37.50000000000004
 20
23.87660423930343
 30
0.0
 10
37.50000000000004
 20
24.19696774601804
 30
0.0
 10
37.46035896970373
 20
24.51194829197726
 30
0.0
 10
37.30458077249682
 20
25.13162385682674
 30
0.0
 10
37.186191232914
 20
25.43944945677165
 30
0.0
 10
36.88051895448147
 20
26.01819234914977
 30
0.0
 10
36.69348290421404
 20
26.2916234170351
 30
0.0
 10
36.24904997319794
 20
26.80605804318791
 30
0.0
 10
35.99620755007826
 20
27.04097658816375
 30
0.0
 10
35.58030763952286
 20
27.35363324687389
 30
0.0
 10
35.43513229339857
 20
27.45162163664984
 30
0.0
 10
35.13132973490962
 20
27.63483531020987
 30
0.0
 10
34.97276115936282
 20
27.71985698954675
 30
0.0
 10
34.48860883921834
 20
27.94945241430707
 30
0.0
 10
34.15093020508853
 20
28.07125896594401
 30
0.0
 10
33.6218110725483
 20
28.20677143618857
 30
0.0
 10
33.44131697060393
 20
28.24392947597283
 30
0.0
 10
33.08156267958151
 20
28.30046834781329
 30
0.0
 10
32.90121142965774
 20
28.32017390058762
 30
0.0
 10
32.35876053570053
 20
28.3540312813278
 30
0.0
 10
31.99263875889607
 20
28.3427935126904
 30
0.0
 10
31.63175911166538
 20
28.2967530692443
 30
0.0
  0
LWPOLYLINE
  5
187
330
1F
100
AcDbEntity
  8
0
  6
Continuous
 62
     7
370
    25
100
AcDbPolyline
 90
        9
 70
   128
 43
0.0
 10
31.6317591117
 20
-28.2967530692
 10
31.6412638914
 20
-28.3275108821
 10
31.6533997756
 20
-28.3419075713
 10
31.6677537913
 20
-28.3394532309
 10
31.6838374847
 20
-28.3202313799
 10
31.7011035426
 20
-28.28489612
 10
31.7189644171
 20
-28.2346498774
 10
31.7368123191
 20
-28.1712024851
 10
31.7540399012
 20
-28.0967129991
  0
LWPOLYLINE
  5
188
330
1F
100
AcDbEntity
  8
0
  6
Continuous
 62
     7
370
    25
100
AcDbPolyline
 90
        9
 70
   128
 43
0.0
 10
31.7540399012
 20
28.0967129991
 10
31.7368123191
 20
28.1712024851
 10
31.7189644171
 20
28.2346498774
 10
31.7011035426
 20
28.28489612
 10
31.6838374847
 20
28.3202313799
 10
31.6677537913
 20
28.3394532309
 10
31.6533997756
 20
28.3419075713
 10
31.6412638914
 20
28.3275108821
 10
31.6317591117
 20
28.2967530692
  0
SPLINE
  5
199
330
1F
100
AcDbEntity
  8
0
  6
Continuous
 62
     8
370
    25
100
AcDbSpline
210
0.0
220
0.0
230
1.0
 70
     8
 71
     3
 72
    16
 73
    12
 74
     0
 42
0.000000001
 43
0.00000001
 40
0.0
 40
0.0
 40
0.0
 40
0.0
 40
0.0972142787403249
 40
0.2149918415080881
 40
0.3290354379307561
 40
0.4462233866092044
 40
0.5620716440845295
 40
0.6810564284523601
 40
0.8005185950448664
 40
0.9232569264961406
 40
1.0
 40
1.0
 40
1.0
 40
1.0
 10
389.7118649435005
 20
-27.43679531871189
 30
0.0
 10
389.7204954761011
 20
-27.40605189805029
 30
0.0
 10
389.7395821177037
 20
-27.33806204400888
 30
0.0
 10
389.9748703333419
 20
-26.37491670025792
 30
0.0
 10
390.3811312762502
 20
-24.74459326647986
 30
0.0
 10
390.9443013562758
 20
-22.477297589419
 30
0.0
 10
391.6576889408516
 20
-19.61245884480738
 30
0.0
 10
392.4988827729993
 20
-16.23202321846862
 30
0.0
 10
393.4626197709856
 20
-12.37082701490572
 30
0.0
 10
394.3808879133206
 20
-8.688626065294356
 30
0.0
 10
394.9799347603731
 20
-6.285591100373802
 30
0.0
 10
395.2103958212721
 20
-5.361112505555802
 30
0.0
  0
SPLINE
  5
19B
330
1F
100
AcDbEntity
  8
0
  6
Continuous
 62
     8
370
    25
100
AcDbSpline
210
0.0
220
0.0
230
1.0
 70
     8
 71
     3
 72
    17
 73
    13
 74
     0
 42
0.000000001
 43
0.00000001
 40
0.0
 40
0.0
 40
0.0
 40
0.0
 40
0.0000016373549438
 40
0.0761600680550372
 40
0.1958294967490963
 40
0.318697219117436
 40
0.4346008721290265
 40
0.5535817271841903
 40
0.6675650644780639
 40
0.7846584606124437
 40
0.899085468162907
 40
1.0
 40
1.0
 40
1.0
 40
1.0
 10
397.3247106599213
 20
-5.824920992056366
 30
0.0
 10
397.3247053980598
 20
-5.824939942386385
 30
0.0
 10
397.07995471879
 20
-6.706397215462294
 30
0.0
 10
396.4602411247196
 20
-8.953974864793446
 30
0.0
 10
395.484359736406
 20
-12.47694269182975
 30
0.0
 10
394.46800731952
 20
-16.14486055619057
 30
0.0
 10
393.5639714565912
 20
-19.41456173049615
 30
0.0
 10
392.8097804454218
 20
-22.13954801714353
 30
0.0
 10
392.2028052683094
 20
-24.33674399568536
 30
0.0
 10
391.7715316558775
 20
-25.89269438428738
 30
0.0
 10
391.5157141684712
 20
-26.83336593673893
 30
0.0
 10
391.4945691542276
 20
-26.90159228422162
 30
0.0
 10
391.4846600618196
 20
-26.93356488892553
 30
0.0
  0
SPLINE
  5
19C
330
1F
100
AcDbEntity
  8
0
  6
Continuous
 62
     8
370
    25
100
AcDbSpline
210
0.0
220
0.0
230
1.0
 70
     8
 71
     3
 72
    16
 73
    12
 74
     0
 42
0.000000001
 43
0.00000001
 40
0.0
 40
0.0
 40
0.0
 40
0.0
 40
0.1085714815856474
 40
0.2207337319193114
 40
0.3299845169982301
 40
0.4419644684859902
 40
0.5592641509008219
 40
0.6797622271622643
 40
0.8005917652870335
 40
0.9246947951870969
 40
1.0
 40
1.0
 40
1.0
 40
1.0
 10
393.0471257038672
 20
-26.09457527014709
 30
0.0
 10
393.0624403940774
 20
-26.04074207918982
 30
0.0
 10
393.0935762750098
 20
-25.93129528001586
 30
0.0
 10
393.3517466301233
 20
-25.02285573437902
 30
0.0
 10
393.75890867139
 20
-23.59032425643318
 30
0.0
 10
394.3259112111009
 20
-21.59511197122388
 30
0.0
 10
395.0541850036881
 20
-19.03206651478051
 30
0.0
 10
395.9313862457275
 20
-15.94426489222067
 30
0.0
 10
396.9337714350626
 20
-12.41506306942218
 30
0.0
 10
397.8829666911121
 20
-9.072273746342303
 30
0.0
 10
398.4997913211467
 20
-6.899335531366883
 30
0.0
 10
398.7327310749401
 20
-6.078739744236795
 30
0.0
  0
LINE
  5
1B5
330
1F
100
AcDbEntity
  8
0
  6
Continuous
 62
     7
370
    25
100
AcDbLine
 10
369.4325093613
 20
27.61740242
 30
0.0
 11
367.0
 21
27.5290496856
 31
0.0
  0
LINE
  5
1B6
330
1F
100
AcDbEntity
  8
0
  6
Continuous
 62
     7
370
    25
100
AcDbLine
 10
367.0
 20
-27.5290496856
 30
0.0
 11
369.1902068921
 21
-27.6096085593
 31
0.0
  0
LINE
  5
1B7
330
1F
100
AcDbEntity
  8
0
  6
Continuous
 62
     7
370
    25
100
AcDbLine
 10
391.4604935543
 20
-26.9834310493
 30
0.0
 11
393.0651777304
 21
-26.0860973543
 31
0.0
  0
LINE
  5
1B8
330
1F
100
AcDbEntity
  8
0
  6
Continuous
 62
     7
370
    25
100
AcDbLine
 10
354.0
 20
27.127063826
 30
0.0
 11
349.0904075239
 21
26.5
 31
0.0
  0
LINE
  5
1B9
330
1F
100
AcDbEntity
  8
0
  6
Continuous
 62
     7
370
    25
100
AcDbLine
 10
349.0904075239
 20
-26.5
 30
0.0
 11
354.0
 21
-27.127063826
 31
0.0
  0
LINE
  5
1BA
330
1F
100
AcDbEntity
  8
0
  6
Continuous
 62
     7
370
    25
100
AcDbLine
 10
367.0
 20
25.5
 30
0.0
 11
354.0
 21
25.5
 31
0.0
  0
LINE
  5
1BB
330
1F
100
AcDbEntity
  8
0
  6
Continuous
 62
     7
370
    25
100
AcDbLine
 10
354.0
 20
-25.5
 30
0.0
 11
367.0
 21
-25.5
 31
0.0
  0
LINE
  5
1BC
330
1F
100
AcDbEntity
  8
0
  6
Continuous
 62
     7
370
    25
100
AcDbLine
 10
345.211145618
 20
25.0
 30
0.0
 11
344.5
 21
25.0
 31
0.0
  0
LINE
  5
1BD
330
1F
100
AcDbEntity
  8
0
  6
Continuous
 62
     7
370
    25
100
AcDbLine
 10
344.5
 20
-25.0
 30
0.0
 11
345.211145618
 21
-25.0
 31
0.0
  0
LINE
  5
1BE
330
1F
100
AcDbEntity
  8
0
  6
Continuous
 62
     7
370
    25
100
AcDbLine
 10
424.9952813596
 20
-23.206397712
 30
0.0
 11
425.0990895192
 21
-23.1804750947
 31
0.0
  0
LINE
  5
1BF
330
1F
100
AcDbEntity
  8
0
  6
Continuous
 62
     7
370
    25
100
AcDbLine
 10
-8.1365972724
 20
-26.0
 30
0.0
 11
-6.5
 21
-26.0
 31
0.0
  0
LINE
  5
1C0
330
1F
100
AcDbEntity
  8
0
  6
Continuous
 62
     7
370
    25
100
AcDbLine
 10
-6.5
 20
26.0
 30
0.0
 11
-8.1365972724
 21
26.0
 31
0.0
  0
LINE
  5
1C1
330
1F
100
AcDbEntity
  8
0
  6
Continuous
 62
     7
370
    25
100
AcDbLine
 10
-6.5
 20
-25.0
 30
0.0
 11
6.5
 21
-25.0
 31
0.0
  0
LINE
  5
1C2
330
1F
100
AcDbEntity
  8
0
  6
Continuous
 62
     7
370
    25
100
AcDbLine
 10
6.5
 20
25.0
 30
0.0
 11
-6.5
 21
25.0
 31
0.0
  0
LINE
  5
1C3
330
1F
100
AcDbEntity
  8
0
  6
Continuous
 62
     7
370
    25
100
AcDbLine
 10
39.5
 20
-24.0
 30
0.0
 11
41.5
 21
-24.0
 31
0.0
  0
LINE
  5
1C4
330
1F
100
AcDbEntity
  8
0
  6
Continuous
 62
     7
370
    25
100
AcDbLine
 10
41.5
 20
24.0
 30
0.0
 11
39.5
 21
24.0
 31
0.0
  0
LINE
  5
1C5
330
1F
100
AcDbEntity
  8
0
  6
Continuous
 62
     7
370
    25
100
AcDbLine
 10
-137.5
 20
19.0
 30
0.0
 11
-137.5
 21
-19.0
 31
0.0
  0
LINE
  5
1C6
330
1F
100
AcDbEntity
  8
0
  6
Continuous
 62
     7
370
    25
100
AcDbLine
 10
42.5
 20
-20.0
 30
0.0
 11
344.0
 21
-20.0
 31
0.0
  0
LINE
  5
1C7
330
1F
100
AcDbEntity
  8
0
  6
Continuous
 62
     7
370
    25
100
AcDbLine
 10
344.0
 20
20.0
 30
0.0
 11
42.5
 21
20.0
 31
0.0
  0
LINE
  5
1C8
330
1F
100
AcDbEntity
  8
0
  6
Continuous
 62
     7
370
    25
100
AcDbLine
 10
-276.5
 20
-4.0
 30
0.0
 11
-137.5
 21
-4.0
 31
0.0
  0
LINE
  5
1C9
330
1F
100
AcDbEntity
  8
0
  6
Continuous
 62
     7
370
    25
100
AcDbLine
 10
-137.5
 20
4.0
 30
0.0
 11
-276.5
 21
4.0
 31
0.0
  0
LINE
  5
1D5
330
1F
100
AcDbEntity
  8
0
  6
Continuous
 62
     7
370
    25
100
AcDbLine
 10
367.0
 20
27.5290496856
 30
0.0
 11
367.0
 21
-27.5290496856
 31
0.0
  0
LINE
  5
1D6
330
1F
100
AcDbEntity
  8
0
  6
Continuous
 62
     7
370
    25
100
AcDbLine
 10
397.3248237434
 20
-5.824934598
 30
0.0
 11
398.7560768386
 21
-5.9971395433
 31
0.0
  0
LINE
  5
1D7
330
1F
100
AcDbEntity
  8
0
  6
Continuous
 62
     7
370
    25
100
AcDbLine
 10
413.0239716454
 20
8.8318178664
 30
0.0
 11
413.116909379
 21
7.2161818289
 31
0.0
  0
LINE
  5
1D8
330
1F
100
AcDbEntity
  8
0
  6
Continuous
 62
     7
370
    25
100
AcDbLine
 10
354.0
 20
27.127063826
 30
0.0
 11
354.0
 21
-27.127063826
 31
0.0
  0
LINE
  5
1D9
330
1F
100
AcDbEntity
  8
0
  6
Continuous
 62
     7
370
    25
100
AcDbLine
 10
349.0904075239
 20
26.5
 30
0.0
 11
349.0904075239
 21
-26.5
 31
0.0
  0
LINE
  5
1DA
330
1F
100
AcDbEntity
  8
0
  6
Continuous
 62
     7
370
    25
100
AcDbLine
 10
345.211145618
 20
25.0
 30
0.0
 11
345.211145618
 21
-25.0
 31
0.0
  0
LINE
  5
1DB
330
1F
100
AcDbEntity
  8
0
  6
Continuous
 62
     7
370
    25
100
AcDbLine
 10
344.0
 20
-24.5
 30
0.0
 11
344.0
 21
24.5
 31
0.0
  0
LINE
  5
1DC
330
1F
100
AcDbEntity
  8
0
  6
Continuous
 62
     7
370
    25
100
AcDbLine
 10
416.2401911208
 20
9.288267132
 30
0.0
 11
416.2265000007
 21
7.6765236139
 31
0.0
  0
LINE
  5
1DD
330
1F
100
AcDbEntity
  8
0
  6
Continuous
 62
     7
370
    25
100
AcDbLine
 10
440.2552924461
 20
4.492604997
 30
0.0
 11
439.3495387218
 21
3.2045664393
 31
0.0
  0
LINE
  5
1DE
330
1F
100
AcDbEntity
  8
0
  6
Continuous
 62
     7
370
    25
100
AcDbLine
 10
439.4056435546
 20
-9.3639603247
 30
0.0
 11
440.034987286
 21
-10.4744900222
 31
0.0
  0
LINE
  5
1DF
330
1F
100
AcDbEntity
  8
0
  6
Continuous
 62
   144
370
    18
100
AcDbLine
 10
420.2745229123
 20
-19.7108549352
 30
0.0
 11
420.608991304
 21
-20.5845312509
 31
0.0
  0
LINE
  5
1E0
330
1F
100
AcDbEntity
  8
0
  6
Continuous
 62
     7
370
    25
100
AcDbLine
 10
6.5
 20
-9.0319258418
 30
0.0
 11
6.5
 21
9.0319258418
 31
0.0
  0
LINE
  5
1E1
330
1F
100
AcDbEntity
  8
0
  6
Continuous
 62
     7
370
    25
100
AcDbLine
 10
31.6317591117
 20
-3.2681398678
 30
0.0
 11
31.6317591117
 21
3.2681398678
 31
0.0
  0
LINE
  5
1E2
330
1F
100
AcDbEntity
  8
0
  6
Continuous
 62
   144
370
    18
100
AcDbLine
 10
37.0162610217
 20
-3.4464169247
 30
0.0
 11
37.0162585178
 21
-3.4464057815
 31
0.0
  0
LINE
  5
1E3
330
1F
100
AcDbEntity
  8
0
  6
Continuous
 62
   144
370
    18
100
AcDbLine
 10
37.0162585178
 20
3.4464057815
 30
0.0
 11
37.0162610217
 21
3.4464169247
 31
0.0
  0
LINE
  5
1E4
330
1F
100
AcDbEntity
  8
0
  6
Continuous
 62
   144
370
    18
100
AcDbLine
 10
37.5
 20
2.9466702143
 30
0.0
 11
37.5
 21
-2.9466702143
 31
0.0
  0
LINE
  5
1E5
330
1F
100
AcDbEntity
  8
0
  6
Continuous
 62
     7
370
    25
100
AcDbLine
 10
31.6317591117
 20
25.0286132014
 30
0.0
 11
31.6317591117
 21
28.2967530692
 31
0.0
  0
LINE
  5
1E6
330
1F
100
AcDbEntity
  8
0
  6
Continuous
 62
     7
370
    25
100
AcDbLine
 10
6.5
 20
17.0863137893
 30
0.0
 11
6.5
 21
26.118239631
 31
0.0
  0
LINE
  5
1E7
330
1F
100
AcDbEntity
  8
0
  6
Continuous
 62
     7
370
    25
100
AcDbLine
 10
6.5
 20
9.5073881506
 30
0.0
 11
6.5
 21
16.2035762125
 31
0.0
  0
LINE
  5
1E8
330
1F
100
AcDbEntity
  8
0
  6
Continuous
 62
     7
370
    25
100
AcDbLine
 10
6.5
 20
-16.2035762125
 30
0.0
 11
6.5
 21
-9.5073881506
 31
0.0
  0
LINE
  5
1E9
330
1F
100
AcDbEntity
  8
0
  6
Continuous
 62
     7
370
    25
100
AcDbLine
 10
6.5
 20
-26.118239631
 30
0.0
 11
6.5
 21
-17.0863137893
 31
0.0
  0
LINE
  5
1EA
330
1F
100
AcDbEntity
  8
0
  6
Continuous
 62
     7
370
    25
100
AcDbLine
 10
37.0505102572
 20
3.4441946296
 30
0.0
 11
37.0505102572
 21
20.5961271333
 31
0.0
  0
LINE
  5
1EB
330
1F
100
AcDbEntity
  8
0
  6
Continuous
 62
     7
370
    25
100
AcDbLine
 10
37.0505102572
 20
-20.5961271333
 30
0.0
 11
37.0505102572
 21
-3.4441946296
 31
0.0
  0
LINE
  5
1EC
330
1F
100
AcDbEntity
  8
0
  6
Continuous
 62
     7
370
    25
100
AcDbLine
 10
37.5404082058
 20
-2.9567482399
 30
0.0
 11
37.5404082058
 21
-20.5435065873
 31
0.0
  0
LINE
  5
1ED
330
1F
100
AcDbEntity
  8
0
  6
Continuous
 62
     7
370
    25
100
AcDbLine
 10
37.5404082058
 20
20.5435065873
 30
0.0
 11
37.5404082058
 21
2.9567482399
 31
0.0
  0
LINE
  5
1EE
330
1F
100
AcDbEntity
  8
0
  6
Continuous
 62
   144
370
    18
100
AcDbLine
 10
37.5404082058
 20
-23.5002548272
 30
0.0
 11
37.5404082058
 21
-25.6
 31
0.0
  0
LINE
  5
1EF
330
1F
100
AcDbEntity
  8
0
  6
Continuous
 62
     7
370
    25
100
AcDbLine
 10
-6.5
 20
26.0
 30
0.0
 11
-6.5
 21
-26.0
 31
0.0
  0
LINE
  5
1F0
330
1F
100
AcDbEntity
  8
0
  6
Continuous
 62
     7
370
    25
100
AcDbLine
 10
42.5
 20
23.0
 30
0.0
 11
42.5
 21
-23.0
 31
0.0
  0
LINE
  5
1F1
330
1F
100
AcDbEntity
  8
0
  6
Continuous
 62
   144
370
    18
100
AcDbLine
 10
37.0162585178
 20
-20.6801990007
 30
0.0
 11
37.0162610217
 21
-20.6485090238
 31
0.0
  0
LINE
  5
1F2
330
1F
100
AcDbEntity
  8
0
  6
Continuous
 62
   144
370
    18
100
AcDbLine
 10
37.0162610217
 20
20.6485090238
 30
0.0
 11
37.0162585178
 21
20.6801990007
 31
0.0
  0
LINE
  5
1F3
330
1F
100
AcDbEntity
  8
0
  6
Continuous
 62
     7
370
    25
100
AcDbLine
 10
31.6317591117
 20
-28.2967530692
 30
0.0
 11
31.6317591117
 21
-25.0286132014
 31
0.0
  0
LINE
  5
1F4
330
1F
100
AcDbEntity
  8
0
  6
Continuous
 62
   144
370
    18
100
AcDbLine
 10
37.5
 20
-20.929934025
 30
0.0
 11
37.5
 21
-23.8766042393
 31
0.0
  0
LINE
  5
1F5
330
1F
100
AcDbEntity
  8
0
  6
Continuous
 62
   144
370
    18
100
AcDbLine
 10
37.5
 20
23.8766042393
 30
0.0
 11
37.5
 21
20.929934025
 31
0.0
  0
LINE
  5
1F6
330
1F
100
AcDbEntity
  8
0
  6
Continuous
 62
     7
370
    25
100
AcDbLine
 10
-276.5
 20
-4.0
 30
0.0
 11
-276.5
 21
4.0
 31
0.0
  0
LINE
  5
1FF
330
1F
100
AcDbEntity
  8
0
  6
Continuous
 62
     8
370
    25
100
AcDbLine
 10
416.2561501737
 20
13.225951863
 30
0.0
 11
416.2561501737
 21
24.9338972399
 31
0.0
  0
LINE
  5
200
330
1F
100
AcDbEntity
  8
0
  6
Continuous
 62
     8
370
    25
100
AcDbLine
 10
344.5
 20
25.0
 30
0.0
 11
344.5
 21
-25.0
 31
0.0
  0
LINE
  5
201
330
1F
100
AcDbEntity
  8
0
  6
Continuous
 62
     8
370
    25
100
AcDbLine
 10
444.1030648547
 20
6.827838058
 30
0.0
 11
444.1030648547
 21
16.092887027
 31
0.0
  0
LINE
  5
202
330
1F
100
AcDbEntity
  8
0
  6
Continuous
 62
     8
370
    25
100
AcDbLine
 10
444.1030648547
 20
-16.092887027
 30
0.0
 11
444.1030648547
 21
-13.380718322
 31
0.0
  0
LINE
  5
203
330
1F
100
AcDbEntity
  8
0
  6
Continuous
 62
     8
370
    25
100
AcDbLine
 10
452.4336237661
 20
-10.3444063454
 30
0.0
 11
452.4336237661
 21
10.3444063454
 31
0.0
  0
LINE
  5
204
330
1F
100
AcDbEntity
  8
0
  6
Continuous
 62
     8
370
    25
100
AcDbLine
 10
425.0178796541
 20
-23.1979161167
 30
0.0
 11
424.9964378506
 21
-23.2053857685
 31
0.0
  0
LINE
  5
205
330
1F
100
AcDbEntity
  8
0
  6
Continuous
 62
     8
370
    25
100
AcDbLine
 10
39.5
 20
24.0
 30
0.0
 11
39.5
 21
-24.0
 31
0.0
  0
LINE
  5
206
330
1F
100
AcDbEntity
  8
0
  6
Continuous
 62
     8
370
    25
100
AcDbLine
 10
37.5404082058
 20
25.6
 30
0.0
 11
37.5404082058
 21
23.5002548272
 31
0.0
  0
LINE
  5
207
330
1F
100
AcDbEntity
  8
0
  6
Continuous
 62
     8
370
    25
100
AcDbLine
 10
-8.1365972724
 20
26.0
 30
0.0
 11
-8.1365972724
 21
-26.0
 31
0.0
  0
LINE
  5
208
330
1F
100
AcDbEntity
  8
0
  6
Continuous
 62
     8
370
    25
100
AcDbLine
 10
-10.3402055997
 20
-25.0357088053
 30
0.0
 11
-10.3402055997
 21
25.0357088053
 31
0.0
  0
LINE
  5
209
330
1F
100
AcDbEntity
  8
0
  6
Continuous
 62
     8
370
    25
100
AcDbLine
 10
-30.299774696
 20
-18.2948673657
 30
0.0
 11
-30.299774696
 21
18.2948673657
 31
0.0
  0
LINE
  5
20A
330
1F
100
AcDbEntity
  8
0
  6
Continuous
 62
     8
370
    25
100
AcDbLine
 10
41.5
 20
-24.0
 30
0.0
 11
41.5
 21
24.0
 31
0.0
  0
LINE
  5
20B
330
1F
100
AcDbEntity
  8
0
  6
Continuous
 62
     8
370
    25
100
AcDbLine
 10
-97.7754316918
 20
-17.2839073015
 30
0.0
 11
-97.7754316918
 21
17.2839073015
 31
0.0
  0
LINE
  5
20C
330
1F
100
AcDbEntity
  8
0
  6
Continuous
 62
     8
370
    25
100
AcDbLine
 10
-135.2163214375
 20
-20.9797794001
 30
0.0
 11
-135.2163214375
 21
20.9797794001
 31
0.0
  0
LINE
  5
20D
330
1F
100
AcDbEntity
  8
0
  6
Continuous
 62
     8
370
    25
100
AcDbLine
 10
-128.8739233814
 20
-19.4179429437
 30
0.0
 11
-128.8739233814
 21
19.4179429437
 31
0.0
  0
ARC
  5
214
330
1F
100
AcDbEntity
  8
0
  6
Continuous
 62
     7
370
    25
100
AcDbCircle
 10
377.7987474721
 20
-236.25
 30
0.0
 40
263.9999999999999
100
AcDbArc
 50
81.623806013
 51
88.5095723542
  0
ARC
  5
215
330
1F
100
AcDbEntity
  8
0
  6
Continuous
 62
     7
370
    25
100
AcDbCircle
 10
377.798747472
 20
236.2500000007
 30
0.0
 40
264.0000000006718
100
AcDbArc
 50
271.4441301056
 51
272.5865261325
  0
ARC
  5
216
330
1F
100
AcDbEntity
  8
0
  6
Continuous
 62
     7
370
    25
100
AcDbCircle
 10
377.0
 20
-28.8433267845
 30
0.0
 40
29.99999999999356
100
AcDbArc
 50
75.0262020117
 51
82.8308896965
  0
ARC
  5
217
330
1F
100
AcDbEntity
  8
0
  6
Continuous
 62
     7
370
    25
100
AcDbCircle
 10
377.0
 20
-35.9608505249
 30
0.0
 40
29.99999999998808
100
AcDbArc
 50
75.0214852595
 51
76.7972417399
  0
ARC
  5
218
330
1F
100
AcDbEntity
  8
0
  6
Continuous
 62
     7
370
    25
100
AcDbCircle
 10
392.5585324009
 20
-25.2236294855
 30
0.0
 40
0.9999957216326538
100
AcDbArc
 50
299.5094738513
 51
344.2698358649
  0
ARC
  5
219
330
1F
100
AcDbEntity
  8
0
  6
Continuous
 62
     7
370
    25
100
AcDbCircle
 10
347.0
 20
26.1
 30
0.0
 40
2.1000000000001
100
AcDbArc
 50
211.5881355052
 51
354.5215361541
  0
ARC
  5
21A
330
1F
100
AcDbEntity
  8
0
  6
Continuous
 62
     7
370
    25
100
AcDbCircle
 10
347.0
 20
-26.1
 30
0.0
 40
2.100000000000056
100
AcDbArc
 50
5.4784638459
 51
148.4118644948
  0
ARC
  5
21B
330
1F
100
AcDbEntity
  8
0
  6
Continuous
 62
     7
370
    25
100
AcDbCircle
 10
377.0
 20
42.5933267846
 30
0.0
 40
30.00000000009462
100
AcDbArc
 50
284.3131575328
 51
285.9620141628
  0
ARC
  5
21C
330
1F
100
AcDbEntity
  8
0
  6
Continuous
 62
     7
370
    25
100
AcDbCircle
 10
344.5
 20
-24.5
 30
0.0
 40
0.5
100
AcDbArc
 50
180.0
 51
270.0
  0
ARC
  5
21D
330
1F
100
AcDbEntity
  8
0
  6
Continuous
 62
     7
370
    25
100
AcDbCircle
 10
344.5
 20
24.5
 30
0.0
 40
0.5
100
AcDbArc
 50
90.0
 51
180.0
  0
ARC
  5
21E
330
1F
100
AcDbEntity
  8
0
  6
Continuous
 62
     7
370
    25
100
AcDbCircle
 10
403.0
 20
-65.0954006723
 30
0.0
 40
91.00000000000202
100
AcDbArc
 50
63.1483473481
 51
81.623806013
  0
ARC
  5
21F
330
1F
100
AcDbEntity
  8
0
  6
Continuous
 62
     7
370
    25
100
AcDbCircle
 10
377.0
 20
-9.3978903019
 30
0.0
 40
30.00000000000661
100
AcDbArc
 50
75.0954891742
 51
104.846557037
  0
ARC
  5
220
330
1F
100
AcDbEntity
  8
0
  6
Continuous
 62
     7
370
    25
100
AcDbCircle
 10
377.0
 20
9.3978903019
 30
0.0
 40
30.00000000000042
100
AcDbArc
 50
255.1233982228
 51
284.2280007509
  0
ARC
  5
221
330
1F
100
AcDbEntity
  8
0
  6
Continuous
 62
     7
370
    25
100
AcDbCircle
 10
377.0
 20
5.0276281805
 30
0.0
 40
29.99999999999952
100
AcDbArc
 50
255.1997328023
 51
284.6056434718
  0
ARC
  5
222
330
1F
100
AcDbEntity
  8
0
  6
Continuous
 62
     7
370
    25
100
AcDbCircle
 10
377.0
 20
-5.0276281805
 30
0.0
 40
29.99999999999976
100
AcDbArc
 50
75.3435318964
 51
105.0521518461
  0
ARC
  5
223
330
1F
100
AcDbEntity
  8
0
  6
Continuous
 62
     7
370
    25
100
AcDbCircle
 10
427.1649886783
 20
-17.363824937
 30
0.0
 40
37.50000000000127
100
AcDbArc
 50
47.6366203762
 51
63.1483473481
  0
ARC
  5
224
330
1F
100
AcDbEntity
  8
0
  6
Continuous
 62
     7
370
    25
100
AcDbCircle
 10
427.1649886783
 20
17.363824937
 30
0.0
 40
37.4999999999966
100
AcDbArc
 50
296.8516526519
 51
312.3633796238
  0
ARC
  5
225
330
1F
100
AcDbEntity
  8
0
  6
Continuous
 62
     7
370
    25
100
AcDbCircle
 10
403.0
 20
65.0954006723
 30
0.0
 40
91.00000000000662
100
AcDbArc
 50
284.0546418686
 51
296.8516526519
  0
ARC
  5
226
330
1F
100
AcDbEntity
  8
0
  6
Continuous
 62
     7
370
    25
100
AcDbCircle
 10
443.0
 20
0.0
 30
0.0
 40
14.00000000000006
100
AcDbArc
 50
312.3633796238
 51
47.6366203762
  0
ARC
  5
227
330
1F
100
AcDbEntity
  8
0
  6
Continuous
 62
     7
370
    25
100
AcDbCircle
 10
377.0
 20
2.2803665617
 30
0.0
 40
30.00000000015747
100
AcDbArc
 50
254.8270510246
 51
284.754292803
  0
ARC
  5
228
330
1F
100
AcDbEntity
  8
0
  6
Continuous
 62
     7
370
    25
100
AcDbCircle
 10
377.0
 20
-2.2803665616
 30
0.0
 40
30.00000000011367
100
AcDbArc
 50
75.4709887376
 51
105.9620141628
  0
ARC
  5
229
330
1F
100
AcDbEntity
  8
0
  6
Continuous
 62
     7
370
    25
100
AcDbCircle
 10
377.0
 20
1.3433267845
 30
0.0
 40
30.0
100
AcDbArc
 50
254.8033308867
 51
284.3850991195
  0
ARC
  5
22A
330
1F
100
AcDbEntity
  8
0
  6
Continuous
 62
     7
370
    25
100
AcDbCircle
 10
377.0
 20
-1.3433267845
 30
0.0
 40
30.00000000023333
100
AcDbArc
 50
75.7023421927
 51
105.1949332613
  0
ARC
  5
22B
330
1F
100
AcDbEntity
  8
0
  6
Continuous
 62
     7
370
    25
100
AcDbCircle
 10
39.5
 20
26.0
 30
0.0
 40
2.0
100
AcDbArc
 50
191.5369590328
 51
270.0
  0
ARC
  5
22C
330
1F
100
AcDbEntity
  8
0
  6
Continuous
 62
     7
370
    25
100
AcDbCircle
 10
39.5
 20
-26.0
 30
0.0
 40
2.000000000000036
100
AcDbArc
 50
90.0
 51
168.4630409672
  0
ARC
  5
22D
330
1F
100
AcDbEntity
  8
0
  6
Continuous
 62
     7
370
    25
100
AcDbCircle
 10
-8.1365972724
 20
-23.0
 30
0.0
 40
3.000000000000082
100
AcDbArc
 50
222.7319675455
 51
270.0
  0
ARC
  5
22E
330
1F
100
AcDbEntity
  8
0
  6
Continuous
 62
     7
370
    25
100
AcDbCircle
 10
-8.1365972724
 20
23.0
 30
0.0
 40
3.000000000000117
100
AcDbArc
 50
90.0
 51
137.2680324545
  0
ARC
  5
22F
330
1F
100
AcDbEntity
  8
0
  6
Continuous
 62
     7
370
    25
100
AcDbCircle
 10
-26.5
 20
-39.9642400438
 30
0.0
 40
22.00000000000011
100
AcDbArc
 50
42.7319675455
 51
99.9458307483
  0
ARC
  5
230
330
1F
100
AcDbEntity
  8
0
  6
Continuous
 62
     7
370
    25
100
AcDbCircle
 10
-26.5
 20
39.9642400438
 30
0.0
 40
22.00000000000006
100
AcDbArc
 50
260.0541692517
 51
317.2680324545
  0
ARC
  5
231
330
1F
100
AcDbEntity
  8
0
  6
Continuous
 62
     7
370
    25
100
AcDbCircle
 10
41.5
 20
23.0
 30
0.0
 40
1.000000000000043
100
AcDbArc
 50
0.0
 51
90.0
  0
ARC
  5
232
330
1F
100
AcDbEntity
  8
0
  6
Continuous
 62
     7
370
    25
100
AcDbCircle
 10
41.5
 20
-23.0
 30
0.0
 40
1.000000000000043
100
AcDbArc
 50
270.0
 51
0.0
  0
ARC
  5
233
330
1F
100
AcDbEntity
  8
0
  6
Continuous
 62
     7
370
    25
100
AcDbCircle
 10
-61.3888403907
 20
-159.0
 30
0.0
 40
179.9999999999966
100
AcDbArc
 50
80.0541692517
 51
101.6625805778
  0
ARC
  5
234
330
1F
100
AcDbEntity
  8
0
  6
Continuous
 62
     7
370
    25
100
AcDbCircle
 10
-61.3888403907
 20
159.0
 30
0.0
 40
180.0000000000001
100
AcDbArc
 50
258.3374194222
 51
279.9458307483
  0
ARC
  5
235
330
1F
100
AcDbEntity
  8
0
  6
Continuous
 62
     7
370
    25
100
AcDbCircle
 10
-135.5
 20
-19.0
 30
0.0
 40
2.000000000000114
100
AcDbArc
 50
180.0
 51
278.1542915305
  0
ARC
  5
236
330
1F
100
AcDbEntity
  8
0
  6
Continuous
 62
     7
370
    25
100
AcDbCircle
 10
-135.5
 20
19.0
 30
0.0
 40
2.000000000000089
100
AcDbArc
 50
81.8457084695
 51
180.0
  0
ARC
  5
237
330
1F
100
AcDbEntity
  8
0
  6
Continuous
 62
     7
370
    25
100
AcDbCircle
 10
-139.8970177191
 20
-11.686580702
 30
0.0
 40
33.0000000000006
100
AcDbArc
 50
70.486244261
 51
81.8457084695
  0
ARC
  5
238
330
1F
100
AcDbEntity
  8
0
  6
Continuous
 62
     7
370
    25
100
AcDbCircle
 10
-139.8970177191
 20
11.686580702
 30
0.0
 40
33.00000000000038
100
AcDbArc
 50
278.1542915305
 51
289.513755739
  0
ARC
  5
239
330
1F
100
AcDbEntity
  8
0
  6
Continuous
 62
     7
370
    25
100
AcDbCircle
 10
-109.5
 20
-74.0864996542
 30
0.0
 40
57.99999999999963
100
AcDbArc
 50
78.3374194222
 51
109.513755739
  0
ARC
  5
23A
330
1F
100
AcDbEntity
  8
0
  6
Continuous
 62
     7
370
    25
100
AcDbCircle
 10
-109.5
 20
74.0864996542
 30
0.0
 40
57.99999999999972
100
AcDbArc
 50
250.486244261
 51
281.6625805778
  0
ARC
  5
23B
330
1F
100
AcDbEntity
  8
0
  6
Continuous
 62
     7
370
    25
100
AcDbCircle
 10
37.0505102572
 20
25.5
 30
0.0
 40
0.500000000000064
100
AcDbArc
 50
11.5369590328
 51
90.0
  0
ARC
  5
23D
330
1F
100
AcDbEntity
  8
0
  6
Continuous
 62
     7
370
    25
100
AcDbCircle
 10
400.2060489658
 20
9.6598722245
 30
0.0
 40
16.44149241316972
100
AcDbArc
 50
358.8387284233
 51
12.5267342213
  0
ARC
  5
23E
330
1F
100
AcDbEntity
  8
0
  6
Continuous
 62
     7
370
    25
100
AcDbCircle
 10
425.28013056
 20
17.9407091316
 30
0.0
 40
21.85860834914686
100
AcDbArc
 50
318.634691287
 51
329.4428250306
  0
ARC
  5
23F
330
1F
100
AcDbEntity
  8
0
  6
Continuous
 62
     7
370
    25
100
AcDbCircle
 10
458.6596072369
 20
1.3100290723
 30
0.0
 40
20.68117465541554
100
AcDbArc
 50
212.4227810385
 51
225.2629073283
  0
ARC
  5
240
330
1F
100
AcDbEntity
  8
0
  6
Continuous
 62
   144
370
    18
100
AcDbCircle
 10
437.9597680818
 20
-9.9697700646
 30
0.0
 40
1.645121143786665
100
AcDbArc
 50
23.0233775764
 51
48.4205810702
  0
ARC
  5
241
330
1F
100
AcDbEntity
  8
0
  6
Continuous
 62
     7
370
    25
100
AcDbCircle
 10
32.3151478918
 20
-3.3212096878
 30
0.0
 40
0.6854463002594168
100
AcDbArc
 50
175.5595022034
 51
215.054867034
  0
ARC
  5
242
330
1F
100
AcDbEntity
  8
0
  6
Continuous
 62
     7
370
    25
100
AcDbCircle
 10
32.3151478918
 20
3.3212096878
 30
0.0
 40
0.6854463002604505
100
AcDbArc
 50
144.945132966
 51
184.4404977966
  0
ARC
  5
243
330
1F
100
AcDbEntity
  8
0
  6
Continuous
 62
   144
370
    18
100
AcDbCircle
 10
37.0000000127
 20
2.946670203
 30
0.0
 40
0.499999987332224
100
AcDbArc
 50
0.0000012892
 51
88.1365840196
  0
ARC
  5
244
330
1F
100
AcDbEntity
  8
0
  6
Continuous
 62
   144
370
    18
100
AcDbCircle
 10
37.0000000127
 20
-2.946670203
 30
0.0
 40
0.4999999873322454
100
AcDbArc
 50
271.8634159804
 51
359.9999987108
  0
ARC
  5
245
330
1F
100
AcDbEntity
  8
0
  6
Continuous
 62
     7
370
    25
100
AcDbCircle
 10
44.5405295753
 20
27.1341084265
 30
0.0
 40
13.07935262254636
100
AcDbArc
 50
189.2636993362
 51
192.1475986453
  0
ARC
  5
246
330
1F
100
AcDbEntity
  8
0
  6
Continuous
 62
     7
370
    25
100
AcDbCircle
 10
44.5405295754
 20
-27.1341084265
 30
0.0
 40
13.07935262263281
100
AcDbArc
 50
167.8524013547
 51
170.7363006638
  0
ENDSEC
  0
SECTION
  2
OBJECTS
  0
DICTIONARY
  5
C
330
0
100
AcDbDictionary
281
     1
  3
ACAD_GROUP
350
D
  3
ACAD_LAYOUT
350
1A
  3
ACAD_MLINESTYLE
350
17
  3
ACAD_PLOTSETTINGS
350
19
  3
ACAD_PLOTSTYLENAME
350
E
  3
ACAD_SCALELIST
350
47
  0
DICTIONARY
  5
D
102
{ACAD_REACTORS
330
C
102
}
330
C
100
AcDbDictionary
281
     1
  0
DICTIONARY
  5
1A
102
{ACAD_REACTORS
330
C
102
}
330
C
100
AcDbDictionary
281
     1
  3
Layout1
350
1E
  3
Layout2
350
26
  3
Model
350
22
  0
DICTIONARY
  5
17
102
{ACAD_REACTORS
330
C
102
}
330
C
100
AcDbDictionary
281
     1
  3
Standard
350
18
  0
DICTIONARY
  5
19
102
{ACAD_REACTORS
330
C
102
}
330
C
100
AcDbDictionary
281
     1
  0
ACDBDICTIONARYWDFLT
  5
E
102
{ACAD_REACTORS
330
C
102
}
330
C
100
AcDbDictionary
281
     1
  3
Normal
350
F
100
AcDbDictionaryWithDefault
340
F
  0
DICTIONARY
  5
47
102
{ACAD_REACTORS
330
C
102
}
330
C
100
AcDbDictionary
281
     1
  3
A0
350
48
  3
A1
350
49
  3
A2
350
4A
  3
A3
350
4B
  3
A4
350
4C
  3
A5
350
4D
  3
A6
350
4E
  3
A7
350
4F
  3
A8
350
50
  3
A9
350
51
  3
B0
350
52
  3
B1
350
53
  3
B2
350
54
  3
B3
350
55
  3
B4
350
56
  3
B5
350
57
  3
B6
350
58
  3
B7
350
59
  3
B8
350
5A
  3
B9
350
5B
  3
C0
350
5C
  3
C1
350
5D
  3
C2
350
5E
  3
C3
350
5F
  3
C4
350
60
  3
C5
350
61
  3
C6
350
62
  3
C7
350
63
  3
C8
350
64
  3
C9
350
65
  3
D0
350
66
  3
D1
350
67
  3
D2
350
68
  0
LAYOUT
  5
1E
102
{ACAD_REACTORS
330
1A
102
}
330
1A
100
AcDbPlotSettings
  1

  2
none_device
  4

  6

 40
0.0
 41
0.0
 42
0.0
 43
0.0
 44
0.0
 45
0.0
 46
0.0
 47
0.0
 48
0.0
 49
0.0
140
0.0
141
0.0
142
1.0
143
1.0
 70
   688
 72
     1
 73
     0
 74
     5
  7

 75
    16
147
1.0
148
0.0
149
0.0
100
AcDbLayout
  1
Layout1
 70
     1
 71
     1
 10
0.0
 20
0.0
 11
420.0
 21
297.0
 12
0.0
 22
0.0
 32
0.0
 14
1.0000000000E+20
 24
1.0000000000E+20
 34
1.0000000000E+20
 15
-1.0000000000E+20
 25
-1.0000000000E+20
 35
-1.0000000000E+20
146
0.0
 13
0.0
 23
0.0
 33
0.0
 16
1.0
 26
0.0
 36
0.0
 17
0.0
 27
1.0
 37
0.0
 76
     0
330
1B
  0
LAYOUT
  5
26
102
{ACAD_REACTORS
330
1A
102
}
330
1A
100
AcDbPlotSettings
  1

  2
none_device
  4

  6

 40
0.0
 41
0.0
 42
0.0
 43
0.0
 44
0.0
 45
0.0
 46
0.0
 47
0.0
 48
0.0
 49
0.0
140
0.0
141
0.0
142
1.0
143
1.0
 70
   688
 72
     1
 73
     0
 74
     5
  7

 75
    16
147
1.0
148
0.0
149
0.0
100
AcDbLayout
  1
Layout2
 70
     1
 71
     2
 10
0.0
 20
0.0
 11
0.0
 21
0.0
 12
0.0
 22
0.0
 32
0.0
 14
0.0
 24
0.0
 34
0.0
 15
0.0
 25
0.0
 35
0.0
146
0.0
 13
0.0
 23
0.0
 33
0.0
 16
1.0
 26
0.0
 36
0.0
 17
0.0
 27
1.0
 37
0.0
 76
     0
330
23
  0
LAYOUT
  5
22
102
{ACAD_REACTORS
330
1A
102
}
330
1A
100
AcDbPlotSettings
  1

  2
none_device
  4
ANSI_A_(11.00_x_8.50_Inches)
  6

 40
6.35
 41
19.05
 42
6.35000508
 43
19.05000254
 44
279.4
 45
215.9
 46
99.3163348833
 47
88.89999873
 48
0.0
 49
0.0
140
0.0
141
0.0
142
0.0148466258
143
1.0
 70
  1696
 72
     0
 73
     0
 74
     0
  7

 75
     0
147
0.0179189148
148
-1300.4909072572
149
0.0
100
AcDbLayout
  1
Model
 70
     1
 71
     0
 10
0.0
 20
0.0
 11
420.0
 21
297.0
 12
0.0
 22
0.0
 32
0.0
 14
-276.5
 24
-28.6566732155
 34
0.0
 15
457.0
 25
28.6566732157
 35
0.0
146
0.0
 13
0.0
 23
0.0
 33
0.0
 16
1.0
 26
0.0
 36
0.0
 17
0.0
 27
1.0
 37
0.0
 76
     0
330
1F
331
29
  0
MLINESTYLE
  5
18
102
{ACAD_REACTORS
330
17
102
}
330
17
100
AcDbMlineStyle
  2
Standard
 70
     0
  3

 62
   256
 51
90.0
 52
90.0
 71
     2
 49
0.5
 62
   256
  6
BYLAYER
 49
-0.5
 62
   256
  6
BYLAYER
  0
ACDBPLACEHOLDER
  5
F
102
{ACAD_REACTORS
330
E
102
}
330
E
  0
SCALE
  5
48
102
{ACAD_REACTORS
330
47
102
}
330
47
100
AcDbScale
 70
     0
300
1:1
140
1.0
141
1.0
290
     1
  0
SCALE
  5
49
102
{ACAD_REACTORS
330
47
102
}
330
47
100
AcDbScale
 70
     0
300
1:2
140
1.0
141
2.0
290
     0
  0
SCALE
  5
4A
102
{ACAD_REACTORS
330
47
102
}
330
47
100
AcDbScale
 70
     0
300
1:4
140
1.0
141
4.0
290
     0
  0
SCALE
  5
4B
102
{ACAD_REACTORS
330
47
102
}
330
47
100
AcDbScale
 70
     0
300
1:5
140
1.0
141
5.0
290
     0
  0
SCALE
  5
4C
102
{ACAD_REACTORS
330
47
102
}
330
47
100
AcDbScale
 70
     0
300
1:8
140
1.0
141
8.0
290
     0
  0
SCALE
  5
4D
102
{ACAD_REACTORS
330
47
102
}
330
47
100
AcDbScale
 70
     0
300
1:10
140
1.0
141
10.0
290
     0
  0
SCALE
  5
4E
102
{ACAD_REACTORS
330
47
102
}
330
47
100
AcDbScale
 70
     0
300
1:16
140
1.0
141
16.0
290
     0
  0
SCALE
  5
4F
102
{ACAD_REACTORS
330
47
102
}
330
47
100
AcDbScale
 70
     0
300
1:20
140
1.0
141
20.0
290
     0
  0
SCALE
  5
50
102
{ACAD_REACTORS
330
47
102
}
330
47
100
AcDbScale
 70
     0
300
1:30
140
1.0
141
30.0
290
     0
  0
SCALE
  5
51
102
{ACAD_REACTORS
330
47
102
}
330
47
100
AcDbScale
 70
     0
300
1:40
140
1.0
141
40.0
290
     0
  0
SCALE
  5
52
102
{ACAD_REACTORS
330
47
102
}
330
47
100
AcDbScale
 70
     0
300
1:50
140
1.0
141
50.0
290
     0
  0
SCALE
  5
53
102
{ACAD_REACTORS
330
47
102
}
330
47
100
AcDbScale
 70
     0
300
1:100
140
1.0
141
100.0
290
     0
  0
SCALE
  5
54
102
{ACAD_REACTORS
330
47
102
}
330
47
100
AcDbScale
 70
     0
300
2:1
140
2.0
141
1.0
290
     0
  0
SCALE
  5
55
102
{ACAD_REACTORS
330
47
102
}
330
47
100
AcDbScale
 70
     0
300
4:1
140
4.0
141
1.0
290
     0
  0
SCALE
  5
56
102
{ACAD_REACTORS
330
47
102
}
330
47
100
AcDbScale
 70
     0
300
8:1
140
8.0
141
1.0
290
     0
  0
SCALE
  5
57
102
{ACAD_REACTORS
330
47
102
}
330
47
100
AcDbScale
 70
     0
300
10:1
140
10.0
141
1.0
290
     0
  0
SCALE
  5
58
102
{ACAD_REACTORS
330
47
102
}
330
47
100
AcDbScale
 70
     0
300
100:1
140
100.0
141
1.0
290
     0
  0
SCALE
  5
59
102
{ACAD_REACTORS
330
47
102
}
330
47
100
AcDbScale
 70
     0
300
1/128" = 1'-0"
140
0.0078125
141
12.0
290
     0
  0
SCALE
  5
5A
102
{ACAD_REACTORS
330
47
102
}
330
47
100
AcDbScale
 70
     0
300
1/64" = 1'-0"
140
0.015625
141
12.0
290
     0
  0
SCALE
  5
5B
102
{ACAD_REACTORS
330
47
102
}
330
47
100
AcDbScale
 70
     0
300
1/32" = 1'-0"
140
0.03125
141
12.0
290
     0
  0
SCALE
  5
5C
102
{ACAD_REACTORS
330
47
102
}
330
47
100
AcDbScale
 70
     0
300
1/16" = 1'-0"
140
0.0625
141
12.0
290
     0
  0
SCALE
  5
5D
102
{ACAD_REACTORS
330
47
102
}
330
47
100
AcDbScale
 70
     0
300
3/32" = 1'-0"
140
0.09375
141
12.0
290
     0
  0
SCALE
  5
5E
102
{ACAD_REACTORS
330
47
102
}
330
47
100
AcDbScale
 70
     0
300
1/8" = 1'-0"
140
0.125
141
12.0
290
     0
  0
SCALE
  5
5F
102
{ACAD_REACTORS
330
47
102
}
330
47
100
AcDbScale
 70
     0
300
3/16" = 1'-0"
140
0.1875
141
12.0
290
     0
  0
SCALE
  5
60
102
{ACAD_REACTORS
330
47
102
}
330
47
100
AcDbScale
 70
     0
300
1/4" = 1'-0"
140
0.25
141
12.0
290
     0
  0
SCALE
  5
61
102
{ACAD_REACTORS
330
47
102
}
330
47
100
AcDbScale
 70
     0
300
3/8" = 1'-0"
140
0.375
141
12.0
290
     0
  0
SCALE
  5
62
102
{ACAD_REACTORS
330
47
102
}
330
47
100
AcDbScale
 70
     0
300
1/2" = 1'-0"
140
0.5
141
12.0
290
     0
  0
SCALE
  5
63
102
{ACAD_REACTORS
330
47
102
}
330
47
100
AcDbScale
 70
     0
300
3/4" = 1'-0"
140
0.75
141
12.0
290
     0
  0
SCALE
  5
64
102
{ACAD_REACTORS
330
47
102
}
330
47
100
AcDbScale
 70
     0
300
1" = 1'-0"
140
1.0
141
12.0
290
     0
  0
SCALE
  5
65
102
{ACAD_REACTORS
330
47
102
}
330
47
100
AcDbScale
 70
     0
300
1-1/2" = 1'-0"
140
1.5
141
12.0
290
     0
  0
SCALE
  5
66
102
{ACAD_REACTORS
330
47
102
}
330
47
100
AcDbScale
 70
     0
300
3" = 1'-0"
140
3.0
141
12.0
290
     0
  0
SCALE
  5
67
102
{ACAD_REACTORS
330
47
102
}
330
47
100
AcDbScale
 70
     0
300
6" = 1'-0"
140
6.0
141
12.0
290
     0
  0
SCALE
  5
68
102
{ACAD_REACTORS
330
47
102
}
330
47
100
AcDbScale
 70
     0
300
1'-0" = 1'-0"
140
12.0
141
12.0
290
     0
  0
ENDSEC
  0
EOF
