  0
SECTION
  2
HEADER
  9
$ACADVER
  1
AC1009
  9
$DWGCODEPAGE
  3
ansi_1252
  9
$INSBASE
 10
0.0
 20
0.0
 30
0.0
  9
$EXTMIN
 10
-179.0
 20
-49.5000008827
 30
0.0
  9
$EXTMAX
 10
179.0
 20
477.5782942263
 30
0.0
  9
$LIMMIN
 10
0.0
 20
0.0
  9
$LIMMAX
 10
420.0
 20
297.0
  9
$ORTHOMODE
 70
     0
  9
$REGENMODE
 70
     1
  9
$FILLMODE
 70
     1
  9
$QTEXTMODE
 70
     0
  9
$MIRRTEXT
 70
     1
  9
$DRAGMODE
 70
     2
  9
$LTSCALE
 40
1.0
  9
$OSMODE
 70
    37
  9
$ATTMODE
 70
     1
  9
$TEXTSIZE
 40
2.5
  9
$TRACEWID
 40
1.0
  9
$TEXTSTYLE
  7
STANDARD
  9
$CLAYER
  8
0
  9
$CELTYPE
  6
BYLAYER
  9
$CECOLOR
 62
   256
  9
$DIMSCALE
 40
1.0
  9
$DIMASZ
 40
3.5
  9
$DIMEXO
 40
0.0
  9
$DIMDLI
 40
3.75
  9
$DIMRND
 40
0.0
  9
$DIMDLE
 40
0.0
  9
$DIMEXE
 40
2.0
  9
$DIMTP
 40
0.0
  9
$DIMTM
 40
0.0
  9
$DIMTXT
 40
3.5
  9
$DIMCEN
 40
2.5
  9
$DIMTSZ
 40
0.0
  9
$DIMTOL
 70
     0
  9
$DIMLIM
 70
     0
  9
$DIMTIH
 70
     1
  9
$DIMTOH
 70
     1
  9
$DIMSE1
 70
     0
  9
$DIMSE2
 70
     0
  9
$DIMTAD
 70
     1
  9
$DIMZIN
 70
     0
  9
$DIMBLK
  1

  9
$DIMASO
 70
     1
  9
$DIMSHO
 70
     1
  9
$DIMPOST
  1

  9
$DIMAPOST
  1

  9
$DIMALT
 70
     0
  9
$DIMALTD
 70
     3
  9
$DIMALTF
 40
0.0393700787
  9
$DIMLFAC
 40
1.0
  9
$DIMTOFL
 70
     1
  9
$DIMTVP
 40
0.0
  9
$DIMTIX
 70
     0
  9
$DIMSOXD
 70
     0
  9
$DIMSAH
 70
     0
  9
$DIMBLK1
  1

  9
$DIMBLK2
  1

  9
$DIMSTYLE
  2
ISO-25
  9
$DIMCLRD
 70
     0
  9
$DIMCLRE
 70
     0
  9
$DIMCLRT
 70
     0
  9
$DIMTFAC
 40
1.0
  9
$DIMGAP
 40
1.0
  9
$LUNITS
 70
     2
  9
$LUPREC
 70
     2
  9
$SKETCHINC
 40
1.0
  9
$FILLETRAD
 40
10.0
  9
$AUNITS
 70
     0
  9
$AUPREC
 70
     2
  9
$MENU
  1
.
  9
$ELEVATION
 40
0.0
  9
$PELEVATION
 40
0.0
  9
$THICKNESS
 40
0.0
  9
$LIMCHECK
 70
     0
  9
$CHAMFERA
 40
0.0
  9
$CHAMFERB
 40
0.0
  9
$SKPOLY
 70
     0
  9
$TDCREATE
 40
2457326.483891516
  9
$TDUPDATE
 40
2457326.484000556
  9
$TDINDWG
 40
0.0000000116
  9
$TDUSRTIMER
 40
0.0000000116
  9
$USRTIMER
 70
     1
  9
$ANGBASE
 50
0.0
  9
$ANGDIR
 70
     0
  9
$PDMODE
 70
     0
  9
$PDSIZE
 40
-1.0
  9
$PLINEWID
 40
0.0
  9
$COORDS
 70
     1
  9
$SPLFRAME
 70
     0
  9
$SPLINETYPE
 70
     6
  9
$SPLINESEGS
 70
     8
  9
$ATTDIA
 70
     0
  9
$ATTREQ
 70
     1
  9
$HANDLING
 70
     1
  9
$HANDSEED
  5
255
  9
$SURFTAB1
 70
     6
  9
$SURFTAB2
 70
     6
  9
$SURFTYPE
 70
     6
  9
$SURFU
 70
     6
  9
$SURFV
 70
     6
  9
$UCSNAME
  2

  9
$UCSORG
 10
0.0
 20
0.0
 30
0.0
  9
$UCSXDIR
 10
1.0
 20
0.0
 30
0.0
  9
$UCSYDIR
 10
0.0
 20
1.0
 30
0.0
  9
$PUCSNAME
  2

  9
$PUCSORG
 10
0.0
 20
0.0
 30
0.0
  9
$PUCSXDIR
 10
1.0
 20
0.0
 30
0.0
  9
$PUCSYDIR
 10
0.0
 20
1.0
 30
0.0
  9
$USERI1
 70
     0
  9
$USERI2
 70
     0
  9
$USERI3
 70
     0
  9
$USERI4
 70
     0
  9
$USERI5
 70
     0
  9
$USERR1
 40
0.0
  9
$USERR2
 40
0.0
  9
$USERR3
 40
0.0
  9
$USERR4
 40
0.0
  9
$USERR5
 40
0.0
  9
$WORLDVIEW
 70
     1
  9
$SHADEDGE
 70
     3
  9
$SHADEDIF
 70
    70
  9
$TILEMODE
 70
     1
  9
$MAXACTVP
 70
    64
  9
$PLIMCHECK
 70
     0
  9
$PEXTMIN
 10
1.0000000000E+20
 20
1.0000000000E+20
 30
1.0000000000E+20
  9
$PEXTMAX
 10
-1.0000000000E+20
 20
-1.0000000000E+20
 30
-1.0000000000E+20
  9
$PLIMMIN
 10
0.0
 20
0.0
  9
$PLIMMAX
 10
420.0
 20
297.0
  9
$UNITMODE
 70
     0
  9
$VISRETAIN
 70
     1
  9
$PLINEGEN
 70
     0
  9
$PSLTSCALE
 70
     1
  0
ENDSEC
  0
SECTION
  2
TABLES
  0
TABLE
  2
VPORT
 70
     1
  0
VPORT
  2
*ACTIVE
 70
     0
 10
0.0
 20
0.0
 11
1.0
 21
1.0
 12
0.0
 22
214.0391466718
 13
0.0
 23
0.0
 14
10.0
 24
10.0
 15
10.0
 25
10.0
 16
0.0
 26
0.0
 36
1.0
 17
0.0
 27
0.0
 37
0.0
 40
537.6198610112
 41
0.6792159786
 42
50.0
 43
0.0
 44
0.0
 50
0.0
 51
0.0
 71
     0
 72
   100
 73
     1
 74
     3
 75
     0
 76
     0
 77
     0
 78
     0
  0
ENDTAB
  0
TABLE
  2
LTYPE
 70
     6
  0
LTYPE
  2
CONTINUOUS
 70
     0
  3
Solid line
 72
    65
 73
     0
 40
0.0
  0
LTYPE
  2
HIDDEN
 70
     0
  3
Hidden __ __ __ __ __ __ __ __ __ __ __ __ __ __
 72
    65
 73
     2
 40
1.905
 49
1.27
 49
-0.635
  0
LTYPE
  2
PHANTOM
 70
     0
  3
Phantom ______  __  __  ______  __  __  ______
 72
    65
 73
     6
 40
12.7
 49
6.35
 49
-1.27
 49
1.27
 49
-1.27
 49
1.27
 49
-1.27
  0
LTYPE
  2
CENTER
 70
     0
  3
Center ____ _ ____ _ ____ _ ____ _ ____ _ ____
 72
    65
 73
     4
 40
10.16
 49
6.35
 49
-1.27
 49
1.27
 49
-1.27
  0
LTYPE
  2
CENTERX2
 70
     0
  3
Center (2x) ________  __  ________  __  _____
 72
    65
 73
     4
 40
20.32
 49
12.7
 49
-2.54
 49
2.54
 49
-2.54
  0
LTYPE
  2
DOT2
 70
     0
  3
Dot (.5x) ........................................
 72
    65
 73
     2
 40
0.635
 49
0.0
 49
-0.635
  0
ENDTAB
  0
TABLE
  2
LAYER
 70
     1
  0
LAYER
  2
0
 70
     0
 62
     7
  6
CONTINUOUS
  0
ENDTAB
  0
TABLE
  2
STYLE
 70
     1
  0
STYLE
  2
STANDARD
 70
     0
 40
0.0
 41
1.0
 50
0.0
 71
     0
 42
2.5
  3
txt
  4

  0
ENDTAB
  0
TABLE
  2
VIEW
 70
     0
  0
ENDTAB
  0
TABLE
  2
UCS
 70
     0
  0
ENDTAB
  0
TABLE
  2
APPID
 70
     1
  0
APPID
  2
ACAD
 70
     0
  0
ENDTAB
  0
TABLE
  2
DIMSTYLE
 70
     1
  0
DIMSTYLE
  2
ISO-25
 70
     0
  3

  4

  5

  6

  7

 40
1.0
 41
2.5
 42
0.625
 43
3.75
 44
1.25
 45
0.0
 46
0.0
 47
0.0
 48
0.0
140
2.5
141
2.5
142
0.0
143
0.0393700787
144
1.0
145
0.0
146
1.0
147
0.625
 71
     0
 72
     0
 73
     0
 74
     0
 75
     0
 76
     0
 77
     1
 78
     8
170
     0
171
     3
172
     1
173
     0
174
     0
175
     0
176
     0
177
     0
178
     0
  0
ENDTAB
  0
ENDSEC
  0
SECTION
  2
BLOCKS
  0
BLOCK
  8
0
  2
$MODEL_SPACE
 70
     0
 10
0.0
 20
0.0
 30
0.0
  3
$MODEL_SPACE
  1

  0
ENDBLK
  5
21
  8
0
  0
BLOCK
 67
     1
  8
0
  2
$PAPER_SPACE
 70
     0
 10
0.0
 20
0.0
 30
0.0
  3
$PAPER_SPACE
  1

  0
ENDBLK
  5
1D
 67
     1
  8
0
  0
ENDSEC
  0
SECTION
  2
ENTITIES
  0
POLYLINE
  5
75
  8
0
  6
CONTINUOUS
 62
     7
 66
     1
 10
0.0
 20
0.0
 30
0.0
 70
   128
  0
VERTEX
  5
156
  8
0
  6
CONTINUOUS
 62
     7
 10
-78.9748826655
 20
82.2431574974
 30
0.0
  0
VERTEX
  5
157
  8
0
  6
CONTINUOUS
 62
     7
 10
-79.489883562
 20
82.2165642516
 30
0.0
  0
VERTEX
  5
158
  8
0
  6
CONTINUOUS
 62
     7
 10
-79.9355603475
 20
82.1499990709
 30
0.0
  0
VERTEX
  5
159
  8
0
  6
CONTINUOUS
 62
     7
 10
-80.3024154551
 20
82.0637019373
 30
0.0
  0
VERTEX
  5
15A
  8
0
  6
CONTINUOUS
 62
     7
 10
-80.586057242
 20
81.9764553819
 30
0.0
  0
VERTEX
  5
15B
  8
0
  6
CONTINUOUS
 62
     7
 10
-80.822947437
 20
81.8890860647
 30
0.0
  0
VERTEX
  5
15C
  8
0
  6
CONTINUOUS
 62
     7
 10
-81.0587148892
 20
81.7882254507
 30
0.0
  0
VERTEX
  5
15D
  8
0
  6
CONTINUOUS
 62
     7
 10
-81.7474838394
 20
81.4040104626
 30
0.0
  0
VERTEX
  5
15E
  8
0
  6
CONTINUOUS
 62
     7
 10
-82.3727094032
 20
80.9112373757
 30
0.0
  0
VERTEX
  5
15F
  8
0
  6
CONTINUOUS
 62
     7
 10
-82.9120006797
 20
80.3252296941
 30
0.0
  0
VERTEX
  5
160
  8
0
  6
CONTINUOUS
 62
     7
 10
-83.3398553756
 20
79.68183024
 30
0.0
  0
VERTEX
  5
161
  8
0
  6
CONTINUOUS
 62
     7
 10
-83.5513153965
 20
79.2572118613
 30
0.0
  0
VERTEX
  5
162
  8
0
  6
CONTINUOUS
 62
     7
 10
-83.7044740445
 20
78.8652450623
 30
0.0
  0
VERTEX
  5
163
  8
0
  6
CONTINUOUS
 62
     7
 10
-83.8091352292
 20
78.5199789584
 30
0.0
  0
VERTEX
  5
164
  8
0
  6
CONTINUOUS
 62
     7
 10
-83.8615408227
 20
78.3018870451
 30
0.0
  0
VERTEX
  5
165
  8
0
  6
CONTINUOUS
 62
     7
 10
-83.8946579149
 20
78.1354676413
 30
0.0
  0
VERTEX
  5
166
  8
0
  6
CONTINUOUS
 62
     7
 10
-83.9140769473
 20
78.0208647749
 30
0.0
  0
VERTEX
  5
167
  8
0
  6
CONTINUOUS
 62
     7
 10
-83.9199130896
 20
77.982865107
 30
0.0
  0
VERTEX
  5
168
  8
0
  6
CONTINUOUS
 62
     7
 10
-83.9220370955
 20
77.968530435
 30
0.0
  0
VERTEX
  5
169
  8
0
  6
CONTINUOUS
 62
     7
 10
-83.923994974
 20
77.9550536476
 30
0.0
  0
VERTEX
  5
16A
  8
0
  6
CONTINUOUS
 62
     7
 10
-83.9259019014
 20
77.9416629527
 30
0.0
  0
VERTEX
  5
16B
  8
0
  6
CONTINUOUS
 62
     7
 10
-83.9277590842
 20
77.9283407172
 30
0.0
  0
VERTEX
  5
16C
  8
0
  6
CONTINUOUS
 62
     7
 10
-83.9330439821
 20
77.8884877209
 30
0.0
  0
VERTEX
  5
16D
  8
0
  6
CONTINUOUS
 62
     7
 10
-83.9379230348
 20
77.8478473146
 30
0.0
  0
VERTEX
  5
16E
  8
0
  6
CONTINUOUS
 62
     7
 10
-83.9445180712
 20
77.7817074475
 30
0.0
  0
VERTEX
  5
16F
  8
0
  6
CONTINUOUS
 62
     7
 10
-83.9503688319
 20
77.7013057492
 30
0.0
  0
VERTEX
  5
170
  8
0
  6
CONTINUOUS
 62
     7
 10
-83.9555633384
 20
77.5952041133
 30
0.0
  0
VERTEX
  5
171
  8
0
  6
CONTINUOUS
 62
     7
 10
-83.9601329671
 20
77.4530670027
 30
0.0
  0
VERTEX
  5
172
  8
0
  6
CONTINUOUS
 62
     7
 10
-83.9639435444
 20
77.2857091688
 30
0.0
  0
VERTEX
  5
173
  8
0
  6
CONTINUOUS
 62
     7
 10
-83.9695598857
 20
76.9031602924
 30
0.0
  0
VERTEX
  5
174
  8
0
  6
CONTINUOUS
 62
     7
 10
-83.9732962286
 20
76.4663470676
 30
0.0
  0
VERTEX
  5
175
  8
0
  6
CONTINUOUS
 62
     7
 10
-83.976046971
 20
75.8851348083
 30
0.0
  0
VERTEX
  5
176
  8
0
  6
CONTINUOUS
 62
     7
 10
-83.9773950827
 20
75.2686947245
 30
0.0
  0
VERTEX
  5
177
  8
0
  6
CONTINUOUS
 62
     7
 10
-83.9783758338
 20
74.5962653842
 30
0.0
  0
VERTEX
  5
178
  8
0
  6
CONTINUOUS
 62
     7
 10
-83.979268291
 20
73.8589328321
 30
0.0
  0
VERTEX
  5
179
  8
0
  6
CONTINUOUS
 62
     7
 10
-83.9800732655
 20
73.0599881405
 30
0.0
  0
VERTEX
  5
17A
  8
0
  6
CONTINUOUS
 62
     7
 10
-83.9807824468
 20
72.2129938176
 30
0.0
  0
VERTEX
  5
17B
  8
0
  6
CONTINUOUS
 62
     7
 10
-83.9813934573
 20
71.3284211388
 30
0.0
  0
VERTEX
  5
17C
  8
0
  6
CONTINUOUS
 62
     7
 10
-83.9819162056
 20
70.3994933661
 30
0.0
  0
VERTEX
  5
17D
  8
0
  6
CONTINUOUS
 62
     7
 10
-83.9823492289
 20
69.4261923321
 30
0.0
  0
VERTEX
  5
17E
  8
0
  6
CONTINUOUS
 62
     7
 10
-83.9826845815
 20
68.425116687
 30
0.0
  0
VERTEX
  5
17F
  8
0
  6
CONTINUOUS
 62
     7
 10
-83.9829194106
 20
67.4082387636
 30
0.0
  0
VERTEX
  5
180
  8
0
  6
CONTINUOUS
 62
     7
 10
-83.9830546501
 20
66.3750990877
 30
0.0
  0
VERTEX
  5
181
  8
0
  6
CONTINUOUS
 62
     7
 10
-83.9830890831
 20
65.327211366
 30
0.0
  0
VERTEX
  5
182
  8
0
  6
CONTINUOUS
 62
     7
 10
-83.9830214274
 20
64.2858186866
 30
0.0
  0
VERTEX
  5
183
  8
0
  6
CONTINUOUS
 62
     7
 10
-83.9828538391
 20
63.2586718582
 30
0.0
  0
VERTEX
  5
184
  8
0
  6
CONTINUOUS
 62
     7
 10
-83.9825861096
 20
62.2457814547
 30
0.0
  0
VERTEX
  5
185
  8
0
  6
CONTINUOUS
 62
     7
 10
-83.9822175914
 20
61.2503989844
 30
0.0
  0
VERTEX
  5
186
  8
0
  6
CONTINUOUS
 62
     7
 10
-83.9817555662
 20
60.2928936339
 30
0.0
  0
VERTEX
  5
187
  8
0
  6
CONTINUOUS
 62
     7
 10
-83.9812041847
 20
59.378853725
 30
0.0
  0
VERTEX
  5
188
  8
0
  6
CONTINUOUS
 62
     7
 10
-83.9805624138
 20
58.5069008664
 30
0.0
  0
VERTEX
  5
189
  8
0
  6
CONTINUOUS
 62
     7
 10
-83.979821878
 20
57.6742589564
 30
0.0
  0
VERTEX
  5
18A
  8
0
  6
CONTINUOUS
 62
     7
 10
-83.9789919746
 20
56.8979722833
 30
0.0
  0
VERTEX
  5
18B
  8
0
  6
CONTINUOUS
 62
     7
 10
-83.9780732162
 20
56.1827398837
 30
0.0
  0
VERTEX
  5
18C
  8
0
  6
CONTINUOUS
 62
     7
 10
-83.9770625308
 20
55.5315281542
 30
0.0
  0
VERTEX
  5
18D
  8
0
  6
CONTINUOUS
 62
     7
 10
-83.9760336777
 20
55.0808006385
 30
0.0
  0
VERTEX
  5
18E
  8
0
  6
CONTINUOUS
 62
     7
 10
-83.9741777605
 20
54.6478093328
 30
0.0
  0
VERTEX
  5
18F
  8
0
  6
CONTINUOUS
 62
     7
 10
-83.9712693045
 20
54.2413840641
 30
0.0
  0
VERTEX
  5
190
  8
0
  6
CONTINUOUS
 62
     7
 10
-83.9669477944
 20
53.872892574
 30
0.0
  0
VERTEX
  5
191
  8
0
  6
CONTINUOUS
 62
     7
 10
-83.9641003422
 20
53.7071811654
 30
0.0
  0
VERTEX
  5
192
  8
0
  6
CONTINUOUS
 62
     7
 10
-83.9606955343
 20
53.5574875657
 30
0.0
  0
VERTEX
  5
193
  8
0
  6
CONTINUOUS
 62
     7
 10
-83.9566461366
 20
53.4264810605
 30
0.0
  0
VERTEX
  5
194
  8
0
  6
CONTINUOUS
 62
     7
 10
-83.9511494962
 20
53.3132039106
 30
0.0
  0
VERTEX
  5
195
  8
0
  6
CONTINUOUS
 62
     7
 10
-83.94276719
 20
53.2066699036
 30
0.0
  0
VERTEX
  5
196
  8
0
  6
CONTINUOUS
 62
     7
 10
-83.9304883869
 20
53.0959307835
 30
0.0
  0
VERTEX
  5
197
  8
0
  6
CONTINUOUS
 62
     7
 10
-83.9129805033
 20
52.9727500421
 30
0.0
  0
VERTEX
  5
198
  8
0
  6
CONTINUOUS
 62
     7
 10
-83.9017555786
 20
52.9046247846
 30
0.0
  0
VERTEX
  5
199
  8
0
  6
CONTINUOUS
 62
     7
 10
-83.8885665183
 20
52.8314802929
 30
0.0
  0
VERTEX
  5
19A
  8
0
  6
CONTINUOUS
 62
     7
 10
-83.8707528863
 20
52.7414250554
 30
0.0
  0
VERTEX
  5
19B
  8
0
  6
CONTINUOUS
 62
     7
 10
-83.8436979495
 20
52.6187474285
 30
0.0
  0
VERTEX
  5
19C
  8
0
  6
CONTINUOUS
 62
     7
 10
-83.7714972342
 20
52.3450552314
 30
0.0
  0
VERTEX
  5
19D
  8
0
  6
CONTINUOUS
 62
     7
 10
-83.6354243649
 20
51.945739014
 30
0.0
  0
VERTEX
  5
19E
  8
0
  6
CONTINUOUS
 62
     7
 10
-83.4674373319
 20
51.5618915431
 30
0.0
  0
VERTEX
  5
19F
  8
0
  6
CONTINUOUS
 62
     7
 10
-83.2064475692
 20
51.0932234115
 30
0.0
  0
VERTEX
  5
1A0
  8
0
  6
CONTINUOUS
 62
     7
 10
-82.8999894195
 20
50.6593113592
 30
0.0
  0
VERTEX
  5
1A1
  8
0
  6
CONTINUOUS
 62
     7
 10
-82.5495542344
 20
50.260696375
 30
0.0
  0
VERTEX
  5
1A2
  8
0
  6
CONTINUOUS
 62
     7
 10
-82.1583416103
 20
49.9010612141
 30
0.0
  0
VERTEX
  5
1A3
  8
0
  6
CONTINUOUS
 62
     7
 10
-81.7349616905
 20
49.5874832155
 30
0.0
  0
VERTEX
  5
1A4
  8
0
  6
CONTINUOUS
 62
     7
 10
-81.3104357884
 20
49.3356554334
 30
0.0
  0
VERTEX
  5
1A5
  8
0
  6
CONTINUOUS
 62
     7
 10
-81.1029775317
 20
49.2321367606
 30
0.0
  0
VERTEX
  5
1A6
  8
0
  6
CONTINUOUS
 62
     7
 10
-80.852311799
 20
49.1225075985
 30
0.0
  0
VERTEX
  5
1A7
  8
0
  6
CONTINUOUS
 62
     7
 10
-80.5108963644
 20
48.9984267401
 30
0.0
  0
VERTEX
  5
1A8
  8
0
  6
CONTINUOUS
 62
     7
 10
-80.0792856955
 20
48.8801419276
 30
0.0
  0
VERTEX
  5
1A9
  8
0
  6
CONTINUOUS
 62
     7
 10
-79.5630589837
 20
48.7913614019
 30
0.0
  0
VERTEX
  5
1AA
  8
0
  6
CONTINUOUS
 62
     7
 10
-78.9748901269
 20
48.7566463687
 30
0.0
  0
SEQEND
  5
24D
  8
0
  6
CONTINUOUS
 62
     7
  0
POLYLINE
  5
9F
  8
0
  6
CONTINUOUS
 62
     7
 66
     1
 10
0.0
 20
0.0
 30
0.0
 70
   128
  0
VERTEX
  5
1AB
  8
0
  6
CONTINUOUS
 62
     7
 10
-45.9749045679
 20
48.7568421935
 30
0.0
  0
VERTEX
  5
1AC
  8
0
  6
CONTINUOUS
 62
     7
 10
-45.9733427504
 20
48.817087382
 30
0.0
  0
VERTEX
  5
1AD
  8
0
  6
CONTINUOUS
 62
     7
 10
-45.971786544
 20
48.9961483985
 30
0.0
  0
VERTEX
  5
1AE
  8
0
  6
CONTINUOUS
 62
     7
 10
-45.9702523106
 20
49.2915134194
 30
0.0
  0
VERTEX
  5
1AF
  8
0
  6
CONTINUOUS
 62
     7
 10
-45.9687564124
 20
49.7006706213
 30
0.0
  0
VERTEX
  5
1B0
  8
0
  6
CONTINUOUS
 62
     7
 10
-45.9673047589
 20
50.2235258816
 30
0.0
  0
VERTEX
  5
1B1
  8
0
  6
CONTINUOUS
 62
     7
 10
-45.96590203
 20
50.8568248358
 30
0.0
  0
VERTEX
  5
1B2
  8
0
  6
CONTINUOUS
 62
     7
 10
-45.9645627429
 20
51.5933152432
 30
0.0
  0
VERTEX
  5
1B3
  8
0
  6
CONTINUOUS
 62
     7
 10
-45.9633014149
 20
52.4257448635
 30
0.0
  0
VERTEX
  5
1B4
  8
0
  6
CONTINUOUS
 62
     7
 10
-45.9621235865
 20
53.3522626744
 30
0.0
  0
VERTEX
  5
1B5
  8
0
  6
CONTINUOUS
 62
     7
 10
-45.9610324803
 20
54.36840054
 30
0.0
  0
VERTEX
  5
1B6
  8
0
  6
CONTINUOUS
 62
     7
 10
-45.9600391319
 20
55.4629834794
 30
0.0
  0
VERTEX
  5
1B7
  8
0
  6
CONTINUOUS
 62
     7
 10
-45.9591545774
 20
56.6248365118
 30
0.0
  0
VERTEX
  5
1B8
  8
0
  6
CONTINUOUS
 62
     7
 10
-45.9583833642
 20
57.8505613279
 30
0.0
  0
VERTEX
  5
1B9
  8
0
  6
CONTINUOUS
 62
     7
 10
-45.9577268938
 20
59.1349787879
 30
0.0
  0
VERTEX
  5
1BA
  8
0
  6
CONTINUOUS
 62
     7
 10
-45.9571914763
 20
60.4642510314
 30
0.0
  0
VERTEX
  5
1BB
  8
0
  6
CONTINUOUS
 62
     7
 10
-45.956783422
 20
61.8245401981
 30
0.0
  0
VERTEX
  5
1BC
  8
0
  6
CONTINUOUS
 62
     7
 10
-45.9565057744
 20
63.2112824102
 30
0.0
  0
VERTEX
  5
1BD
  8
0
  6
CONTINUOUS
 62
     7
 10
-45.956357954
 20
64.6191725809
 30
0.0
  0
VERTEX
  5
1BE
  8
0
  6
CONTINUOUS
 62
     7
 10
-45.956340834
 20
66.0332700274
 30
0.0
  0
VERTEX
  5
1BF
  8
0
  6
CONTINUOUS
 62
     7
 10
-45.9564552876
 20
67.4386340673
 30
0.0
  0
VERTEX
  5
1C0
  8
0
  6
CONTINUOUS
 62
     7
 10
-45.9567025107
 20
68.8300484103
 30
0.0
  0
VERTEX
  5
1C1
  8
0
  6
CONTINUOUS
 62
     7
 10
-45.9570800084
 20
70.202681497
 30
0.0
  0
VERTEX
  5
1C2
  8
0
  6
CONTINUOUS
 62
     7
 10
-45.9575831184
 20
71.5421742377
 30
0.0
  0
VERTEX
  5
1C3
  8
0
  6
CONTINUOUS
 62
     7
 10
-45.9582071785
 20
72.8341675431
 30
0.0
  0
VERTEX
  5
1C4
  8
0
  6
CONTINUOUS
 62
     7
 10
-45.9589514005
 20
74.0733804025
 30
0.0
  0
VERTEX
  5
1C5
  8
0
  6
CONTINUOUS
 62
     7
 10
-45.9598116568
 20
75.256000086
 30
0.0
  0
VERTEX
  5
1C6
  8
0
  6
CONTINUOUS
 62
     7
 10
-45.9607782753
 20
76.3698679969
 30
0.0
  0
VERTEX
  5
1C7
  8
0
  6
CONTINUOUS
 62
     7
 10
-45.9618415838
 20
77.4028255383
 30
0.0
  0
VERTEX
  5
1C8
  8
0
  6
CONTINUOUS
 62
     7
 10
-45.9629988975
 20
78.3501233301
 30
0.0
  0
VERTEX
  5
1C9
  8
0
  6
CONTINUOUS
 62
     7
 10
-45.9642449232
 20
79.2093965777
 30
0.0
  0
VERTEX
  5
1CA
  8
0
  6
CONTINUOUS
 62
     7
 10
-45.965566069
 20
79.9720580222
 30
0.0
  0
VERTEX
  5
1CB
  8
0
  6
CONTINUOUS
 62
     7
 10
-45.9669487433
 20
80.6295204049
 30
0.0
  0
VERTEX
  5
1CC
  8
0
  6
CONTINUOUS
 62
     7
 10
-45.968388668
 20
81.1781028525
 30
0.0
  0
VERTEX
  5
1CD
  8
0
  6
CONTINUOUS
 62
     7
 10
-45.9698799804
 20
81.6171537418
 30
0.0
  0
VERTEX
  5
1CE
  8
0
  6
CONTINUOUS
 62
     7
 10
-45.9714067018
 20
81.9426253382
 30
0.0
  0
VERTEX
  5
1CF
  8
0
  6
CONTINUOUS
 62
     7
 10
-45.9729528535
 20
82.150469907
 30
0.0
  0
VERTEX
  5
1D0
  8
0
  6
CONTINUOUS
 62
     7
 10
-45.9745130476
 20
82.2384906207
 30
0.0
  0
VERTEX
  5
1D1
  8
0
  6
CONTINUOUS
 62
     7
 10
-45.9749042715
 20
82.2308408567
 30
0.0
  0
SEQEND
  5
24E
  8
0
  6
CONTINUOUS
 62
     7
  0
POLYLINE
  5
A8
  8
0
  6
CONTINUOUS
 62
     7
 66
     1
 10
0.0
 20
0.0
 30
0.0
 70
   128
  0
VERTEX
  5
1D2
  8
0
  6
CONTINUOUS
 62
     7
 10
-83.9748811848
 20
53.7568421935
 30
0.0
  0
VERTEX
  5
1D3
  8
0
  6
CONTINUOUS
 62
     7
 10
-83.9761547295
 20
53.8129998344
 30
0.0
  0
VERTEX
  5
1D4
  8
0
  6
CONTINUOUS
 62
     7
 10
-83.9774157953
 20
53.9813911751
 30
0.0
  0
VERTEX
  5
1D5
  8
0
  6
CONTINUOUS
 62
     7
 10
-83.9786586662
 20
54.2613051707
 30
0.0
  0
VERTEX
  5
1D6
  8
0
  6
CONTINUOUS
 62
     7
 10
-83.9798629885
 20
54.649411881
 30
0.0
  0
VERTEX
  5
1D7
  8
0
  6
CONTINUOUS
 62
     7
 10
-83.9810193031
 20
55.1419787244
 30
0.0
  0
VERTEX
  5
1D8
  8
0
  6
CONTINUOUS
 62
     7
 10
-83.9821163441
 20
55.7345989247
 30
0.0
  0
VERTEX
  5
1D9
  8
0
  6
CONTINUOUS
 62
     7
 10
-83.9831420877
 20
56.4196628755
 30
0.0
  0
VERTEX
  5
1DA
  8
0
  6
CONTINUOUS
 62
     7
 10
-83.9840872476
 20
57.1912094353
 30
0.0
  0
VERTEX
  5
1DB
  8
0
  6
CONTINUOUS
 62
     7
 10
-83.9849483868
 20
58.0467231248
 30
0.0
  0
VERTEX
  5
1DC
  8
0
  6
CONTINUOUS
 62
     7
 10
-83.9857119065
 20
58.9745385782
 30
0.0
  0
VERTEX
  5
1DD
  8
0
  6
CONTINUOUS
 62
     7
 10
-83.9863676593
 20
59.9598010275
 30
0.0
  0
VERTEX
  5
1DE
  8
0
  6
CONTINUOUS
 62
     7
 10
-83.9869128144
 20
60.9975237901
 30
0.0
  0
VERTEX
  5
1DF
  8
0
  6
CONTINUOUS
 62
     7
 10
-83.9873458006
 20
62.0855362145
 30
0.0
  0
VERTEX
  5
1E0
  8
0
  6
CONTINUOUS
 62
     7
 10
-83.9876573572
 20
63.2049658221
 30
0.0
  0
VERTEX
  5
1E1
  8
0
  6
CONTINUOUS
 62
     7
 10
-83.9878452805
 20
64.3431478557
 30
0.0
  0
VERTEX
  5
1E2
  8
0
  6
CONTINUOUS
 62
     7
 10
-83.9879084158
 20
65.4921635767
 30
0.0
  0
VERTEX
  5
1E3
  8
0
  6
CONTINUOUS
 62
     7
 10
-83.9878466789
 20
66.6439930861
 30
0.0
  0
VERTEX
  5
1E4
  8
0
  6
CONTINUOUS
 62
     7
 10
-83.9876599809
 20
67.7831249649
 30
0.0
  0
VERTEX
  5
1E5
  8
0
  6
CONTINUOUS
 62
     7
 10
-83.9873496745
 20
68.9029285411
 30
0.0
  0
VERTEX
  5
1E6
  8
0
  6
CONTINUOUS
 62
     7
 10
-83.9869186464
 20
69.9897999091
 30
0.0
  0
VERTEX
  5
1E7
  8
0
  6
CONTINUOUS
 62
     7
 10
-83.9863741366
 20
71.0294076083
 30
0.0
  0
VERTEX
  5
1E8
  8
0
  6
CONTINUOUS
 62
     7
 10
-83.9857200166
 20
72.0147576537
 30
0.0
  0
VERTEX
  5
1E9
  8
0
  6
CONTINUOUS
 62
     7
 10
-83.9849573701
 20
72.9434902813
 30
0.0
  0
VERTEX
  5
1EA
  8
0
  6
CONTINUOUS
 62
     7
 10
-83.9840974015
 20
73.7995661218
 30
0.0
  0
VERTEX
  5
1EB
  8
0
  6
CONTINUOUS
 62
     7
 10
-83.9831530121
 20
74.5722203714
 30
0.0
  0
VERTEX
  5
1EC
  8
0
  6
CONTINUOUS
 62
     7
 10
-83.9821297749
 20
75.2572997308
 30
0.0
  0
VERTEX
  5
1ED
  8
0
  6
CONTINUOUS
 62
     7
 10
-83.9810313938
 20
75.8521906567
 30
0.0
  0
VERTEX
  5
1EE
  8
0
  6
CONTINUOUS
 62
     7
 10
-83.9798753311
 20
76.3459769922
 30
0.0
  0
VERTEX
  5
1EF
  8
0
  6
CONTINUOUS
 62
     7
 10
-83.9786718777
 20
76.7350807415
 30
0.0
  0
VERTEX
  5
1F0
  8
0
  6
CONTINUOUS
 62
     7
 10
-83.9774318219
 20
77.0157379234
 30
0.0
  0
VERTEX
  5
1F1
  8
0
  6
CONTINUOUS
 62
     7
 10
-83.9761601811
 20
77.1864329093
 30
0.0
  0
VERTEX
  5
1F2
  8
0
  6
CONTINUOUS
 62
     7
 10
-83.9748765956
 20
77.243018827
 30
0.0
  0
VERTEX
  5
1F3
  8
0
  6
CONTINUOUS
 62
     7
 10
-83.9735999725
 20
77.1863020632
 30
0.0
  0
VERTEX
  5
1F4
  8
0
  6
CONTINUOUS
 62
     7
 10
-83.9723372834
 20
77.0170846673
 30
0.0
  0
VERTEX
  5
1F5
  8
0
  6
CONTINUOUS
 62
     7
 10
-83.9710947885
 20
76.7362593176
 30
0.0
  0
VERTEX
  5
1F6
  8
0
  6
CONTINUOUS
 62
     7
 10
-83.9698889649
 20
76.3465531232
 30
0.0
  0
VERTEX
  5
1F7
  8
0
  6
CONTINUOUS
 62
     7
 10
-83.9687363597
 20
75.8547854284
 30
0.0
  0
VERTEX
  5
1F8
  8
0
  6
CONTINUOUS
 62
     7
 10
-83.9676437061
 20
75.2641047943
 30
0.0
  0
VERTEX
  5
1F9
  8
0
  6
CONTINUOUS
 62
     7
 10
-83.9666139451
 20
74.5756970294
 30
0.0
  0
VERTEX
  5
1FA
  8
0
  6
CONTINUOUS
 62
     7
 10
-83.96566534
 20
73.7999776948
 30
0.0
  0
VERTEX
  5
1FB
  8
0
  6
CONTINUOUS
 62
     7
 10
-83.9648090305
 20
72.9478713512
 30
0.0
  0
VERTEX
  5
1FC
  8
0
  6
CONTINUOUS
 62
     7
 10
-83.9640498148
 20
72.0245802454
 30
0.0
  0
VERTEX
  5
1FD
  8
0
  6
CONTINUOUS
 62
     7
 10
-83.9633912511
 20
71.0344448878
 30
0.0
  0
VERTEX
  5
1FE
  8
0
  6
CONTINUOUS
 62
     7
 10
-83.9628447698
 20
69.9924274753
 30
0.0
  0
VERTEX
  5
1FF
  8
0
  6
CONTINUOUS
 62
     7
 10
-83.9624139215
 20
68.9065755228
 30
0.0
  0
VERTEX
  5
200
  8
0
  6
CONTINUOUS
 62
     7
 10
-83.9621035652
 20
67.7877857264
 30
0.0
  0
VERTEX
  5
201
  8
0
  6
CONTINUOUS
 62
     7
 10
-83.9619163044
 20
66.6498063575
 30
0.0
  0
VERTEX
  5
202
  8
0
  6
CONTINUOUS
 62
     7
 10
-83.9618537985
 20
65.5021004696
 30
0.0
  0
VERTEX
  5
203
  8
0
  6
CONTINUOUS
 62
     7
 10
-83.9619165491
 20
64.3481978461
 30
0.0
  0
VERTEX
  5
204
  8
0
  6
CONTINUOUS
 62
     7
 10
-83.9621050595
 20
63.2054431544
 30
0.0
  0
VERTEX
  5
205
  8
0
  6
CONTINUOUS
 62
     7
 10
-83.9624148317
 20
62.0908356212
 30
0.0
  0
VERTEX
  5
206
  8
0
  6
CONTINUOUS
 62
     7
 10
-83.9628439408
 20
61.0097349301
 30
0.0
  0
VERTEX
  5
207
  8
0
  6
CONTINUOUS
 62
     7
 10
-83.963391717
 20
59.9647607504
 30
0.0
  0
VERTEX
  5
208
  8
0
  6
CONTINUOUS
 62
     7
 10
-83.964049907
 20
58.9750465105
 30
0.0
  0
VERTEX
  5
209
  8
0
  6
CONTINUOUS
 62
     7
 10
-83.9648105666
 20
58.0504609472
 30
0.0
  0
VERTEX
  5
20A
  8
0
  6
CONTINUOUS
 62
     7
 10
-83.9656680485
 20
57.1977755884
 30
0.0
  0
VERTEX
  5
20B
  8
0
  6
CONTINUOUS
 62
     7
 10
-83.9666152657
 20
56.4233890823
 30
0.0
  0
VERTEX
  5
20C
  8
0
  6
CONTINUOUS
 62
     7
 10
-83.9676408644
 20
55.737547257
 30
0.0
  0
VERTEX
  5
20D
  8
0
  6
CONTINUOUS
 62
     7
 10
-83.9687392285
 20
55.1438263157
 30
0.0
  0
VERTEX
  5
20E
  8
0
  6
CONTINUOUS
 62
     7
 10
-83.9698970989
 20
54.6504077451
 30
0.0
  0
VERTEX
  5
20F
  8
0
  6
CONTINUOUS
 62
     7
 10
-83.9710976716
 20
54.2629245155
 30
0.0
  0
VERTEX
  5
210
  8
0
  6
CONTINUOUS
 62
     7
 10
-83.9723331198
 20
53.9836589707
 30
0.0
  0
VERTEX
  5
211
  8
0
  6
CONTINUOUS
 62
     7
 10
-83.9736013117
 20
53.8135258978
 30
0.0
  0
VERTEX
  5
212
  8
0
  6
CONTINUOUS
 62
     7
 10
-83.9748811848
 20
53.7568421935
 30
0.0
  0
SEQEND
  5
24F
  8
0
  6
CONTINUOUS
 62
     7
  0
POLYLINE
  5
C4
  8
0
  6
CONTINUOUS
 62
     7
 66
     1
 10
0.0
 20
0.0
 30
0.0
 70
   128
  0
VERTEX
  5
213
  8
0
  6
CONTINUOUS
 62
     7
 10
163.3891112406
 20
0.0
 30
0.0
  0
VERTEX
  5
214
  8
0
  6
CONTINUOUS
 62
     7
 10
167.1947999496
 20
2.5129116936
 30
0.0
  0
VERTEX
  5
215
  8
0
  6
CONTINUOUS
 62
     7
 10
169.0974590395
 20
3.7696482163
 30
0.0
  0
VERTEX
  5
216
  8
0
  6
CONTINUOUS
 62
     7
 10
171.0
 20
5.0265636018
 30
0.0
  0
SEQEND
  5
250
  8
0
  6
CONTINUOUS
 62
     7
  0
POLYLINE
  5
CE
  8
0
  6
CONTINUOUS
 62
     7
 66
     1
 10
0.0
 20
0.0
 30
0.0
 70
   128
  0
VERTEX
  5
217
  8
0
  6
CONTINUOUS
 62
     7
 10
-171.0
 20
5.0265636018
 30
0.0
  0
VERTEX
  5
218
  8
0
  6
CONTINUOUS
 62
     7
 10
-169.0974591283
 20
3.769648275
 30
0.0
  0
VERTEX
  5
219
  8
0
  6
CONTINUOUS
 62
     7
 10
-167.1948000936
 20
2.5129117887
 30
0.0
  0
VERTEX
  5
21A
  8
0
  6
CONTINUOUS
 62
     7
 10
-165.2920188504
 20
1.2563602268
 30
0.0
  0
VERTEX
  5
21B
  8
0
  6
CONTINUOUS
 62
     7
 10
-163.3891112406
 20
0.0
 30
0.0
  0
SEQEND
  5
251
  8
0
  6
CONTINUOUS
 62
     7
  0
POLYLINE
  5
E2
  8
0
  6
CONTINUOUS
 62
     8
 66
     1
 10
0.0
 20
0.0
 30
0.0
 70
   128
  0
VERTEX
  5
21C
  8
0
  6
CONTINUOUS
 62
     8
 10
-78.9748842615
 20
48.7566453429
 30
0.0
  0
VERTEX
  5
21D
  8
0
  6
CONTINUOUS
 62
     8
 10
-78.9734260603
 20
48.8084746724
 30
0.0
  0
VERTEX
  5
21E
  8
0
  6
CONTINUOUS
 62
     8
 10
-78.9719690537
 20
48.9642225223
 30
0.0
  0
VERTEX
  5
21F
  8
0
  6
CONTINUOUS
 62
     8
 10
-78.970541188
 20
49.2208137325
 30
0.0
  0
VERTEX
  5
220
  8
0
  6
CONTINUOUS
 62
     8
 10
-78.969144186
 20
49.5764045051
 30
0.0
  0
VERTEX
  5
221
  8
0
  6
CONTINUOUS
 62
     8
 10
-78.967777955
 20
50.0306904518
 30
0.0
  0
VERTEX
  5
222
  8
0
  6
CONTINUOUS
 62
     8
 10
-78.9664458635
 20
50.5844905489
 30
0.0
  0
VERTEX
  5
223
  8
0
  6
CONTINUOUS
 62
     8
 10
-78.9651727579
 20
51.2275693858
 30
0.0
  0
VERTEX
  5
224
  8
0
  6
CONTINUOUS
 62
     8
 10
-78.9639656477
 20
51.9549458653
 30
0.0
  0
VERTEX
  5
225
  8
0
  6
CONTINUOUS
 62
     8
 10
-78.9628238341
 20
52.7664420923
 30
0.0
  0
VERTEX
  5
226
  8
0
  6
CONTINUOUS
 62
     8
 10
-78.9617481823
 20
53.6627227312
 30
0.0
  0
VERTEX
  5
227
  8
0
  6
CONTINUOUS
 62
     8
 10
-78.9607555735
 20
54.6311908722
 30
0.0
  0
VERTEX
  5
228
  8
0
  6
CONTINUOUS
 62
     8
 10
-78.9598561488
 20
55.6599849809
 30
0.0
  0
VERTEX
  5
229
  8
0
  6
CONTINUOUS
 62
     8
 10
-78.9590491299
 20
56.7485091754
 30
0.0
  0
VERTEX
  5
22A
  8
0
  6
CONTINUOUS
 62
     8
 10
-78.958335385
 20
57.8972636743
 30
0.0
  0
VERTEX
  5
22B
  8
0
  6
CONTINUOUS
 62
     8
 10
-78.9577215792
 20
59.0978009819
 30
0.0
  0
VERTEX
  5
22C
  8
0
  6
CONTINUOUS
 62
     8
 10
-78.9572182701
 20
60.3284679792
 30
0.0
  0
VERTEX
  5
22D
  8
0
  6
CONTINUOUS
 62
     8
 10
-78.9568241738
 20
61.5879063515
 30
0.0
  0
VERTEX
  5
22E
  8
0
  6
CONTINUOUS
 62
     8
 10
-78.9565394805
 20
62.8767962702
 30
0.0
  0
VERTEX
  5
22F
  8
0
  6
CONTINUOUS
 62
     8
 10
-78.9563669843
 20
64.1899480094
 30
0.0
  0
VERTEX
  5
230
  8
0
  6
CONTINUOUS
 62
     8
 10
-78.9563098387
 20
65.5029948323
 30
0.0
  0
VERTEX
  5
231
  8
0
  6
CONTINUOUS
 62
     8
 10
-78.956366999
 20
66.8106129074
 30
0.0
  0
VERTEX
  5
232
  8
0
  6
CONTINUOUS
 62
     8
 10
-78.9565376014
 20
68.1128433073
 30
0.0
  0
VERTEX
  5
233
  8
0
  6
CONTINUOUS
 62
     8
 10
-78.9568231908
 20
69.4082232366
 30
0.0
  0
VERTEX
  5
234
  8
0
  6
CONTINUOUS
 62
     8
 10
-78.9572201507
 20
70.6767614914
 30
0.0
  0
VERTEX
  5
235
  8
0
  6
CONTINUOUS
 62
     8
 10
-78.9577227612
 20
71.905282154
 30
0.0
  0
VERTEX
  5
236
  8
0
  6
CONTINUOUS
 62
     8
 10
-78.9583307983
 20
73.0947383432
 30
0.0
  0
VERTEX
  5
237
  8
0
  6
CONTINUOUS
 62
     8
 10
-78.9590452773
 20
74.245398879
 30
0.0
  0
VERTEX
  5
238
  8
0
  6
CONTINUOUS
 62
     8
 10
-78.959858904
 20
75.3432496824
 30
0.0
  0
VERTEX
  5
239
  8
0
  6
CONTINUOUS
 62
     8
 10
-78.9607592274
 20
76.3726730011
 30
0.0
  0
VERTEX
  5
23A
  8
0
  6
CONTINUOUS
 62
     8
 10
-78.9617443206
 20
77.3340738961
 30
0.0
  0
VERTEX
  5
23B
  8
0
  6
CONTINUOUS
 62
     8
 10
-78.9628149863
 20
78.2268082446
 30
0.0
  0
VERTEX
  5
23C
  8
0
  6
CONTINUOUS
 62
     8
 10
-78.9639664515
 20
79.0454831688
 30
0.0
  0
VERTEX
  5
23D
  8
0
  6
CONTINUOUS
 62
     8
 10
-78.9651779253
 20
79.7752609183
 30
0.0
  0
VERTEX
  5
23E
  8
0
  6
CONTINUOUS
 62
     8
 10
-78.9664447985
 20
80.4150724362
 30
0.0
  0
VERTEX
  5
23F
  8
0
  6
CONTINUOUS
 62
     8
 10
-78.9677663574
 20
80.9649763519
 30
0.0
  0
VERTEX
  5
240
  8
0
  6
CONTINUOUS
 62
     8
 10
-78.9691422135
 20
81.4229674801
 30
0.0
  0
VERTEX
  5
241
  8
0
  6
CONTINUOUS
 62
     8
 10
-78.9705474521
 20
81.7805022504
 30
0.0
  0
VERTEX
  5
242
  8
0
  6
CONTINUOUS
 62
     8
 10
-78.9719716739
 20
82.036184494
 30
0.0
  0
VERTEX
  5
243
  8
0
  6
CONTINUOUS
 62
     8
 10
-78.9734150536
 20
82.1906962551
 30
0.0
  0
VERTEX
  5
244
  8
0
  6
CONTINUOUS
 62
     8
 10
-78.9748777183
 20
82.2431565016
 30
0.0
  0
VERTEX
  5
245
  8
0
  6
CONTINUOUS
 62
     8
 10
-78.9748842514
 20
82.2429257945
 30
0.0
  0
SEQEND
  5
252
  8
0
  6
CONTINUOUS
 62
     8
  0
POLYLINE
  5
E5
  8
0
  6
CONTINUOUS
 62
     8
 66
     1
 10
0.0
 20
0.0
 30
0.0
 70
   128
  0
VERTEX
  5
246
  8
0
  6
CONTINUOUS
 62
     8
 10
53.9756011706
 20
49.765189954
 30
0.0
  0
VERTEX
  5
247
  8
0
  6
CONTINUOUS
 62
     8
 10
53.9754545151
 20
49.7614389739
 30
0.0
  0
VERTEX
  5
248
  8
0
  6
CONTINUOUS
 62
     8
 10
53.974669882
 20
49.7602358733
 30
0.0
  0
SEQEND
  5
253
  8
0
  6
CONTINUOUS
 62
     8
  0
POLYLINE
  5
E6
  8
0
  6
CONTINUOUS
 62
     8
 66
     1
 10
0.0
 20
0.0
 30
0.0
 70
   128
  0
VERTEX
  5
249
  8
0
  6
CONTINUOUS
 62
     8
 10
53.9745982424
 20
81.2382905074
 30
0.0
  0
VERTEX
  5
24A
  8
0
  6
CONTINUOUS
 62
     8
 10
53.9746104808
 20
81.2385610261
 30
0.0
  0
VERTEX
  5
24B
  8
0
  6
CONTINUOUS
 62
     8
 10
53.9754545151
 20
81.2385610261
 30
0.0
  0
VERTEX
  5
24C
  8
0
  6
CONTINUOUS
 62
     8
 10
53.9759655407
 20
81.2206753696
 30
0.0
  0
SEQEND
  5
254
  8
0
  6
CONTINUOUS
 62
     8
  0
LINE
  5
F4
  8
0
  6
CONTINUOUS
 62
     7
 10
-78.9748842615
 20
48.7568421935
 30
0.0
 11
-45.9749045679
 21
48.7568421935
 31
0.0
  0
LINE
  5
F5
  8
0
  6
CONTINUOUS
 62
     7
 10
-45.9749045679
 20
82.2431578065
 30
0.0
 11
-78.9748842615
 21
82.2431578065
 31
0.0
  0
LINE
  5
F6
  8
0
  6
CONTINUOUS
 62
     7
 10
45.9750374207
 20
48.7568421935
 30
0.0
 11
52.9750331133
 21
48.7568421935
 31
0.0
  0
LINE
  5
F7
  8
0
  6
CONTINUOUS
 62
     7
 10
52.9750331133
 20
82.2431578065
 30
0.0
 11
45.9750374207
 21
82.2431578065
 31
0.0
  0
LINE
  5
F8
  8
0
  6
CONTINUOUS
 62
     7
 10
179.0
 20
196.0
 30
0.0
 11
179.0
 21
224.0
 31
0.0
  0
LINE
  5
F9
  8
0
  6
CONTINUOUS
 62
     7
 10
-179.0
 20
224.0
 30
0.0
 11
-179.0
 21
196.0
 31
0.0
  0
LINE
  5
FA
  8
0
  6
CONTINUOUS
 62
     7
 10
-166.9912731322
 20
0.0
 30
0.0
 11
-166.9097227955
 21
-9.3447429959
 31
0.0
  0
LINE
  5
FB
  8
0
  6
CONTINUOUS
 62
     7
 10
166.9097227955
 20
-9.3447429959
 30
0.0
 11
166.9912731322
 21
0.0
 31
0.0
  0
LINE
  5
FC
  8
0
  6
CONTINUOUS
 62
     7
 10
-165.2664967897
 20
-11.2952245404
 30
0.0
 11
-164.824338552
 21
-11.3753678984
 31
0.0
  0
LINE
  5
FD
  8
0
  6
CONTINUOUS
 62
     7
 10
164.824338552
 20
-11.3753678984
 30
0.0
 11
165.2664967897
 21
-11.2952245404
 31
0.0
  0
LINE
  5
FE
  8
0
  6
CONTINUOUS
 62
     7
 10
-164.824338552
 20
-11.3753678984
 30
0.0
 11
-156.4451775924
 21
-25.9160541097
 31
0.0
  0
LINE
  5
FF
  8
0
  6
CONTINUOUS
 62
     7
 10
156.4451775924
 20
-25.9160541097
 30
0.0
 11
164.824338552
 21
-11.3753678984
 31
0.0
  0
LINE
  5
100
  8
0
  6
CONTINUOUS
 62
     7
 10
135.3272111783
 20
226.0
 30
0.0
 11
127.2621867988
 21
357.861983017
 31
0.0
  0
LINE
  5
101
  8
0
  6
CONTINUOUS
 62
     7
 10
-127.2621867988
 20
357.861983017
 30
0.0
 11
-135.3272111783
 21
226.0
 31
0.0
  0
LINE
  5
102
  8
0
  6
CONTINUOUS
 62
     7
 10
-43.7027348229
 20
108.5
 30
0.0
 11
-43.7027348229
 21
3.5
 31
0.0
  0
LINE
  5
103
  8
0
  6
CONTINUOUS
 62
     7
 10
43.7027348229
 20
3.5
 30
0.0
 11
43.7027348229
 21
108.5
 31
0.0
  0
LINE
  5
104
  8
0
  6
CONTINUOUS
 62
     7
 10
-46.0
 20
3.5
 30
0.0
 11
46.0
 21
3.5
 31
0.0
  0
LINE
  5
105
  8
0
  6
CONTINUOUS
 62
     7
 10
-46.0
 20
108.5
 30
0.0
 11
46.0
 21
108.5
 31
0.0
  0
LINE
  5
106
  8
0
  6
CONTINUOUS
 62
     7
 10
-44.4311525104
 20
108.5
 30
0.0
 11
-44.4311525104
 21
3.5
 31
0.0
  0
LINE
  5
107
  8
0
  6
CONTINUOUS
 62
     7
 10
44.4311525104
 20
3.5
 30
0.0
 11
44.4311525104
 21
108.5
 31
0.0
  0
LINE
  5
108
  8
0
  6
CONTINUOUS
 62
     7
 10
45.9374225536
 20
3.5
 30
0.0
 11
45.9374225536
 21
108.5
 31
0.0
  0
LINE
  5
109
  8
0
  6
CONTINUOUS
 62
     7
 10
-45.9374225536
 20
3.5
 30
0.0
 11
-45.9374225536
 21
108.5
 31
0.0
  0
LINE
  5
10A
  8
0
  6
CONTINUOUS
 62
     7
 10
-46.0
 20
3.5
 30
0.0
 11
-46.0
 21
48.7568421935
 31
0.0
  0
LINE
  5
10B
  8
0
  6
CONTINUOUS
 62
     7
 10
-46.0
 20
82.2431578065
 30
0.0
 11
-46.0
 21
108.5
 31
0.0
  0
LINE
  5
10C
  8
0
  6
CONTINUOUS
 62
     7
 10
46.0
 20
108.5
 30
0.0
 11
46.0
 21
82.2431578065
 31
0.0
  0
LINE
  5
10D
  8
0
  6
CONTINUOUS
 62
     7
 10
46.0
 20
48.7568421935
 30
0.0
 11
46.0
 21
3.5
 31
0.0
  0
LINE
  5
10E
  8
0
  6
CONTINUOUS
 62
     7
 10
45.9564631666
 20
65.5
 30
0.0
 11
45.9750374207
 21
48.7568421935
 31
0.0
  0
LINE
  5
10F
  8
0
  6
CONTINUOUS
 62
     7
 10
45.9750374207
 20
82.2431578065
 30
0.0
 11
45.9564631666
 21
65.5
 31
0.0
  0
LINE
  5
110
  8
0
  6
CONTINUOUS
 62
     7
 10
53.9756011706
 20
49.765189954
 30
0.0
 11
53.9924973882
 21
65.5
 31
0.0
  0
LINE
  5
111
  8
0
  6
CONTINUOUS
 62
     7
 10
53.9745982424
 20
81.2382905074
 30
0.0
 11
53.974669882
 21
49.7602358733
 31
0.0
  0
LINE
  5
112
  8
0
  6
CONTINUOUS
 62
     7
 10
53.9924973882
 20
65.5
 30
0.0
 11
53.9759655407
 21
81.2206753696
 31
0.0
  0
LINE
  5
113
  8
0
  6
CONTINUOUS
 62
     7
 10
-179.0
 20
196.0
 30
0.0
 11
179.0
 21
196.0
 31
0.0
  0
LINE
  5
114
  8
0
  6
CONTINUOUS
 62
     7
 10
-177.0
 20
226.0
 30
0.0
 11
177.0
 21
226.0
 31
0.0
  0
LINE
  5
115
  8
0
  6
CONTINUOUS
 62
     7
 10
166.9912731322
 20
0.0
 30
0.0
 11
-166.9912731322
 21
0.0
 31
0.0
  0
LINE
  5
116
  8
0
  6
CONTINUOUS
 62
     7
 10
-164.824338552
 20
-11.3753678984
 30
0.0
 11
164.824338552
 21
-11.3753678984
 31
0.0
  0
LINE
  5
117
  8
0
  6
CONTINUOUS
 62
     7
 10
74.1889602569
 20
196.0
 30
0.0
 11
74.1889602569
 21
10.0
 31
0.0
  0
LINE
  5
118
  8
0
  6
CONTINUOUS
 62
     7
 10
45.6851463861
 20
3.5
 30
0.0
 11
42.25
 21
2.9032246048
 31
0.0
  0
LINE
  5
119
  8
0
  6
CONTINUOUS
 62
     7
 10
42.25
 20
3.5
 30
0.0
 11
42.25
 21
0.0
 31
0.0
  0
LINE
  5
11A
  8
0
  6
CONTINUOUS
 62
     7
 10
42.25
 20
108.5
 30
0.0
 11
42.25
 21
196.0
 31
0.0
  0
LINE
  5
11B
  8
0
  6
CONTINUOUS
 62
     7
 10
-42.25
 20
2.9032246048
 30
0.0
 11
-45.6856442117
 21
3.5
 31
0.0
  0
LINE
  5
11C
  8
0
  6
CONTINUOUS
 62
     7
 10
-74.1889602569
 20
10.0
 30
0.0
 11
-74.1889602569
 21
48.7568421935
 31
0.0
  0
LINE
  5
11D
  8
0
  6
CONTINUOUS
 62
     7
 10
-74.1889602569
 20
82.2431578065
 30
0.0
 11
-74.1889602569
 21
196.0
 31
0.0
  0
LINE
  5
11E
  8
0
  6
CONTINUOUS
 62
     7
 10
-42.25
 20
196.0
 30
0.0
 11
-42.25
 21
108.5
 31
0.0
  0
LINE
  5
11F
  8
0
  6
CONTINUOUS
 62
     7
 10
-42.25
 20
0.0
 30
0.0
 11
-42.25
 21
3.5
 31
0.0
  0
LINE
  5
120
  8
0
  6
CONTINUOUS
 62
     7
 10
74.1889602569
 20
10.0
 30
0.0
 11
176.0
 21
10.0
 31
0.0
  0
LINE
  5
121
  8
0
  6
CONTINUOUS
 62
     7
 10
176.0
 20
8.1036046206
 30
0.0
 11
176.0
 21
196.0
 31
0.0
  0
LINE
  5
122
  8
0
  6
CONTINUOUS
 62
     7
 10
170.6313730068
 20
4.5485898124
 30
0.0
 11
176.0
 21
8.1036046206
 31
0.0
  0
LINE
  5
123
  8
0
  6
CONTINUOUS
 62
     7
 10
171.0
 20
5.0265636018
 30
0.0
 11
170.6313730068
 21
4.5485898124
 31
0.0
  0
LINE
  5
124
  8
0
  6
CONTINUOUS
 62
     7
 10
-176.0
 20
10.0
 30
0.0
 11
-74.1889602569
 21
10.0
 31
0.0
  0
LINE
  5
125
  8
0
  6
CONTINUOUS
 62
     7
 10
-176.0
 20
196.0
 30
0.0
 11
-176.0
 21
8.1036046206
 31
0.0
  0
LINE
  5
126
  8
0
  6
CONTINUOUS
 62
     7
 10
-170.6313730068
 20
4.5485898124
 30
0.0
 11
-171.0
 21
5.0265636018
 31
0.0
  0
LINE
  5
127
  8
0
  6
CONTINUOUS
 62
     7
 10
-176.0
 20
8.1036046206
 30
0.0
 11
-170.6313730068
 21
4.5485898124
 31
0.0
  0
LINE
  5
128
  8
0
  6
CONTINUOUS
 62
     7
 10
18.0
 20
0.0
 30
0.0
 11
18.0
 21
3.5
 31
0.0
  0
LINE
  5
129
  8
0
  6
CONTINUOUS
 62
     7
 10
-18.0
 20
3.5
 30
0.0
 11
-18.0
 21
0.0
 31
0.0
  0
LINE
  5
12A
  8
0
  6
CONTINUOUS
 62
     7
 10
18.0
 20
196.0
 30
0.0
 11
18.0
 21
108.5
 31
0.0
  0
LINE
  5
12B
  8
0
  6
CONTINUOUS
 62
     7
 10
-18.0
 20
108.5
 30
0.0
 11
-18.0
 21
196.0
 31
0.0
  0
LINE
  5
12C
  8
0
  6
CONTINUOUS
 62
     7
 10
148.8843154169
 20
-33.1984222843
 30
0.0
 11
-148.8843154169
 21
-33.1984222843
 31
0.0
  0
LINE
  5
12D
  8
0
  6
CONTINUOUS
 62
     7
 10
89.2777589844
 20
-49.5
 30
0.0
 11
-89.2796048545
 21
-49.5
 31
0.0
  0
LINE
  5
12E
  8
0
  6
CONTINUOUS
 62
     7
 10
-170.6313730068
 20
4.7830298494
 30
0.0
 11
-170.6313730068
 21
4.5485898124
 31
0.0
  0
LINE
  5
12F
  8
0
  6
CONTINUOUS
 62
     7
 10
170.6313730068
 20
4.5485898124
 30
0.0
 11
170.6313730068
 21
4.7830298494
 31
0.0
  0
LINE
  5
130
  8
0
  6
CONTINUOUS
 62
     7
 10
153.2168579206
 20
-41.5
 30
0.0
 11
131.646059632
 21
-41.5
 31
0.0
  0
LINE
  5
131
  8
0
  6
CONTINUOUS
 62
     7
 10
154.5186067188
 20
-28.2884605808
 30
0.0
 11
154.2165533805
 21
-40.5246776719
 31
0.0
  0
LINE
  5
132
  8
0
  6
CONTINUOUS
 62
     7
 10
-154.2165533805
 20
-40.5246776719
 30
0.0
 11
-154.5186067188
 21
-28.2884605808
 31
0.0
  0
LINE
  5
133
  8
0
  6
CONTINUOUS
 62
     7
 10
-131.646059632
 20
-41.5
 30
0.0
 11
-153.2168579206
 21
-41.5
 31
0.0
  0
LINE
  5
134
  8
0
  6
CONTINUOUS
 62
     8
 10
52.9750331133
 20
82.2431578065
 30
0.0
 11
52.9564588592
 21
65.5
 31
0.0
  0
LINE
  5
135
  8
0
  6
CONTINUOUS
 62
     8
 10
52.9564588592
 20
65.5
 30
0.0
 11
52.9750331133
 21
48.7568421935
 31
0.0
  0
LINE
  5
136
  8
0
  6
CONTINUOUS
 62
     8
 10
-179.0
 20
224.0
 30
0.0
 11
179.0
 21
224.0
 31
0.0
  0
LINE
  5
137
  8
0
  6
CONTINUOUS
 62
     8
 10
-166.9097227955
 20
-9.3447429959
 30
0.0
 11
166.9097227955
 21
-9.3447429959
 31
0.0
  0
LINE
  5
138
  8
0
  6
CONTINUOUS
 62
     8
 10
-165.2664967897
 20
-11.2952245404
 30
0.0
 11
165.2664967897
 21
-11.2952245404
 31
0.0
  0
LINE
  5
139
  8
0
  6
CONTINUOUS
 62
     8
 10
-156.4451775924
 20
-25.9160541097
 30
0.0
 11
156.4451775924
 21
-25.9160541097
 31
0.0
  0
LINE
  5
13A
  8
0
  6
CONTINUOUS
 62
     8
 10
-19.3211009174
 20
0.0
 30
0.0
 11
-19.3211009174
 21
3.5
 31
0.0
  0
LINE
  5
13B
  8
0
  6
CONTINUOUS
 62
     8
 10
-19.3211009174
 20
108.5
 30
0.0
 11
-19.3211009174
 21
196.0
 31
0.0
  0
LINE
  5
13C
  8
0
  6
CONTINUOUS
 62
     8
 10
19.3211009174
 20
196.0
 30
0.0
 11
19.3211009174
 21
108.5
 31
0.0
  0
LINE
  5
13D
  8
0
  6
CONTINUOUS
 62
     8
 10
19.3211009174
 20
3.5
 30
0.0
 11
19.3211009174
 21
0.0
 31
0.0
  0
LINE
  5
13E
  8
0
  6
CONTINUOUS
 62
     8
 10
40.376146789
 20
0.0
 30
0.0
 11
40.376146789
 21
3.5
 31
0.0
  0
LINE
  5
13F
  8
0
  6
CONTINUOUS
 62
     8
 10
40.376146789
 20
108.5
 30
0.0
 11
40.376146789
 21
196.0
 31
0.0
  0
LINE
  5
140
  8
0
  6
CONTINUOUS
 62
     8
 10
-40.376146789
 20
196.0
 30
0.0
 11
-40.376146789
 21
108.5
 31
0.0
  0
LINE
  5
141
  8
0
  6
CONTINUOUS
 62
     8
 10
-40.376146789
 20
3.5
 30
0.0
 11
-40.376146789
 21
0.0
 31
0.0
  0
LINE
  5
142
  8
0
  6
CONTINUOUS
 62
     8
 10
127.2621867988
 20
357.861983017
 30
0.0
 11
-127.2621867988
 21
357.861983017
 31
0.0
  0
ARC
  5
143
  8
0
  6
CONTINUOUS
 62
     7
 10
52.9799636261
 20
49.7564520791
 30
0.0
 40
0.995374957812562
 50
269.725165951
 51
358.5297942024
  0
ARC
  5
144
  8
0
  6
CONTINUOUS
 62
     7
 10
52.9789842287
 20
81.2425298047
 30
0.0
 40
0.9966728872639796
 50
359.8903870038
 51
90.232468538
  0
ARC
  5
145
  8
0
  6
CONTINUOUS
 62
     7
 10
-177.0
 20
224.0
 30
0.0
 40
1.999999999999972
 50
90.0
 51
180.0
  0
ARC
  5
146
  8
0
  6
CONTINUOUS
 62
     7
 10
177.0
 20
224.0
 30
0.0
 40
1.999999999999972
 50
0.0
 51
90.0
  0
ARC
  5
147
  8
0
  6
CONTINUOUS
 62
     7
 10
164.9097989494
 20
-9.3272899249
 30
0.0
 40
1.999999999999972
 50
280.2736038242
 51
359.5000000001
  0
ARC
  5
148
  8
0
  6
CONTINUOUS
 62
     7
 10
-164.9097989494
 20
-9.3272899249
 30
0.0
 40
1.999999999999776
 50
180.5
 51
259.7263961758
  0
ARC
  5
149
  8
0
  6
CONTINUOUS
 62
     7
 10
141.676433406
 20
-17.6524052365
 30
0.0
 40
16.9234658844734
 50
319.2696544
 51
330.7714018683
  0
ARC
  5
14A
  8
0
  6
CONTINUOUS
 62
     7
 10
-141.4380332009
 20
-17.476204879
 30
0.0
 40
17.21759094132924
 50
209.3529113847
 51
220.6570488301
  0
ARC
  5
14B
  8
0
  6
CONTINUOUS
 62
     7
 10
89.2940377499
 20
68.4913632682
 30
0.0
 40
117.9913641509636
 50
269.9929914871
 51
291.224240254
  0
ARC
  5
14C
  8
0
  6
CONTINUOUS
 62
     7
 10
-89.2922838471
 20
68.5083254191
 30
0.0
 40
118.0083261001752
 50
248.777945273
 51
270.006155945
  0
ARC
  5
14D
  8
0
  6
CONTINUOUS
 62
     7
 10
0.0
 20
350.0782942263
 30
0.0
 40
127.4999999999998
 50
3.5
 51
176.5
  0
ARC
  5
14E
  8
0
  6
CONTINUOUS
 62
     7
 10
-10.7542169762
 20
316.6388917359
 30
0.0
 40
318.1866642137826
 50
280.2746961771
 51
285.4834611201
  0
ARC
  5
14F
  8
0
  6
CONTINUOUS
 62
     7
 10
10.7642614403
 20
316.6782358287
 30
0.0
 40
318.2272618864624
 50
254.516687127
 51
259.7247908989
  0
ARC
  5
150
  8
0
  6
CONTINUOUS
 62
     7
 10
-138.7725075951
 20
-15.9071770188
 30
0.0
 40
20.03087167990553
 50
218.178252982
 51
239.681181614
  0
ARC
  5
151
  8
0
  6
CONTINUOUS
 62
     7
 10
138.7720736447
 20
-15.9066790511
 30
0.0
 40
20.03152060381675
 50
300.3191708274
 51
321.8213945765
  0
ARC
  5
152
  8
0
  6
CONTINUOUS
 62
     7
 10
88.6552571224
 20
69.8189937193
 30
0.0
 40
119.3320051918528
 50
291.1162952666
 51
300.3126606714
  0
ARC
  5
153
  8
0
  6
CONTINUOUS
 62
     7
 10
-88.6552571224
 20
69.8189937193
 30
0.0
 40
119.3320051918436
 50
239.6873393286
 51
248.8837047334
  0
ARC
  5
154
  8
0
  6
CONTINUOUS
 62
     7
 10
153.2168579206
 20
-40.5
 30
0.0
 40
1.000000000000106
 50
270.0
 51
358.5859300007
  0
ARC
  5
155
  8
0
  6
CONTINUOUS
 62
     7
 10
-153.2168579206
 20
-40.5
 30
0.0
 40
0.9999999999999309
 50
181.4140699993
 51
270.0
  0
ENDSEC
  0
EOF
