  0
SECTION
  2
HEADER
  9
$ACADVER
  1
AC1009
  9
$DWGCODEPAGE
  3
ansi_1252
  9
$INSBASE
 10
0.0
 20
0.0
 30
0.0
  9
$EXTMIN
 10
-22.4983643644
 20
-17.0
 30
0.0
  9
$EXTMAX
 10
22.4987894218
 20
45.0
 30
0.0
  9
$LIMMIN
 10
0.0
 20
0.0
  9
$LIMMAX
 10
420.0
 20
297.0
  9
$ORTHOMODE
 70
     0
  9
$REGENMODE
 70
     1
  9
$FILLMODE
 70
     1
  9
$QTEXTMODE
 70
     0
  9
$MIRRTEXT
 70
     1
  9
$DRAGMODE
 70
     2
  9
$LTSCALE
 40
1.0
  9
$OSMODE
 70
    37
  9
$ATTMODE
 70
     1
  9
$TEXTSIZE
 40
2.5
  9
$TRACEWID
 40
1.0
  9
$TEXTSTYLE
  7
STANDARD
  9
$CLAYER
  8
0
  9
$CELTYPE
  6
BYLAYER
  9
$CECOLOR
 62
   256
  9
$DIMSCALE
 40
1.0
  9
$DIMASZ
 40
3.5
  9
$DIMEXO
 40
0.0
  9
$DIMDLI
 40
3.75
  9
$DIMRND
 40
0.0
  9
$DIMDLE
 40
0.0
  9
$DIMEXE
 40
2.0
  9
$DIMTP
 40
0.0
  9
$DIMTM
 40
0.0
  9
$DIMTXT
 40
3.5
  9
$DIMCEN
 40
2.5
  9
$DIMTSZ
 40
0.0
  9
$DIMTOL
 70
     0
  9
$DIMLIM
 70
     0
  9
$DIMTIH
 70
     1
  9
$DIMTOH
 70
     1
  9
$DIMSE1
 70
     0
  9
$DIMSE2
 70
     0
  9
$DIMTAD
 70
     1
  9
$DIMZIN
 70
     0
  9
$DIMBLK
  1

  9
$DIMASO
 70
     1
  9
$DIMSHO
 70
     1
  9
$DIMPOST
  1

  9
$DIMAPOST
  1

  9
$DIMALT
 70
     0
  9
$DIMALTD
 70
     3
  9
$DIMALTF
 40
0.0393700787
  9
$DIMLFAC
 40
1.0
  9
$DIMTOFL
 70
     1
  9
$DIMTVP
 40
0.0
  9
$DIMTIX
 70
     0
  9
$DIMSOXD
 70
     0
  9
$DIMSAH
 70
     0
  9
$DIMBLK1
  1

  9
$DIMBLK2
  1

  9
$DIMSTYLE
  2
ISO-25
  9
$DIMCLRD
 70
     0
  9
$DIMCLRE
 70
     0
  9
$DIMCLRT
 70
     0
  9
$DIMTFAC
 40
1.0
  9
$DIMGAP
 40
1.0
  9
$LUNITS
 70
     2
  9
$LUPREC
 70
     2
  9
$SKETCHINC
 40
1.0
  9
$FILLETRAD
 40
10.0
  9
$AUNITS
 70
     0
  9
$AUPREC
 70
     2
  9
$MENU
  1
.
  9
$ELEVATION
 40
0.0
  9
$PELEVATION
 40
0.0
  9
$THICKNESS
 40
0.0
  9
$LIMCHECK
 70
     0
  9
$CHAMFERA
 40
0.0
  9
$CHAMFERB
 40
0.0
  9
$SKPOLY
 70
     0
  9
$TDCREATE
 40
2457347.556141065
  9
$TDUPDATE
 40
2457347.556168009
  9
$TDINDWG
 40
0.0000000116
  9
$TDUSRTIMER
 40
0.0000000116
  9
$USRTIMER
 70
     1
  9
$ANGBASE
 50
0.0
  9
$ANGDIR
 70
     0
  9
$PDMODE
 70
     0
  9
$PDSIZE
 40
-1.0
  9
$PLINEWID
 40
0.0
  9
$COORDS
 70
     1
  9
$SPLFRAME
 70
     0
  9
$SPLINETYPE
 70
     6
  9
$SPLINESEGS
 70
     8
  9
$ATTDIA
 70
     0
  9
$ATTREQ
 70
     1
  9
$HANDLING
 70
     1
  9
$HANDSEED
  5
133
  9
$SURFTAB1
 70
     6
  9
$SURFTAB2
 70
     6
  9
$SURFTYPE
 70
     6
  9
$SURFU
 70
     6
  9
$SURFV
 70
     6
  9
$UCSNAME
  2

  9
$UCSORG
 10
0.0
 20
0.0
 30
0.0
  9
$UCSXDIR
 10
1.0
 20
0.0
 30
0.0
  9
$UCSYDIR
 10
0.0
 20
1.0
 30
0.0
  9
$PUCSNAME
  2

  9
$PUCSORG
 10
0.0
 20
0.0
 30
0.0
  9
$PUCSXDIR
 10
1.0
 20
0.0
 30
0.0
  9
$PUCSYDIR
 10
0.0
 20
1.0
 30
0.0
  9
$USERI1
 70
     0
  9
$USERI2
 70
     0
  9
$USERI3
 70
     0
  9
$USERI4
 70
     0
  9
$USERI5
 70
     0
  9
$USERR1
 40
0.0
  9
$USERR2
 40
0.0
  9
$USERR3
 40
0.0
  9
$USERR4
 40
0.0
  9
$USERR5
 40
0.0
  9
$WORLDVIEW
 70
     1
  9
$SHADEDGE
 70
     3
  9
$SHADEDIF
 70
    70
  9
$TILEMODE
 70
     1
  9
$MAXACTVP
 70
    64
  9
$PLIMCHECK
 70
     0
  9
$PEXTMIN
 10
1.0000000000E+20
 20
1.0000000000E+20
 30
1.0000000000E+20
  9
$PEXTMAX
 10
-1.0000000000E+20
 20
-1.0000000000E+20
 30
-1.0000000000E+20
  9
$PLIMMIN
 10
0.0
 20
0.0
  9
$PLIMMAX
 10
420.0
 20
297.0
  9
$UNITMODE
 70
     0
  9
$VISRETAIN
 70
     1
  9
$PLINEGEN
 70
     0
  9
$PSLTSCALE
 70
     1
  0
ENDSEC
  0
SECTION
  2
TABLES
  0
TABLE
  2
VPORT
 70
     1
  0
VPORT
  2
*ACTIVE
 70
     0
 10
0.0
 20
0.0
 11
1.0
 21
1.0
 12
0.0002125287
 22
14.0
 13
0.0
 23
0.0
 14
10.0
 24
10.0
 15
10.0
 25
10.0
 16
0.0
 26
0.0
 36
1.0
 17
0.0
 27
0.0
 37
0.0
 40
63.24
 41
0.7257605449
 42
50.0
 43
0.0
 44
0.0
 50
0.0
 51
0.0
 71
     0
 72
   100
 73
     1
 74
     3
 75
     0
 76
     0
 77
     0
 78
     0
  0
ENDTAB
  0
TABLE
  2
LTYPE
 70
     6
  0
LTYPE
  2
CONTINUOUS
 70
     0
  3
Solid line
 72
    65
 73
     0
 40
0.0
  0
LTYPE
  2
HIDDEN
 70
     0
  3
Hidden __ __ __ __ __ __ __ __ __ __ __ __ __ __
 72
    65
 73
     2
 40
1.905
 49
1.27
 49
-0.635
  0
LTYPE
  2
PHANTOM
 70
     0
  3
Phantom ______  __  __  ______  __  __  ______
 72
    65
 73
     6
 40
12.7
 49
6.35
 49
-1.27
 49
1.27
 49
-1.27
 49
1.27
 49
-1.27
  0
LTYPE
  2
CENTER
 70
     0
  3
Center ____ _ ____ _ ____ _ ____ _ ____ _ ____
 72
    65
 73
     4
 40
10.16
 49
6.35
 49
-1.27
 49
1.27
 49
-1.27
  0
LTYPE
  2
CENTERX2
 70
     0
  3
Center (2x) ________  __  ________  __  _____
 72
    65
 73
     4
 40
20.32
 49
12.7
 49
-2.54
 49
2.54
 49
-2.54
  0
LTYPE
  2
DOT2
 70
     0
  3
Dot (.5x) ........................................
 72
    65
 73
     2
 40
0.635
 49
0.0
 49
-0.635
  0
ENDTAB
  0
TABLE
  2
LAYER
 70
     1
  0
LAYER
  2
0
 70
     0
 62
     7
  6
CONTINUOUS
  0
ENDTAB
  0
TABLE
  2
STYLE
 70
     1
  0
STYLE
  2
STANDARD
 70
     0
 40
0.0
 41
1.0
 50
0.0
 71
     0
 42
2.5
  3
txt
  4

  0
ENDTAB
  0
TABLE
  2
VIEW
 70
     0
  0
ENDTAB
  0
TABLE
  2
UCS
 70
     0
  0
ENDTAB
  0
TABLE
  2
APPID
 70
     1
  0
APPID
  2
ACAD
 70
     0
  0
ENDTAB
  0
TABLE
  2
DIMSTYLE
 70
     1
  0
DIMSTYLE
  2
ISO-25
 70
     0
  3

  4

  5

  6

  7

 40
1.0
 41
2.5
 42
0.625
 43
3.75
 44
1.25
 45
0.0
 46
0.0
 47
0.0
 48
0.0
140
2.5
141
2.5
142
0.0
143
0.0393700787
144
1.0
145
0.0
146
1.0
147
0.625
 71
     0
 72
     0
 73
     0
 74
     0
 75
     0
 76
     0
 77
     1
 78
     8
170
     0
171
     3
172
     1
173
     0
174
     0
175
     0
176
     0
177
     0
178
     0
  0
ENDTAB
  0
ENDSEC
  0
SECTION
  2
BLOCKS
  0
BLOCK
  8
0
  2
$MODEL_SPACE
 70
     0
 10
0.0
 20
0.0
 30
0.0
  3
$MODEL_SPACE
  1

  0
ENDBLK
  5
21
  8
0
  0
BLOCK
 67
     1
  8
0
  2
$PAPER_SPACE
 70
     0
 10
0.0
 20
0.0
 30
0.0
  3
$PAPER_SPACE
  1

  0
ENDBLK
  5
1D
 67
     1
  8
0
  0
ENDSEC
  0
SECTION
  2
ENTITIES
  0
POLYLINE
  5
87
  8
0
  6
CONTINUOUS
 62
     7
 66
     1
 10
0.0
 20
0.0
 30
0.0
 70
   128
  0
VERTEX
  5
BA
  8
0
  6
CONTINUOUS
 62
     7
 10
-12.0334755367
 20
7.7727334804
 30
0.0
  0
VERTEX
  5
BB
  8
0
  6
CONTINUOUS
 62
     7
 10
-11.776694796
 20
7.8051179389
 30
0.0
  0
VERTEX
  5
BC
  8
0
  6
CONTINUOUS
 62
     7
 10
-11.5176688955
 20
7.8380882094
 30
0.0
  0
VERTEX
  5
BD
  8
0
  6
CONTINUOUS
 62
     7
 10
-11.2568859604
 20
7.8715901809
 30
0.0
  0
VERTEX
  5
BE
  8
0
  6
CONTINUOUS
 62
     7
 10
-10.9948341159
 20
7.9055697429
 30
0.0
  0
VERTEX
  5
BF
  8
0
  6
CONTINUOUS
 62
     7
 10
-10.7272553898
 20
7.9405949967
 30
0.0
  0
VERTEX
  5
C0
  8
0
  6
CONTINUOUS
 62
     7
 10
-10.4587138023
 20
7.9760785823
 30
0.0
  0
VERTEX
  5
C1
  8
0
  6
CONTINUOUS
 62
     7
 10
-10.1895913269
 20
8.0119709555
 30
0.0
  0
VERTEX
  5
C2
  8
0
  6
CONTINUOUS
 62
     7
 10
-9.9202699376
 20
8.048222572
 30
0.0
  0
VERTEX
  5
C3
  8
0
  6
CONTINUOUS
 62
     7
 10
-9.555920325
 20
8.0977950252
 30
0.0
  0
VERTEX
  5
C4
  8
0
  6
CONTINUOUS
 62
     7
 10
-9.1918902923
 20
8.147938362
 30
0.0
  0
VERTEX
  5
C5
  8
0
  6
CONTINUOUS
 62
     7
 10
-8.8520403582
 20
8.195315969
 30
0.0
  0
VERTEX
  5
C6
  8
0
  6
CONTINUOUS
 62
     7
 10
-8.5131779889
 20
8.2431051748
 30
0.0
  0
VERTEX
  5
C7
  8
0
  6
CONTINUOUS
 62
     7
 10
-8.1756234457
 20
8.2912608165
 30
0.0
  0
VERTEX
  5
C8
  8
0
  6
CONTINUOUS
 62
     7
 10
-7.8395813724
 20
8.339748831
 30
0.0
  0
VERTEX
  5
C9
  8
0
  6
CONTINUOUS
 62
     7
 10
-7.4981533393
 20
8.3895769682
 30
0.0
  0
VERTEX
  5
CA
  8
0
  6
CONTINUOUS
 62
     7
 10
-7.1585905075
 20
8.4396924366
 30
0.0
  0
VERTEX
  5
CB
  8
0
  6
CONTINUOUS
 62
     7
 10
-6.8211461679
 20
8.4900424877
 30
0.0
  0
VERTEX
  5
CC
  8
0
  6
CONTINUOUS
 62
     7
 10
-6.486073612
 20
8.5405743731
 30
0.0
  0
VERTEX
  5
CD
  8
0
  6
CONTINUOUS
 62
     7
 10
-6.0379688125
 20
8.6089803765
 30
0.0
  0
VERTEX
  5
CE
  8
0
  6
CONTINUOUS
 62
     7
 10
-5.5941845802
 20
8.6776176501
 30
0.0
  0
VERTEX
  5
CF
  8
0
  6
CONTINUOUS
 62
     7
 10
-5.1549405536
 20
8.7463655929
 30
0.0
  0
VERTEX
  5
D0
  8
0
  6
CONTINUOUS
 62
     7
 10
-4.7267082273
 20
8.8140805426
 30
0.0
  0
VERTEX
  5
D1
  8
0
  6
CONTINUOUS
 62
     7
 10
-4.3023324221
 20
8.8816768442
 30
0.0
  0
VERTEX
  5
D2
  8
0
  6
CONTINUOUS
 62
     7
 10
-3.8395132863
 20
8.9559289639
 30
0.0
  0
VERTEX
  5
D3
  8
0
  6
CONTINUOUS
 62
     7
 10
-3.3795056978
 20
9.0295924007
 30
0.0
  0
VERTEX
  5
D4
  8
0
  6
CONTINUOUS
 62
     7
 10
-2.9200924611
 20
9.1017914832
 30
0.0
  0
VERTEX
  5
D5
  8
0
  6
CONTINUOUS
 62
     7
 10
-2.4590563807
 20
9.1716505402
 30
0.0
  0
VERTEX
  5
D6
  8
0
  6
CONTINUOUS
 62
     7
 10
-1.9941802613
 20
9.2382939004
 30
0.0
  0
VERTEX
  5
D7
  8
0
  6
CONTINUOUS
 62
     7
 10
-1.675135184
 20
9.2810553384
 30
0.0
  0
VERTEX
  5
D8
  8
0
  6
CONTINUOUS
 62
     7
 10
-1.3528395583
 20
9.3208173111
 30
0.0
  0
VERTEX
  5
D9
  8
0
  6
CONTINUOUS
 62
     7
 10
-1.1357790832
 20
9.3452298933
 30
0.0
  0
VERTEX
  5
DA
  8
0
  6
CONTINUOUS
 62
     7
 10
-0.9168059782
 20
9.3675241248
 30
0.0
  0
VERTEX
  5
DB
  8
0
  6
CONTINUOUS
 62
     7
 10
-0.6958316997
 20
9.3872707984
 30
0.0
  0
VERTEX
  5
DC
  8
0
  6
CONTINUOUS
 62
     7
 10
-0.466150814
 20
9.4044365034
 30
0.0
  0
VERTEX
  5
DD
  8
0
  6
CONTINUOUS
 62
     7
 10
-0.234099569
 20
9.4178910997
 30
0.0
  0
VERTEX
  5
DE
  8
0
  6
CONTINUOUS
 62
     7
 10
0.0
 20
9.42714157
 30
0.0
  0
SEQEND
  5
130
  8
0
  6
CONTINUOUS
 62
     7
  0
POLYLINE
  5
93
  8
0
  6
CONTINUOUS
 62
     8
 66
     1
 10
0.0
 20
0.0
 30
0.0
 70
   128
  0
VERTEX
  5
DF
  8
0
  6
CONTINUOUS
 62
     8
 10
12.3851075952
 20
1.3123676181
 30
0.0
  0
VERTEX
  5
E0
  8
0
  6
CONTINUOUS
 62
     8
 10
12.3851898764
 20
1.3122655322
 30
0.0
  0
VERTEX
  5
E1
  8
0
  6
CONTINUOUS
 62
     8
 10
12.3811370188
 20
1.3172983507
 30
0.0
  0
VERTEX
  5
E2
  8
0
  6
CONTINUOUS
 62
     8
 10
12.3694228134
 20
1.331957656
 30
0.0
  0
VERTEX
  5
E3
  8
0
  6
CONTINUOUS
 62
     8
 10
12.350189987
 20
1.3562434482
 30
0.0
  0
VERTEX
  5
E4
  8
0
  6
CONTINUOUS
 62
     8
 10
12.323586467
 20
1.3901557272
 30
0.0
  0
VERTEX
  5
E5
  8
0
  6
CONTINUOUS
 62
     8
 10
12.2897650453
 20
1.433694493
 30
0.0
  0
VERTEX
  5
E6
  8
0
  6
CONTINUOUS
 62
     8
 10
12.2637851011
 20
1.4674170474
 30
0.0
  0
VERTEX
  5
E7
  8
0
  6
CONTINUOUS
 62
     8
 10
12.2348232596
 20
1.5052666034
 30
0.0
  0
VERTEX
  5
E8
  8
0
  6
CONTINUOUS
 62
     8
 10
12.202925405
 20
1.5472431608
 30
0.0
  0
VERTEX
  5
E9
  8
0
  6
CONTINUOUS
 62
     8
 10
12.1681381164
 20
1.5933467198
 30
0.0
  0
VERTEX
  5
EA
  8
0
  6
CONTINUOUS
 62
     8
 10
12.1305086292
 20
1.6435772802
 30
0.0
  0
VERTEX
  5
EB
  8
0
  6
CONTINUOUS
 62
     8
 10
12.0900847971
 20
1.6979348422
 30
0.0
  0
VERTEX
  5
EC
  8
0
  6
CONTINUOUS
 62
     8
 10
12.0329881122
 20
1.7754387558
 30
0.0
  0
VERTEX
  5
ED
  8
0
  6
CONTINUOUS
 62
     8
 10
11.9716666974
 20
1.8597046463
 30
0.0
  0
VERTEX
  5
EE
  8
0
  6
CONTINUOUS
 62
     8
 10
11.9063096677
 20
1.9507325138
 30
0.0
  0
VERTEX
  5
EF
  8
0
  6
CONTINUOUS
 62
     8
 10
11.8371048835
 20
2.0485223581
 30
0.0
  0
VERTEX
  5
F0
  8
0
  6
CONTINUOUS
 62
     8
 10
11.7642387351
 20
2.1530741794
 30
0.0
  0
VERTEX
  5
F1
  8
0
  6
CONTINUOUS
 62
     8
 10
11.6865303675
 20
2.2664053999
 30
0.0
  0
VERTEX
  5
F2
  8
0
  6
CONTINUOUS
 62
     8
 10
11.6319540395
 20
2.3471883006
 30
0.0
  0
VERTEX
  5
F3
  8
0
  6
CONTINUOUS
 62
     8
 10
11.5761028278
 20
2.4309281687
 30
0.0
  0
VERTEX
  5
F4
  8
0
  6
CONTINUOUS
 62
     8
 10
11.5190556943
 20
2.5176250043
 30
0.0
  0
VERTEX
  5
F5
  8
0
  6
CONTINUOUS
 62
     8
 10
11.4608903474
 20
2.6072788073
 30
0.0
  0
VERTEX
  5
F6
  8
0
  6
CONTINUOUS
 62
     8
 10
11.4016832173
 20
2.6998895777
 30
0.0
  0
VERTEX
  5
F7
  8
0
  6
CONTINUOUS
 62
     8
 10
11.3415094332
 20
2.7954573156
 30
0.0
  0
VERTEX
  5
F8
  8
0
  6
CONTINUOUS
 62
     8
 10
11.2804428029
 20
2.893982021
 30
0.0
  0
VERTEX
  5
F9
  8
0
  6
CONTINUOUS
 62
     8
 10
11.2151892995
 20
3.0010391197
 30
0.0
  0
VERTEX
  5
FA
  8
0
  6
CONTINUOUS
 62
     8
 10
11.1493801154
 20
3.110971066
 30
0.0
  0
VERTEX
  5
FB
  8
0
  6
CONTINUOUS
 62
     8
 10
11.0831137203
 20
3.2237778599
 30
0.0
  0
VERTEX
  5
FC
  8
0
  6
CONTINUOUS
 62
     8
 10
11.0164859544
 20
3.3394595014
 30
0.0
  0
VERTEX
  5
FD
  8
0
  6
CONTINUOUS
 62
     8
 10
10.9495900265
 20
3.4580159904
 30
0.0
  0
VERTEX
  5
FE
  8
0
  6
CONTINUOUS
 62
     8
 10
10.8825165136
 20
3.579447327
 30
0.0
  0
VERTEX
  5
FF
  8
0
  6
CONTINUOUS
 62
     8
 10
10.8153533652
 20
3.7037535112
 30
0.0
  0
VERTEX
  5
100
  8
0
  6
CONTINUOUS
 62
     8
 10
10.7481859088
 20
3.8309345429
 30
0.0
  0
VERTEX
  5
101
  8
0
  6
CONTINUOUS
 62
     8
 10
10.6673572481
 20
3.9880570451
 30
0.0
  0
VERTEX
  5
102
  8
0
  6
CONTINUOUS
 62
     8
 10
10.5871596412
 20
4.1487420029
 30
0.0
  0
VERTEX
  5
103
  8
0
  6
CONTINUOUS
 62
     8
 10
10.5077450712
 20
4.3129894164
 30
0.0
  0
VERTEX
  5
104
  8
0
  6
CONTINUOUS
 62
     8
 10
10.4292584961
 20
4.4807992855
 30
0.0
  0
VERTEX
  5
105
  8
0
  6
CONTINUOUS
 62
     8
 10
10.3518379376
 20
4.6521716102
 30
0.0
  0
VERTEX
  5
106
  8
0
  6
CONTINUOUS
 62
     8
 10
10.275614575
 20
4.8271063906
 30
0.0
  0
VERTEX
  5
107
  8
0
  6
CONTINUOUS
 62
     8
 10
10.2007128436
 20
5.0056036266
 30
0.0
  0
VERTEX
  5
108
  8
0
  6
CONTINUOUS
 62
     8
 10
10.1006090928
 20
5.2556180618
 30
0.0
  0
VERTEX
  5
109
  8
0
  6
CONTINUOUS
 62
     8
 10
10.0038015096
 20
5.511698318
 30
0.0
  0
VERTEX
  5
10A
  8
0
  6
CONTINUOUS
 62
     8
 10
9.9105607047
 20
5.7738443954
 30
0.0
  0
VERTEX
  5
10B
  8
0
  6
CONTINUOUS
 62
     8
 10
9.8211333489
 20
6.0420562939
 30
0.0
  0
VERTEX
  5
10C
  8
0
  6
CONTINUOUS
 62
     8
 10
9.7357427876
 20
6.3163340135
 30
0.0
  0
VERTEX
  5
10D
  8
0
  6
CONTINUOUS
 62
     8
 10
9.6545896493
 20
6.5966775543
 30
0.0
  0
VERTEX
  5
10E
  8
0
  6
CONTINUOUS
 62
     8
 10
9.5821156288
 20
6.8665572611
 30
0.0
  0
VERTEX
  5
10F
  8
0
  6
CONTINUOUS
 62
     8
 10
9.5136995279
 20
7.1418293591
 30
0.0
  0
VERTEX
  5
110
  8
0
  6
CONTINUOUS
 62
     8
 10
9.4494568121
 20
7.4224938483
 30
0.0
  0
VERTEX
  5
111
  8
0
  6
CONTINUOUS
 62
     8
 10
9.3894867436
 20
7.7085507287
 30
0.0
  0
VERTEX
  5
112
  8
0
  6
CONTINUOUS
 62
     8
 10
9.3338727632
 20
8.0000000003
 30
0.0
  0
SEQEND
  5
131
  8
0
  6
CONTINUOUS
 62
     8
  0
POLYLINE
  5
94
  8
0
  6
CONTINUOUS
 62
     8
 66
     1
 10
0.0
 20
0.0
 30
0.0
 70
   128
  0
VERTEX
  5
113
  8
0
  6
CONTINUOUS
 62
     8
 10
13.8996307123
 20
4.8071064451
 30
0.0
  0
VERTEX
  5
114
  8
0
  6
CONTINUOUS
 62
     8
 10
13.8997143493
 20
4.8070342099
 30
0.0
  0
VERTEX
  5
115
  8
0
  6
CONTINUOUS
 62
     8
 10
13.8939650401
 20
4.8119880693
 30
0.0
  0
VERTEX
  5
116
  8
0
  6
CONTINUOUS
 62
     8
 10
13.8772694921
 20
4.8265118159
 30
0.0
  0
VERTEX
  5
117
  8
0
  6
CONTINUOUS
 62
     8
 10
13.8499333131
 20
4.8505477923
 30
0.0
  0
VERTEX
  5
118
  8
0
  6
CONTINUOUS
 62
     8
 10
13.8122679891
 20
4.8840347547
 30
0.0
  0
VERTEX
  5
119
  8
0
  6
CONTINUOUS
 62
     8
 10
13.7646015369
 20
4.9269942306
 30
0.0
  0
VERTEX
  5
11A
  8
0
  6
CONTINUOUS
 62
     8
 10
13.7072198529
 20
4.9796118541
 30
0.0
  0
VERTEX
  5
11B
  8
0
  6
CONTINUOUS
 62
     8
 10
13.6404024619
 20
5.0420864805
 30
0.0
  0
VERTEX
  5
11C
  8
0
  6
CONTINUOUS
 62
     8
 10
13.5643379716
 20
5.1147790301
 30
0.0
  0
VERTEX
  5
11D
  8
0
  6
CONTINUOUS
 62
     8
 10
13.4798517379
 20
5.1976660876
 30
0.0
  0
VERTEX
  5
11E
  8
0
  6
CONTINUOUS
 62
     8
 10
13.3881182598
 20
5.290431032
 30
0.0
  0
VERTEX
  5
11F
  8
0
  6
CONTINUOUS
 62
     8
 10
13.2902506166
 20
5.392813068
 30
0.0
  0
VERTEX
  5
120
  8
0
  6
CONTINUOUS
 62
     8
 10
13.1870195298
 20
5.5050954124
 30
0.0
  0
VERTEX
  5
121
  8
0
  6
CONTINUOUS
 62
     8
 10
13.0949135908
 20
5.609615093
 30
0.0
  0
VERTEX
  5
122
  8
0
  6
CONTINUOUS
 62
     8
 10
13.0000495921
 20
5.7221201989
 30
0.0
  0
VERTEX
  5
123
  8
0
  6
CONTINUOUS
 62
     8
 10
12.9029185664
 20
5.8431066262
 30
0.0
  0
VERTEX
  5
124
  8
0
  6
CONTINUOUS
 62
     8
 10
12.8044015127
 20
5.9729667389
 30
0.0
  0
VERTEX
  5
125
  8
0
  6
CONTINUOUS
 62
     8
 10
12.7059365938
 20
6.1114422896
 30
0.0
  0
VERTEX
  5
126
  8
0
  6
CONTINUOUS
 62
     8
 10
12.6089751073
 20
6.2582553064
 30
0.0
  0
VERTEX
  5
127
  8
0
  6
CONTINUOUS
 62
     8
 10
12.5148342071
 20
6.4132788845
 30
0.0
  0
VERTEX
  5
128
  8
0
  6
CONTINUOUS
 62
     8
 10
12.4355055795
 20
6.5562066532
 30
0.0
  0
VERTEX
  5
129
  8
0
  6
CONTINUOUS
 62
     8
 10
12.3598140926
 20
6.7065549622
 30
0.0
  0
VERTEX
  5
12A
  8
0
  6
CONTINUOUS
 62
     8
 10
12.2885322404
 20
6.8649130262
 30
0.0
  0
VERTEX
  5
12B
  8
0
  6
CONTINUOUS
 62
     8
 10
12.222452182
 20
7.0318289247
 30
0.0
  0
VERTEX
  5
12C
  8
0
  6
CONTINUOUS
 62
     8
 10
12.1630646449
 20
7.2062364899
 30
0.0
  0
VERTEX
  5
12D
  8
0
  6
CONTINUOUS
 62
     8
 10
12.1113751678
 20
7.3876549
 30
0.0
  0
VERTEX
  5
12E
  8
0
  6
CONTINUOUS
 62
     8
 10
12.0679801557
 20
7.5763863276
 30
0.0
  0
VERTEX
  5
12F
  8
0
  6
CONTINUOUS
 62
     8
 10
12.0334760137
 20
7.7727329457
 30
0.0
  0
SEQEND
  5
132
  8
0
  6
CONTINUOUS
 62
     8
  0
LINE
  5
9A
  8
0
  6
CONTINUOUS
 62
     7
 10
12.5
 20
0.0
 30
0.0
 11
12.3851821404
 21
1.31237414
 31
0.0
  0
LINE
  5
9B
  8
0
  6
CONTINUOUS
 62
     7
 10
-12.3851781338
 20
1.3124199365
 30
0.0
 11
-12.5
 21
0.0
 31
0.0
  0
LINE
  5
9C
  8
0
  6
CONTINUOUS
 62
     7
 10
-5.0
 20
-16.08
 30
0.0
 11
-4.08
 21
-17.0
 31
0.0
  0
LINE
  5
9D
  8
0
  6
CONTINUOUS
 62
     7
 10
4.08
 20
-17.0
 30
0.0
 11
5.0
 21
-16.08
 31
0.0
  0
LINE
  5
9E
  8
0
  6
CONTINUOUS
 62
     7
 10
-5.0
 20
-2.9999999999
 30
0.0
 11
-5.0
 21
-16.08
 31
0.0
  0
LINE
  5
9F
  8
0
  6
CONTINUOUS
 62
     7
 10
5.0
 20
-16.08
 30
0.0
 11
5.0
 21
-2.9999999999
 31
0.0
  0
LINE
  5
A0
  8
0
  6
CONTINUOUS
 62
     7
 10
4.9999999999
 20
-2.9999999999
 30
0.0
 11
4.5000000001
 21
-2.7113248654
 31
0.0
  0
LINE
  5
A1
  8
0
  6
CONTINUOUS
 62
     7
 10
-4.5000000001
 20
-2.7113248654
 30
0.0
 11
-4.9999999999
 21
-2.9999999999
 31
0.0
  0
LINE
  5
A2
  8
0
  6
CONTINUOUS
 62
     7
 10
-4.0
 20
0.0
 30
0.0
 11
-4.0
 21
-1.8452994616
 31
0.0
  0
LINE
  5
A3
  8
0
  6
CONTINUOUS
 62
     7
 10
4.0
 20
-1.8452994616
 30
0.0
 11
4.0
 21
0.0
 31
0.0
  0
LINE
  5
A4
  8
0
  6
CONTINUOUS
 62
     7
 10
-9.3338732741
 20
7.9999999002
 30
0.0
 11
9.3338732615
 21
7.9999999002
 31
0.0
  0
LINE
  5
A5
  8
0
  6
CONTINUOUS
 62
     7
 10
-12.5
 20
0.0
 30
0.0
 11
12.5
 21
0.0
 31
0.0
  0
LINE
  5
A6
  8
0
  6
CONTINUOUS
 62
     7
 10
0.0
 20
9.42714157
 30
0.0
 11
0.0
 21
10.0
 31
0.0
  0
LINE
  5
A7
  8
0
  6
CONTINUOUS
 62
     7
 10
0.0
 20
35.0
 30
0.0
 11
0.0
 21
45.0
 31
0.0
  0
LINE
  5
A8
  8
0
  6
CONTINUOUS
 62
     7
 10
-5.0
 20
-16.08
 30
0.0
 11
5.0
 21
-16.08
 31
0.0
  0
LINE
  5
A9
  8
0
  6
CONTINUOUS
 62
     7
 10
-4.08
 20
-17.0
 30
0.0
 11
4.08
 21
-17.0
 31
0.0
  0
LINE
  5
AA
  8
0
  6
CONTINUOUS
 62
     7
 10
-5.0
 20
-2.9999999999
 30
0.0
 11
5.0
 21
-2.9999999999
 31
0.0
  0
LINE
  5
AB
  8
0
  6
CONTINUOUS
 62
     8
 10
4.5000000001
 20
-2.7113248654
 30
0.0
 11
-4.5000000001
 21
-2.7113248654
 31
0.0
  0
LINE
  5
AC
  8
0
  6
CONTINUOUS
 62
     8
 10
-4.0
 20
-1.8452994616
 30
0.0
 11
4.0
 21
-1.8452994616
 31
0.0
  0
ARC
  5
AD
  8
0
  6
CONTINUOUS
 62
     7
 10
16.3681031584
 20
1.6622432361
 30
0.0
 40
3.997829331446598
 50
128.1287540576
 51
185.0202414501
  0
ARC
  5
AE
  8
0
  6
CONTINUOUS
 62
     7
 10
-16.3681008633
 20
1.6622448393
 30
0.0
 40
3.997826652434025
 50
354.9803892792
 51
51.8712576255
  0
ARC
  5
AF
  8
0
  6
CONTINUOUS
 62
     7
 10
0.001592277
 20
22.500043415
 30
0.0
 40
22.49995664137825
 50
90.0040547079
 51
231.8435148885
  0
ARC
  5
B0
  8
0
  6
CONTINUOUS
 62
     7
 10
0.0000160314
 20
22.5
 30
0.0
 40
12.50000000001028
 50
90.0000734825
 51
269.9999265175
  0
ARC
  5
B1
  8
0
  6
CONTINUOUS
 62
     7
 10
-0.0000160301
 20
22.5
 30
0.0
 40
12.50000000001028
 50
270.0000734766
 51
89.9999265234
  0
ARC
  5
B2
  8
0
  6
CONTINUOUS
 62
     7
 10
-0.0014580725
 20
22.4997525529
 30
0.0
 40
22.50024749430091
 50
308.1566717429
 51
89.9962870896
  0
ARC
  5
B3
  8
0
  6
CONTINUOUS
 62
     7
 10
-5.0
 20
-1.8452994616
 30
0.0
 40
0.9999999999999974
 50
300.0
 51
0.0
  0
ARC
  5
B4
  8
0
  6
CONTINUOUS
 62
     7
 10
5.0
 20
-1.8452994616
 30
0.0
 40
1.000000000000008
 50
180.0
 51
240.0
  0
ARC
  5
B5
  8
0
  6
CONTINUOUS
 62
     7
 10
-23.5771712113
 20
-206.6538332865
 30
0.0
 40
217.3634529935513
 50
80.5707285331
 51
83.7729390274
  0
ARC
  5
B6
  8
0
  6
CONTINUOUS
 62
     7
 10
8.6396956749
 20
-16.3932520331
 30
0.0
 40
24.40312666593243
 50
82.005876173
 51
88.3699209216
  0
ARC
  5
B7
  8
0
  6
CONTINUOUS
 62
     7
 10
-8.6632891121
 20
-16.1129135947
 30
0.0
 40
24.12223607918945
 50
91.5929966174
 51
98.0312345107
  0
ARC
  5
B8
  8
0
  6
CONTINUOUS
 62
     8
 10
-24.1135378204
 20
10.7033928522
 30
0.0
 40
15.02487375872214
 50
321.3156927871
 51
349.6344442028
  0
ARC
  5
B9
  8
0
  6
CONTINUOUS
 62
     8
 10
-17.1868330206
 20
8.9455792412
 30
0.0
 40
5.285134771716884
 50
308.4603581655
 51
347.1785017944
  0
ENDSEC
  0
EOF
