  0
SECTION
  2
HEADER
  9
$ACADVER
  1
AC1009
  9
$DWGCODEPAGE
  3
ansi_1252
  9
$INSBASE
 10
0.0
 20
0.0
 30
0.0
  9
$EXTMIN
 10
-18.0
 20
-13.0
 30
0.0
  9
$EXTMAX
 10
18.0
 20
36.0
 30
0.0
  9
$LIMMIN
 10
0.0
 20
0.0
  9
$LIMMAX
 10
420.0
 20
297.0
  9
$ORTHOMODE
 70
     0
  9
$REGENMODE
 70
     1
  9
$FILLMODE
 70
     1
  9
$QTEXTMODE
 70
     0
  9
$MIRRTEXT
 70
     1
  9
$DRAGMODE
 70
     2
  9
$LTSCALE
 40
1.0
  9
$OSMODE
 70
    37
  9
$ATTMODE
 70
     1
  9
$TEXTSIZE
 40
2.5
  9
$TRACEWID
 40
1.0
  9
$TEXTSTYLE
  7
STANDARD
  9
$CLAYER
  8
0
  9
$CELTYPE
  6
BYLAYER
  9
$CECOLOR
 62
   256
  9
$DIMSCALE
 40
1.0
  9
$DIMASZ
 40
3.5
  9
$DIMEXO
 40
0.0
  9
$DIMDLI
 40
3.75
  9
$DIMRND
 40
0.0
  9
$DIMDLE
 40
0.0
  9
$DIMEXE
 40
2.0
  9
$DIMTP
 40
0.0
  9
$DIMTM
 40
0.0
  9
$DIMTXT
 40
3.5
  9
$DIMCEN
 40
2.5
  9
$DIMTSZ
 40
0.0
  9
$DIMTOL
 70
     0
  9
$DIMLIM
 70
     0
  9
$DIMTIH
 70
     1
  9
$DIMTOH
 70
     1
  9
$DIMSE1
 70
     0
  9
$DIMSE2
 70
     0
  9
$DIMTAD
 70
     1
  9
$DIMZIN
 70
     0
  9
$DIMBLK
  1

  9
$DIMASO
 70
     1
  9
$DIMSHO
 70
     1
  9
$DIMPOST
  1

  9
$DIMAPOST
  1

  9
$DIMALT
 70
     0
  9
$DIMALTD
 70
     3
  9
$DIMALTF
 40
0.0393700787
  9
$DIMLFAC
 40
1.0
  9
$DIMTOFL
 70
     1
  9
$DIMTVP
 40
0.0
  9
$DIMTIX
 70
     0
  9
$DIMSOXD
 70
     0
  9
$DIMSAH
 70
     0
  9
$DIMBLK1
  1

  9
$DIMBLK2
  1

  9
$DIMSTYLE
  2
ISO-25
  9
$DIMCLRD
 70
     0
  9
$DIMCLRE
 70
     0
  9
$DIMCLRT
 70
     0
  9
$DIMTFAC
 40
1.0
  9
$DIMGAP
 40
1.0
  9
$LUNITS
 70
     2
  9
$LUPREC
 70
     2
  9
$SKETCHINC
 40
1.0
  9
$FILLETRAD
 40
10.0
  9
$AUNITS
 70
     0
  9
$AUPREC
 70
     2
  9
$MENU
  1
.
  9
$ELEVATION
 40
0.0
  9
$PELEVATION
 40
0.0
  9
$THICKNESS
 40
0.0
  9
$LIMCHECK
 70
     0
  9
$CHAMFERA
 40
0.0
  9
$CHAMFERB
 40
0.0
  9
$SKPOLY
 70
     0
  9
$TDCREATE
 40
2457347.558279792
  9
$TDUPDATE
 40
2457347.558341643
  9
$TDINDWG
 40
0.0000000116
  9
$TDUSRTIMER
 40
0.0000000116
  9
$USRTIMER
 70
     1
  9
$ANGBASE
 50
0.0
  9
$ANGDIR
 70
     0
  9
$PDMODE
 70
     0
  9
$PDSIZE
 40
-1.0
  9
$PLINEWID
 40
0.0
  9
$COORDS
 70
     1
  9
$SPLFRAME
 70
     0
  9
$SPLINETYPE
 70
     6
  9
$SPLINESEGS
 70
     8
  9
$ATTDIA
 70
     0
  9
$ATTREQ
 70
     1
  9
$HANDLING
 70
     1
  9
$HANDSEED
  5
117
  9
$SURFTAB1
 70
     6
  9
$SURFTAB2
 70
     6
  9
$SURFTYPE
 70
     6
  9
$SURFU
 70
     6
  9
$SURFV
 70
     6
  9
$UCSNAME
  2

  9
$UCSORG
 10
0.0
 20
0.0
 30
0.0
  9
$UCSXDIR
 10
1.0
 20
0.0
 30
0.0
  9
$UCSYDIR
 10
0.0
 20
1.0
 30
0.0
  9
$PUCSNAME
  2

  9
$PUCSORG
 10
0.0
 20
0.0
 30
0.0
  9
$PUCSXDIR
 10
1.0
 20
0.0
 30
0.0
  9
$PUCSYDIR
 10
0.0
 20
1.0
 30
0.0
  9
$USERI1
 70
     0
  9
$USERI2
 70
     0
  9
$USERI3
 70
     0
  9
$USERI4
 70
     0
  9
$USERI5
 70
     0
  9
$USERR1
 40
0.0
  9
$USERR2
 40
0.0
  9
$USERR3
 40
0.0
  9
$USERR4
 40
0.0
  9
$USERR5
 40
0.0
  9
$WORLDVIEW
 70
     1
  9
$SHADEDGE
 70
     3
  9
$SHADEDIF
 70
    70
  9
$TILEMODE
 70
     1
  9
$MAXACTVP
 70
    64
  9
$PLIMCHECK
 70
     0
  9
$PEXTMIN
 10
1.0000000000E+20
 20
1.0000000000E+20
 30
1.0000000000E+20
  9
$PEXTMAX
 10
-1.0000000000E+20
 20
-1.0000000000E+20
 30
-1.0000000000E+20
  9
$PLIMMIN
 10
0.0
 20
0.0
  9
$PLIMMAX
 10
420.0
 20
297.0
  9
$UNITMODE
 70
     0
  9
$VISRETAIN
 70
     1
  9
$PLINEGEN
 70
     0
  9
$PSLTSCALE
 70
     1
  0
ENDSEC
  0
SECTION
  2
TABLES
  0
TABLE
  2
VPORT
 70
     1
  0
VPORT
  2
*ACTIVE
 70
     0
 10
0.0
 20
0.0
 11
1.0
 21
1.0
 12
0.0
 22
11.5
 13
0.0
 23
0.0
 14
10.0
 24
10.0
 15
10.0
 25
10.0
 16
0.0
 26
0.0
 36
1.0
 17
0.0
 27
0.0
 37
0.0
 40
49.98
 41
0.7346938776
 42
50.0
 43
0.0
 44
0.0
 50
0.0
 51
0.0
 71
     0
 72
   100
 73
     1
 74
     3
 75
     0
 76
     0
 77
     0
 78
     0
  0
ENDTAB
  0
TABLE
  2
LTYPE
 70
     6
  0
LTYPE
  2
CONTINUOUS
 70
     0
  3
Solid line
 72
    65
 73
     0
 40
0.0
  0
LTYPE
  2
HIDDEN
 70
     0
  3
Hidden __ __ __ __ __ __ __ __ __ __ __ __ __ __
 72
    65
 73
     2
 40
1.905
 49
1.27
 49
-0.635
  0
LTYPE
  2
PHANTOM
 70
     0
  3
Phantom ______  __  __  ______  __  __  ______
 72
    65
 73
     6
 40
12.7
 49
6.35
 49
-1.27
 49
1.27
 49
-1.27
 49
1.27
 49
-1.27
  0
LTYPE
  2
CENTER
 70
     0
  3
Center ____ _ ____ _ ____ _ ____ _ ____ _ ____
 72
    65
 73
     4
 40
10.16
 49
6.35
 49
-1.27
 49
1.27
 49
-1.27
  0
LTYPE
  2
CENTERX2
 70
     0
  3
Center (2x) ________  __  ________  __  _____
 72
    65
 73
     4
 40
20.32
 49
12.7
 49
-2.54
 49
2.54
 49
-2.54
  0
LTYPE
  2
DOT2
 70
     0
  3
Dot (.5x) ........................................
 72
    65
 73
     2
 40
0.635
 49
0.0
 49
-0.635
  0
ENDTAB
  0
TABLE
  2
LAYER
 70
     1
  0
LAYER
  2
0
 70
     0
 62
     7
  6
CONTINUOUS
  0
ENDTAB
  0
TABLE
  2
STYLE
 70
     1
  0
STYLE
  2
STANDARD
 70
     0
 40
0.0
 41
1.0
 50
0.0
 71
     0
 42
2.5
  3
txt
  4

  0
ENDTAB
  0
TABLE
  2
VIEW
 70
     0
  0
ENDTAB
  0
TABLE
  2
UCS
 70
     0
  0
ENDTAB
  0
TABLE
  2
APPID
 70
     1
  0
APPID
  2
ACAD
 70
     0
  0
ENDTAB
  0
TABLE
  2
DIMSTYLE
 70
     1
  0
DIMSTYLE
  2
ISO-25
 70
     0
  3

  4

  5

  6

  7

 40
1.0
 41
2.5
 42
0.625
 43
3.75
 44
1.25
 45
0.0
 46
0.0
 47
0.0
 48
0.0
140
2.5
141
2.5
142
0.0
143
0.0393700787
144
1.0
145
0.0
146
1.0
147
0.625
 71
     0
 72
     0
 73
     0
 74
     0
 75
     0
 76
     0
 77
     1
 78
     8
170
     0
171
     3
172
     1
173
     0
174
     0
175
     0
176
     0
177
     0
178
     0
  0
ENDTAB
  0
ENDSEC
  0
SECTION
  2
BLOCKS
  0
BLOCK
  8
0
  2
$MODEL_SPACE
 70
     0
 10
0.0
 20
0.0
 30
0.0
  3
$MODEL_SPACE
  1

  0
ENDBLK
  5
21
  8
0
  0
BLOCK
 67
     1
  8
0
  2
$PAPER_SPACE
 70
     0
 10
0.0
 20
0.0
 30
0.0
  3
$PAPER_SPACE
  1

  0
ENDBLK
  5
1D
 67
     1
  8
0
  0
ENDSEC
  0
SECTION
  2
ENTITIES
  0
POLYLINE
  5
9A
  8
0
  6
CONTINUOUS
 62
     8
 66
     1
 10
0.0
 20
0.0
 30
0.0
 70
   128
  0
VERTEX
  5
CA
  8
0
  6
CONTINUOUS
 62
     8
 10
-8.7273030598
 20
4.7184092964
 30
0.0
  0
VERTEX
  5
CB
  8
0
  6
CONTINUOUS
 62
     8
 10
-8.7823216189
 20
4.5249461634
 30
0.0
  0
VERTEX
  5
CC
  8
0
  6
CONTINUOUS
 62
     8
 10
-8.8388406737
 20
4.3370604095
 30
0.0
  0
VERTEX
  5
CD
  8
0
  6
CONTINUOUS
 62
     8
 10
-8.8966641619
 20
4.1547520348
 30
0.0
  0
VERTEX
  5
CE
  8
0
  6
CONTINUOUS
 62
     8
 10
-8.9555822949
 20
3.9780210394
 30
0.0
  0
VERTEX
  5
CF
  8
0
  6
CONTINUOUS
 62
     8
 10
-9.0153713561
 20
3.8068674231
 30
0.0
  0
VERTEX
  5
D0
  8
0
  6
CONTINUOUS
 62
     8
 10
-9.0757935129
 20
3.6412911859
 30
0.0
  0
VERTEX
  5
D1
  8
0
  6
CONTINUOUS
 62
     8
 10
-9.1365966462
 20
3.481292328
 30
0.0
  0
VERTEX
  5
D2
  8
0
  6
CONTINUOUS
 62
     8
 10
-9.1957714597
 20
3.3312344274
 30
0.0
  0
VERTEX
  5
D3
  8
0
  6
CONTINUOUS
 62
     8
 10
-9.2543402029
 20
3.1877404683
 30
0.0
  0
VERTEX
  5
D4
  8
0
  6
CONTINUOUS
 62
     8
 10
-9.3120824609
 20
3.0508104507
 30
0.0
  0
VERTEX
  5
D5
  8
0
  6
CONTINUOUS
 62
     8
 10
-9.3687691125
 20
2.9204443745
 30
0.0
  0
VERTEX
  5
D6
  8
0
  6
CONTINUOUS
 62
     8
 10
-9.4241623726
 20
2.7966422399
 30
0.0
  0
VERTEX
  5
D7
  8
0
  6
CONTINUOUS
 62
     8
 10
-9.4780158596
 20
2.6794040467
 30
0.0
  0
VERTEX
  5
D8
  8
0
  6
CONTINUOUS
 62
     8
 10
-9.5300746893
 20
2.568729795
 30
0.0
  0
VERTEX
  5
D9
  8
0
  6
CONTINUOUS
 62
     8
 10
-9.5784998397
 20
2.4679108415
 30
0.0
  0
VERTEX
  5
DA
  8
0
  6
CONTINUOUS
 62
     8
 10
-9.624321752
 20
2.3743415001
 30
0.0
  0
VERTEX
  5
DB
  8
0
  6
CONTINUOUS
 62
     8
 10
-9.6673747783
 20
2.2880217708
 30
0.0
  0
VERTEX
  5
DC
  8
0
  6
CONTINUOUS
 62
     8
 10
-9.7074909842
 20
2.2089516535
 30
0.0
  0
VERTEX
  5
DD
  8
0
  6
CONTINUOUS
 62
     8
 10
-9.7445003199
 20
2.1371311484
 30
0.0
  0
VERTEX
  5
DE
  8
0
  6
CONTINUOUS
 62
     8
 10
-9.7782308047
 20
2.0725602552
 30
0.0
  0
VERTEX
  5
DF
  8
0
  6
CONTINUOUS
 62
     8
 10
-9.8085087249
 20
2.0152389742
 30
0.0
  0
VERTEX
  5
E0
  8
0
  6
CONTINUOUS
 62
     8
 10
-9.8341813524
 20
1.9670362451
 30
0.0
  0
VERTEX
  5
E1
  8
0
  6
CONTINUOUS
 62
     8
 10
-9.8561533726
 20
1.9260865182
 30
0.0
  0
VERTEX
  5
E2
  8
0
  6
CONTINUOUS
 62
     8
 10
-9.8743646323
 20
1.8923897935
 30
0.0
  0
VERTEX
  5
E3
  8
0
  6
CONTINUOUS
 62
     8
 10
-9.8887565116
 20
1.8659460711
 30
0.0
  0
VERTEX
  5
E4
  8
0
  6
CONTINUOUS
 62
     8
 10
-9.8982166642
 20
1.8486752788
 30
0.0
  0
VERTEX
  5
E5
  8
0
  6
CONTINUOUS
 62
     8
 10
-9.9046371502
 20
1.8370212115
 30
0.0
  0
VERTEX
  5
E6
  8
0
  6
CONTINUOUS
 62
     8
 10
-9.9058118041
 20
1.8348971164
 30
0.0
  0
VERTEX
  5
E7
  8
0
  6
CONTINUOUS
 62
     8
 10
-9.9067747837
 20
1.8331582955
 30
0.0
  0
VERTEX
  5
E8
  8
0
  6
CONTINUOUS
 62
     8
 10
-9.9075254469
 20
1.8318047488
 30
0.0
  0
VERTEX
  5
E9
  8
0
  6
CONTINUOUS
 62
     8
 10
-9.9080631571
 20
1.8308364763
 30
0.0
  0
VERTEX
  5
EA
  8
0
  6
CONTINUOUS
 62
     8
 10
-9.9083872829
 20
1.8302534781
 30
0.0
  0
VERTEX
  5
EB
  8
0
  6
CONTINUOUS
 62
     8
 10
-9.9084971982
 20
1.830055754
 30
0.0
  0
VERTEX
  5
EC
  8
0
  6
CONTINUOUS
 62
     8
 10
-9.9084954425
 20
1.8300589077
 30
0.0
  0
SEQEND
  5
115
  8
0
  6
CONTINUOUS
 62
     8
  0
POLYLINE
  5
9C
  8
0
  6
CONTINUOUS
 62
     8
 66
     1
 10
0.0
 20
0.0
 30
0.0
 70
   128
  0
VERTEX
  5
ED
  8
0
  6
CONTINUOUS
 62
     8
 10
-10.7153969849
 20
3.5369454203
 30
0.0
  0
VERTEX
  5
EE
  8
0
  6
CONTINUOUS
 62
     8
 10
-10.7154016905
 20
3.5369378828
 30
0.0
  0
VERTEX
  5
EF
  8
0
  6
CONTINUOUS
 62
     8
 10
-10.7135942927
 20
3.539833525
 30
0.0
  0
VERTEX
  5
F0
  8
0
  6
CONTINUOUS
 62
     8
 10
-10.7083953791
 20
3.548213699
 30
0.0
  0
VERTEX
  5
F1
  8
0
  6
CONTINUOUS
 62
     8
 10
-10.7001089888
 20
3.5616651974
 30
0.0
  0
VERTEX
  5
F2
  8
0
  6
CONTINUOUS
 62
     8
 10
-10.6890347116
 20
3.5797792339
 30
0.0
  0
VERTEX
  5
F3
  8
0
  6
CONTINUOUS
 62
     8
 10
-10.6754664714
 20
3.6021533352
 30
0.0
  0
VERTEX
  5
F4
  8
0
  6
CONTINUOUS
 62
     8
 10
-10.6578785625
 20
3.631439947
 30
0.0
  0
VERTEX
  5
F5
  8
0
  6
CONTINUOUS
 62
     8
 10
-10.6349364121
 20
3.670234662
 30
0.0
  0
VERTEX
  5
F6
  8
0
  6
CONTINUOUS
 62
     8
 10
-10.6100680907
 20
3.7130051848
 30
0.0
  0
VERTEX
  5
F7
  8
0
  6
CONTINUOUS
 62
     8
 10
-10.583327674
 20
3.7598005252
 30
0.0
  0
VERTEX
  5
F8
  8
0
  6
CONTINUOUS
 62
     8
 10
-10.555178185
 20
3.8099762158
 30
0.0
  0
VERTEX
  5
F9
  8
0
  6
CONTINUOUS
 62
     8
 10
-10.5260593627
 20
3.862919261
 30
0.0
  0
VERTEX
  5
FA
  8
0
  6
CONTINUOUS
 62
     8
 10
-10.4999638151
 20
3.9113367086
 30
0.0
  0
VERTEX
  5
FB
  8
0
  6
CONTINUOUS
 62
     8
 10
-10.4737080458
 20
3.9610733865
 30
0.0
  0
VERTEX
  5
FC
  8
0
  6
CONTINUOUS
 62
     8
 10
-10.4678179972
 20
3.9723836392
 30
0.0
  0
VERTEX
  5
FD
  8
0
  6
CONTINUOUS
 62
     8
 10
-10.4619354781
 20
3.9837386134
 30
0.0
  0
VERTEX
  5
FE
  8
0
  6
CONTINUOUS
 62
     8
 10
-10.456063221
 20
3.9951345014
 30
0.0
  0
VERTEX
  5
FF
  8
0
  6
CONTINUOUS
 62
     8
 10
-10.4502039219
 20
4.0065675475
 30
0.0
  0
VERTEX
  5
100
  8
0
  6
CONTINUOUS
 62
     8
 10
-10.4443602408
 20
4.0180340475
 30
0.0
  0
VERTEX
  5
101
  8
0
  6
CONTINUOUS
 62
     8
 10
-10.4385348018
 20
4.029530349
 30
0.0
  0
VERTEX
  5
102
  8
0
  6
CONTINUOUS
 62
     8
 10
-10.4327301929
 20
4.0410528511
 30
0.0
  0
VERTEX
  5
103
  8
0
  6
CONTINUOUS
 62
     8
 10
-10.3927501151
 20
4.1222523052
 30
0.0
  0
VERTEX
  5
104
  8
0
  6
CONTINUOUS
 62
     8
 10
-10.3527179589
 20
4.2068736647
 30
0.0
  0
VERTEX
  5
105
  8
0
  6
CONTINUOUS
 62
     8
 10
-10.3129970651
 20
4.2943612592
 30
0.0
  0
VERTEX
  5
106
  8
0
  6
CONTINUOUS
 62
     8
 10
-10.2739291392
 20
4.3841905374
 30
0.0
  0
VERTEX
  5
107
  8
0
  6
CONTINUOUS
 62
     8
 10
-10.2403443871
 20
4.4647852072
 30
0.0
  0
VERTEX
  5
108
  8
0
  6
CONTINUOUS
 62
     8
 10
-10.2077185434
 20
4.5464957618
 30
0.0
  0
VERTEX
  5
109
  8
0
  6
CONTINUOUS
 62
     8
 10
-10.1993564139
 20
4.568043197
 30
0.0
  0
VERTEX
  5
10A
  8
0
  6
CONTINUOUS
 62
     8
 10
-10.1910766592
 20
4.5896416485
 30
0.0
  0
VERTEX
  5
10B
  8
0
  6
CONTINUOUS
 62
     8
 10
-10.1828825477
 20
4.6112861002
 30
0.0
  0
VERTEX
  5
10C
  8
0
  6
CONTINUOUS
 62
     8
 10
-10.1747772924
 20
4.6329716249
 30
0.0
  0
VERTEX
  5
10D
  8
0
  6
CONTINUOUS
 62
     8
 10
-10.1667640519
 20
4.6546933839
 30
0.0
  0
VERTEX
  5
10E
  8
0
  6
CONTINUOUS
 62
     8
 10
-10.1588459305
 20
4.6764466271
 30
0.0
  0
VERTEX
  5
10F
  8
0
  6
CONTINUOUS
 62
     8
 10
-10.1103899003
 20
4.8164252529
 30
0.0
  0
VERTEX
  5
110
  8
0
  6
CONTINUOUS
 62
     8
 10
-10.0648445065
 20
4.9604386701
 30
0.0
  0
VERTEX
  5
111
  8
0
  6
CONTINUOUS
 62
     8
 10
-10.0225553905
 20
5.107788356
 30
0.0
  0
VERTEX
  5
112
  8
0
  6
CONTINUOUS
 62
     8
 10
-9.9838352757
 20
5.257833103
 30
0.0
  0
VERTEX
  5
113
  8
0
  6
CONTINUOUS
 62
     8
 10
-9.9489657068
 20
5.4099890429
 30
0.0
  0
VERTEX
  5
114
  8
0
  6
CONTINUOUS
 62
     8
 10
-9.918198858
 20
5.5637291146
 30
0.0
  0
SEQEND
  5
116
  8
0
  6
CONTINUOUS
 62
     8
  0
LINE
  5
A1
  8
0
  6
CONTINUOUS
 62
     7
 10
10.0
 20
0.0
 30
0.0
 11
9.9084966895
 21
1.8300662098
 31
0.0
  0
LINE
  5
A2
  8
0
  6
CONTINUOUS
 62
     7
 10
-9.9084970506
 20
1.8300589881
 30
0.0
 11
-10.0
 21
0.0
 31
0.0
  0
LINE
  5
A3
  8
0
  6
CONTINUOUS
 62
     7
 10
-4.0
 20
-3.0773502692
 30
0.0
 11
-4.0
 21
-12.2
 31
0.0
  0
LINE
  5
A4
  8
0
  6
CONTINUOUS
 62
     7
 10
4.0
 20
-12.2
 30
0.0
 11
4.0
 21
-3.0773502692
 31
0.0
  0
LINE
  5
A5
  8
0
  6
CONTINUOUS
 62
     7
 10
-4.0
 20
-12.2
 30
0.0
 11
-3.1999999999
 21
-13.0
 31
0.0
  0
LINE
  5
A6
  8
0
  6
CONTINUOUS
 62
     7
 10
3.1999999999
 20
-13.0
 30
0.0
 11
4.0
 21
-12.2
 31
0.0
  0
LINE
  5
A7
  8
0
  6
CONTINUOUS
 62
     7
 10
3.9999999999
 20
-3.0773502692
 30
0.0
 11
3.5
 21
-2.7886751346
 31
0.0
  0
LINE
  5
A8
  8
0
  6
CONTINUOUS
 62
     7
 10
-3.5
 20
-2.7886751346
 30
0.0
 11
-3.9999999999
 21
-3.0773502692
 31
0.0
  0
LINE
  5
A9
  8
0
  6
CONTINUOUS
 62
     7
 10
-3.0
 20
-1.0
 30
0.0
 11
-3.0
 21
-1.9226497308
 31
0.0
  0
LINE
  5
AA
  8
0
  6
CONTINUOUS
 62
     7
 10
3.0
 20
-1.9226497308
 30
0.0
 11
3.0
 21
-1.0
 31
0.0
  0
LINE
  5
AB
  8
0
  6
CONTINUOUS
 62
     7
 10
-8.7273030598
 20
4.7184092964
 30
0.0
 11
8.7273030598
 21
4.7184092964
 31
0.0
  0
LINE
  5
AC
  8
0
  6
CONTINUOUS
 62
     7
 10
-10.0
 20
0.0
 30
0.0
 11
10.0
 21
0.0
 31
0.0
  0
LINE
  5
AD
  8
0
  6
CONTINUOUS
 62
     7
 10
-6.6417517839
 20
6.4958597646
 30
0.0
 11
6.6417517839
 21
6.4958597646
 31
0.0
  0
LINE
  5
AE
  8
0
  6
CONTINUOUS
 62
     7
 10
-4.0
 20
-3.0773502692
 30
0.0
 11
4.0
 21
-3.0773502692
 31
0.0
  0
LINE
  5
AF
  8
0
  6
CONTINUOUS
 62
     7
 10
-4.0
 20
-12.2
 30
0.0
 11
4.0
 21
-12.2
 31
0.0
  0
LINE
  5
B0
  8
0
  6
CONTINUOUS
 62
     7
 10
-3.1999999999
 20
-13.0
 30
0.0
 11
3.1999999999
 21
-13.0
 31
0.0
  0
LINE
  5
B1
  8
0
  6
CONTINUOUS
 62
     8
 10
3.0
 20
-1.0
 30
0.0
 11
-3.0
 21
-1.0
 31
0.0
  0
LINE
  5
B2
  8
0
  6
CONTINUOUS
 62
     8
 10
3.5
 20
-2.7886751346
 30
0.0
 11
-3.5
 21
-2.7886751346
 31
0.0
  0
LINE
  5
B3
  8
0
  6
CONTINUOUS
 62
     8
 10
-3.0
 20
-1.9226497308
 30
0.0
 11
3.0
 21
-1.9226497308
 31
0.0
  0
ARC
  5
B4
  8
0
  6
CONTINUOUS
 62
     7
 10
-11.9060018916
 20
1.9299309595
 30
0.0
 40
2.000000000062264
 50
357.1375947731
 51
53.4659718807
  0
ARC
  5
B5
  8
0
  6
CONTINUOUS
 62
     7
 10
11.9060018916
 20
1.9299309595
 30
0.0
 40
2.00000000013092
 50
126.5340281203
 51
182.8624052258
  0
ARC
  5
B6
  8
0
  6
CONTINUOUS
 62
     7
 10
0.0
 20
18.0
 30
0.0
 40
10.00000000000001
 50
180.0
 51
269.993669474
  0
ARC
  5
B7
  8
0
  6
CONTINUOUS
 62
     7
 10
0.0
 20
18.0
 30
0.0
 40
18.00000000000027
 50
306.5340381198
 51
233.4659772496
  0
ARC
  5
B8
  8
0
  6
CONTINUOUS
 62
     7
 10
-4.0
 20
-1.0
 30
0.0
 40
1.000000000000004
 50
0.0
 51
90.0
  0
ARC
  5
B9
  8
0
  6
CONTINUOUS
 62
     7
 10
4.0
 20
-1.0
 30
0.0
 40
1.000000000000004
 50
90.0
 51
180.0
  0
ARC
  5
BA
  8
0
  6
CONTINUOUS
 62
     7
 10
-4.0
 20
-1.9226497308
 30
0.0
 40
1.000000000000004
 50
300.0
 51
0.0
  0
ARC
  5
BB
  8
0
  6
CONTINUOUS
 62
     7
 10
4.0
 20
-1.9226497308
 30
0.0
 40
0.9999999999999947
 50
180.0
 51
240.0
  0
ARC
  5
BC
  8
0
  6
CONTINUOUS
 62
     7
 10
-5.5298633169
 20
3.0789839273
 30
0.0
 40
3.593234817117577
 50
108.025450079
 51
152.8543949495
  0
ARC
  5
BD
  8
0
  6
CONTINUOUS
 62
     7
 10
5.5206308444
 20
3.0681511109
 30
0.0
 40
3.606396924342296
 50
27.2318289908
 51
71.8883259807
  0
ARC
  5
BE
  8
0
  6
CONTINUOUS
 62
     7
 10
-0.950663197
 20
-11.6136773649
 30
0.0
 40
19.6367028873753
 50
67.2541550658
 51
87.2250795409
  0
ARC
  5
BF
  8
0
  6
CONTINUOUS
 62
     7
 10
0.8985188646
 20
-11.3834264185
 30
0.0
 40
19.40424066717593
 50
92.6540463474
 51
112.8667190459
  0
ARC
  5
C0
  8
0
  6
CONTINUOUS
 62
     7
 10
-7.2109418953
 20
5.1241750536
 30
0.0
 40
2.742708156976423
 50
97.7296154734
 51
170.7778501937
  0
ARC
  5
C1
  8
0
  6
CONTINUOUS
 62
     7
 10
-5.0525632888
 20
8.6032612844
 30
0.0
 40
2.639443452013088
 50
196.7640800952
 51
232.9800992952
  0
ARC
  5
C2
  8
0
  6
CONTINUOUS
 62
     7
 10
-10.8249613208
 20
3.0247388302
 30
0.0
 40
2.696050783677647
 50
38.917756698
 51
70.3465718445
  0
ARC
  5
C3
  8
0
  6
CONTINUOUS
 62
     7
 10
7.2195226418
 20
5.1329822882
 30
0.0
 40
2.732836648673789
 50
9.0687181354
 51
82.4238161975
  0
ARC
  5
C4
  8
0
  6
CONTINUOUS
 62
     7
 10
10.8249613208
 20
3.0247388302
 30
0.0
 40
2.69605078367765
 50
109.6534281555
 51
141.082243302
  0
ARC
  5
C5
  8
0
  6
CONTINUOUS
 62
     7
 10
5.0525648092
 20
8.6032604099
 30
0.0
 40
2.639441744030012
 50
307.0198793714
 51
343.2359285611
  0
ARC
  5
C6
  8
0
  6
CONTINUOUS
 62
     7
 10
-1.9159524303
 20
-81.9584640217
 30
0.0
 40
89.97886486757884
 50
88.7798880838
 51
93.6089704904
  0
ARC
  5
C7
  8
0
  6
CONTINUOUS
 62
     7
 10
2.0872809346
 20
-73.7411687404
 30
0.0
 40
81.76781401472324
 50
86.1483974149
 51
91.4627440109
  0
ARC
  5
C8
  8
0
  6
CONTINUOUS
 62
     8
 10
21.6900801834
 20
8.3338438063
 30
0.0
 40
13.45752419469916
 50
195.5842619806
 51
208.8999683342
  0
ARC
  5
C9
  8
0
  6
CONTINUOUS
 62
     8
 10
15.7107374182
 20
6.6719442624
 30
0.0
 40
5.897596441405349
 50
190.8308174922
 51
212.1117497603
  0
ENDSEC
  0
EOF
