  0
SECTION
  2
HEADER
  9
$ACADVER
  1
AC1015
  9
$ACADMAINTVER
 70
     6
  9
$DWGCODEPAGE
  3
ANSI_1252
  9
$INSBASE
 10
0.0
 20
0.0
 30
0.0
  9
$EXTMIN
 10
-251.9389025144
 20
-294.5
 30
0.0
  9
$EXTMAX
 10
251.9389025144
 20
296.7598183049
 30
0.0
  9
$LIMMIN
 10
0.0
 20
0.0
  9
$LIMMAX
 10
420.0
 20
297.0
  9
$ORTHOMODE
 70
     0
  9
$REGENMODE
 70
     1
  9
$FILLMODE
 70
     1
  9
$QTEXTMODE
 70
     0
  9
$MIRRTEXT
 70
     1
  9
$LTSCALE
 40
1.0
  9
$ATTMODE
 70
     1
  9
$TEXTSIZE
 40
3.5
  9
$TRACEWID
 40
1.0
  9
$TEXTSTYLE
  7
Standard
  9
$CLAYER
  8
0
  9
$CELTYPE
  6
ByLayer
  9
$CECOLOR
 62
   256
  9
$CELTSCALE
 40
1.0
  9
$DISPSILH
 70
     0
  9
$DIMSCALE
 40
1.0
  9
$DIMASZ
 40
3.556
  9
$DIMEXO
 40
1.0
  9
$DIMDLI
 40
3.75
  9
$DIMRND
 40
0.0
  9
$DIMDLE
 40
0.0
  9
$DIMEXE
 40
1.0
  9
$DIMTP
 40
0.0
  9
$DIMTM
 40
0.0
  9
$DIMTXT
 40
3.5
  9
$DIMCEN
 40
2.5
  9
$DIMTSZ
 40
0.0
  9
$DIMTOL
 70
     0
  9
$DIMLIM
 70
     0
  9
$DIMTIH
 70
     1
  9
$DIMTOH
 70
     1
  9
$DIMSE1
 70
     0
  9
$DIMSE2
 70
     0
  9
$DIMTAD
 70
     1
  9
$DIMZIN
 70
     0
  9
$DIMBLK
  1

  9
$DIMASO
 70
     1
  9
$DIMSHO
 70
     1
  9
$DIMPOST
  1

  9
$DIMAPOST
  1

  9
$DIMALT
 70
     0
  9
$DIMALTD
 70
     3
  9
$DIMALTF
 40
0.0393700787
  9
$DIMLFAC
 40
1.0
  9
$DIMTOFL
 70
     1
  9
$DIMTVP
 40
0.0
  9
$DIMTIX
 70
     0
  9
$DIMSOXD
 70
     0
  9
$DIMSAH
 70
     0
  9
$DIMBLK1
  1

  9
$DIMBLK2
  1

  9
$DIMSTYLE
  2
ISO-25
  9
$DIMCLRD
 70
     0
  9
$DIMCLRE
 70
     0
  9
$DIMCLRT
 70
     0
  9
$DIMTFAC
 40
1.0
  9
$DIMGAP
 40
1.524
  9
$DIMJUST
 70
     0
  9
$DIMSD1
 70
     0
  9
$DIMSD2
 70
     0
  9
$DIMTOLJ
 70
     0
  9
$DIMTZIN
 70
     0
  9
$DIMALTZ
 70
     0
  9
$DIMALTTZ
 70
     0
  9
$DIMUPT
 70
     0
  9
$DIMDEC
 70
     2
  9
$DIMTDEC
 70
     2
  9
$DIMALTU
 70
     2
  9
$DIMALTTD
 70
     3
  9
$DIMTXSTY
  7
Standard
  9
$DIMAUNIT
 70
     0
  9
$DIMADEC
 70
     2
  9
$DIMALTRND
 40
0.0
  9
$DIMAZIN
 70
     0
  9
$DIMDSEP
 70
    44
  9
$DIMATFIT
 70
     3
  9
$DIMFRAC
 70
     0
  9
$DIMLDRBLK
  1

  9
$DIMLUNIT
 70
     2
  9
$DIMLWD
 70
    -2
  9
$DIMLWE
 70
    -2
  9
$DIMTMOVE
 70
     0
  9
$LUNITS
 70
     2
  9
$LUPREC
 70
     2
  9
$SKETCHINC
 40
1.0
  9
$FILLETRAD
 40
10.0
  9
$AUNITS
 70
     0
  9
$AUPREC
 70
     2
  9
$MENU
  1
.
  9
$ELEVATION
 40
0.0
  9
$PELEVATION
 40
0.0
  9
$THICKNESS
 40
0.0
  9
$LIMCHECK
 70
     0
  9
$CHAMFERA
 40
0.0
  9
$CHAMFERB
 40
0.0
  9
$CHAMFERC
 40
0.0
  9
$CHAMFERD
 40
0.0
  9
$SKPOLY
 70
     0
  9
$TDCREATE
 40
2457294.317764827
  9
$TDUCREATE
 40
2457294.234431493
  9
$TDUPDATE
 40
2457294.317793495
  9
$TDUUPDATE
 40
2457294.234460162
  9
$TDINDWG
 40
0.0000000116
  9
$TDUSRTIMER
 40
0.0000000116
  9
$USRTIMER
 70
     1
  9
$ANGBASE
 50
0.0
  9
$ANGDIR
 70
     0
  9
$PDMODE
 70
     0
  9
$PDSIZE
 40
-1.0
  9
$PLINEWID
 40
0.0
  9
$SPLFRAME
 70
     0
  9
$SPLINETYPE
 70
     6
  9
$SPLINESEGS
 70
     8
  9
$HANDSEED
  5
4E7
  9
$SURFTAB1
 70
     6
  9
$SURFTAB2
 70
     6
  9
$SURFTYPE
 70
     6
  9
$SURFU
 70
     6
  9
$SURFV
 70
     6
  9
$UCSBASE
  2

  9
$UCSNAME
  2

  9
$UCSORG
 10
0.0
 20
0.0
 30
0.0
  9
$UCSXDIR
 10
1.0
 20
0.0
 30
0.0
  9
$UCSYDIR
 10
0.0
 20
1.0
 30
0.0
  9
$UCSORTHOREF
  2

  9
$UCSORTHOVIEW
 70
     0
  9
$UCSORGTOP
 10
0.0
 20
0.0
 30
0.0
  9
$UCSORGBOTTOM
 10
0.0
 20
0.0
 30
0.0
  9
$UCSORGLEFT
 10
0.0
 20
0.0
 30
0.0
  9
$UCSORGRIGHT
 10
0.0
 20
0.0
 30
0.0
  9
$UCSORGFRONT
 10
0.0
 20
0.0
 30
0.0
  9
$UCSORGBACK
 10
0.0
 20
0.0
 30
0.0
  9
$PUCSBASE
  2

  9
$PUCSNAME
  2

  9
$PUCSORG
 10
0.0
 20
0.0
 30
0.0
  9
$PUCSXDIR
 10
1.0
 20
0.0
 30
0.0
  9
$PUCSYDIR
 10
0.0
 20
1.0
 30
0.0
  9
$PUCSORTHOREF
  2

  9
$PUCSORTHOVIEW
 70
     0
  9
$PUCSORGTOP
 10
0.0
 20
0.0
 30
0.0
  9
$PUCSORGBOTTOM
 10
0.0
 20
0.0
 30
0.0
  9
$PUCSORGLEFT
 10
0.0
 20
0.0
 30
0.0
  9
$PUCSORGRIGHT
 10
0.0
 20
0.0
 30
0.0
  9
$PUCSORGFRONT
 10
0.0
 20
0.0
 30
0.0
  9
$PUCSORGBACK
 10
0.0
 20
0.0
 30
0.0
  9
$USERI1
 70
     0
  9
$USERI2
 70
     0
  9
$USERI3
 70
     0
  9
$USERI4
 70
     0
  9
$USERI5
 70
     0
  9
$USERR1
 40
0.0
  9
$USERR2
 40
0.0
  9
$USERR3
 40
0.0
  9
$USERR4
 40
0.0
  9
$USERR5
 40
0.0
  9
$WORLDVIEW
 70
     1
  9
$SHADEDGE
 70
     3
  9
$SHADEDIF
 70
    70
  9
$TILEMODE
 70
     1
  9
$MAXACTVP
 70
    64
  9
$PINSBASE
 10
0.0
 20
0.0
 30
0.0
  9
$PLIMCHECK
 70
     0
  9
$PEXTMIN
 10
1.0000000000E+20
 20
1.0000000000E+20
 30
1.0000000000E+20
  9
$PEXTMAX
 10
-1.0000000000E+20
 20
-1.0000000000E+20
 30
-1.0000000000E+20
  9
$PLIMMIN
 10
0.0
 20
0.0
  9
$PLIMMAX
 10
420.0
 20
297.0
  9
$UNITMODE
 70
     0
  9
$VISRETAIN
 70
     1
  9
$PLINEGEN
 70
     0
  9
$PSLTSCALE
 70
     1
  9
$TREEDEPTH
 70
  3020
  9
$CMLSTYLE
  2
Standard
  9
$CMLJUST
 70
     0
  9
$CMLSCALE
 40
20.0
  9
$PROXYGRAPHICS
 70
     1
  9
$MEASUREMENT
 70
     1
  9
$CELWEIGHT
370
    -1
  9
$ENDCAPS
280
     0
  9
$JOINSTYLE
280
     0
  9
$LWDISPLAY
290
     1
  9
$INSUNITS
 70
     4
  9
$HYPERLINKBASE
  1

  9
$STYLESHEET
  1

  9
$XEDIT
290
     1
  9
$CEPSNTYPE
380
     0
  9
$PSTYLEMODE
290
     1
  9
$FINGERPRINTGUID
  2
{83FB7C3D-9CF9-4C73-90D5-0B4C213CA770}
  9
$VERSIONGUID
  2
{FAEB1C32-E019-11D5-929B-00C0DF256EC4}
  9
$EXTNAMES
290
     1
  9
$PSVPSCALE
 40
0.0
  9
$OLESTARTUP
290
     0
  0
ENDSEC
  0
SECTION
  2
CLASSES
  0
CLASS
  1
ACDBDICTIONARYWDFLT
  2
AcDbDictionaryWithDefault
  3
ObjectDBX Classes
 90
        0
280
     0
281
     0
  0
CLASS
  1
VISUALSTYLE
  2
AcDbVisualStyle
  3
ObjectDBX Classes
 90
     4095
280
     0
281
     0
  0
CLASS
  1
MATERIAL
  2
AcDbMaterial
  3
ObjectDBX Classes
 90
     1153
280
     0
281
     0
  0
CLASS
  1
SCALE
  2
AcDbScale
  3
ObjectDBX Classes
 90
     1153
280
     0
281
     0
  0
CLASS
  1
TABLESTYLE
  2
AcDbTableStyle
  3
ObjectDBX Classes
 90
     4095
280
     0
281
     0
  0
CLASS
  1
MLEADERSTYLE
  2
AcDbMLeaderStyle
  3
ACDB_MLEADERSTYLE_CLASS
 90
     4095
280
     0
281
     0
  0
CLASS
  1
SUN
  2
AcDbSun
  3
SCENEOE
 90
     1153
280
     0
281
     0
  0
CLASS
  1
ACDBPLACEHOLDER
  2
AcDbPlaceHolder
  3
ObjectDBX Classes
 90
        0
280
     0
281
     0
  0
CLASS
  1
LAYOUT
  2
AcDbLayout
  3
ObjectDBX Classes
 90
        0
280
     0
281
     0
  0
ENDSEC
  0
SECTION
  2
TABLES
  0
TABLE
  2
VPORT
  5
8
330
0
100
AcDbSymbolTable
 70
     1
  0
VPORT
  5
29
330
8
100
AcDbSymbolTableRecord
100
AcDbViewportTableRecord
  2
*Active
 70
     0
 10
0.0
 20
0.0
 11
1.0
 21
1.0
 12
0.0
 22
1.1299091524
 13
0.0
 23
0.0
 14
10.0
 24
10.0
 15
10.0
 25
10.0
 16
0.0
 26
0.0
 36
1.0
 17
0.0
 27
0.0
 37
0.0
 40
603.085014671
 41
0.8522104656
 42
50.0
 43
0.0
 44
0.0
 50
0.0
 51
0.0
 71
     0
 72
   100
 73
     1
 74
     3
 75
     0
 76
     0
 77
     0
 78
     0
281
     0
 65
     1
110
0.0
120
0.0
130
0.0
111
1.0
121
0.0
131
0.0
112
0.0
122
1.0
132
0.0
 79
     0
146
0.0
  0
ENDTAB
  0
TABLE
  2
LTYPE
  5
5
330
0
100
AcDbSymbolTable
 70
     6
  0
LTYPE
  5
14
330
5
100
AcDbSymbolTableRecord
100
AcDbLinetypeTableRecord
  2
ByBlock
 70
     0
  3

 72
    65
 73
     0
 40
0.0
  0
LTYPE
  5
15
330
5
100
AcDbSymbolTableRecord
100
AcDbLinetypeTableRecord
  2
ByLayer
 70
     0
  3

 72
    65
 73
     0
 40
0.0
  0
LTYPE
  5
16
330
5
100
AcDbSymbolTableRecord
100
AcDbLinetypeTableRecord
  2
Continuous
 70
     0
  3
Solid line
 72
    65
 73
     0
 40
0.0
  0
LTYPE
  5
6E
330
5
100
AcDbSymbolTableRecord
100
AcDbLinetypeTableRecord
  2
HIDDEN
 70
     0
  3
Hidden __ __ __ __ __ __ __ __ __ __ __ __ __ __
 72
    65
 73
     2
 40
1.905
 49
1.27
 74
     0
 49
-0.635
 74
     0
  0
LTYPE
  5
6F
330
5
100
AcDbSymbolTableRecord
100
AcDbLinetypeTableRecord
  2
PHANTOM
 70
     0
  3
Phantom ______  __  __  ______  __  __  ______
 72
    65
 73
     6
 40
12.7
 49
6.35
 74
     0
 49
-1.27
 74
     0
 49
1.27
 74
     0
 49
-1.27
 74
     0
 49
1.27
 74
     0
 49
-1.27
 74
     0
  0
LTYPE
  5
70
330
5
100
AcDbSymbolTableRecord
100
AcDbLinetypeTableRecord
  2
CENTER
 70
     0
  3
Center ____ _ ____ _ ____ _ ____ _ ____ _ ____
 72
    65
 73
     4
 40
10.16
 49
6.35
 74
     0
 49
-1.27
 74
     0
 49
1.27
 74
     0
 49
-1.27
 74
     0
  0
LTYPE
  5
71
330
5
100
AcDbSymbolTableRecord
100
AcDbLinetypeTableRecord
  2
CENTERX2
 70
     0
  3
Center (2x) ________  __  ________  __  _____
 72
    65
 73
     4
 40
20.32
 49
12.7
 74
     0
 49
-2.54
 74
     0
 49
2.54
 74
     0
 49
-2.54
 74
     0
  0
LTYPE
  5
72
330
5
100
AcDbSymbolTableRecord
100
AcDbLinetypeTableRecord
  2
DOT2
 70
     0
  3
Dot (.5x) ........................................
 72
    65
 73
     2
 40
0.635
 49
0.0
 74
     0
 49
-0.635
 74
     0
  0
ENDTAB
  0
TABLE
  2
LAYER
  5
2
330
0
100
AcDbSymbolTable
 70
     1
  0
LAYER
  5
10
330
2
100
AcDbSymbolTableRecord
100
AcDbLayerTableRecord
  2
0
 70
     0
 62
     7
  6
Continuous
370
    -3
390
F
  0
ENDTAB
  0
TABLE
  2
STYLE
  5
3
330
0
100
AcDbSymbolTable
 70
     1
  0
STYLE
  5
11
330
3
100
AcDbSymbolTableRecord
100
AcDbTextStyleTableRecord
  2
Standard
 70
     0
 40
0.0
 41
1.0
 50
0.0
 71
     0
 42
3.5
  3
txt
  4

  0
ENDTAB
  0
TABLE
  2
VIEW
  5
6
330
0
100
AcDbSymbolTable
 70
     0
  0
ENDTAB
  0
TABLE
  2
UCS
  5
7
330
0
100
AcDbSymbolTable
 70
     0
  0
ENDTAB
  0
TABLE
  2
APPID
  5
9
330
0
100
AcDbSymbolTable
 70
     1
  0
APPID
  5
12
330
9
100
AcDbSymbolTableRecord
100
AcDbRegAppTableRecord
  2
ACAD
 70
     0
  0
ENDTAB
  0
TABLE
  2
DIMSTYLE
  5
A
330
0
100
AcDbSymbolTable
 70
     1
100
AcDbDimStyleTable
  0
DIMSTYLE
105
27
330
A
100
AcDbSymbolTableRecord
100
AcDbDimStyleTableRecord
  2
ISO-25
 70
     0
 41
2.5
 42
0.625
 43
3.75
 44
1.25
 73
     0
 74
     0
 77
     1
 78
     8
140
2.5
141
2.5
143
0.0393700787
147
0.625
171
     3
172
     1
178
     0
271
     2
272
     2
274
     3
278
    44
283
     0
284
     8
340
11
  0
ENDTAB
  0
TABLE
  2
BLOCK_RECORD
  5
1
330
0
100
AcDbSymbolTable
 70
     1
  0
BLOCK_RECORD
  5
1F
330
1
100
AcDbSymbolTableRecord
100
AcDbBlockTableRecord
  2
*Model_Space
340
22
  0
BLOCK_RECORD
  5
1B
330
1
100
AcDbSymbolTableRecord
100
AcDbBlockTableRecord
  2
*Paper_Space
340
1E
  0
BLOCK_RECORD
  5
23
330
1
100
AcDbSymbolTableRecord
100
AcDbBlockTableRecord
  2
*Paper_Space0
340
26
  0
ENDTAB
  0
ENDSEC
  0
SECTION
  2
BLOCKS
  0
BLOCK
  5
20
330
1F
100
AcDbEntity
  8
0
100
AcDbBlockBegin
  2
*Model_Space
 70
     0
 10
0.0
 20
0.0
 30
0.0
  3
*Model_Space
  1

  0
ENDBLK
  5
21
330
1F
100
AcDbEntity
  8
0
100
AcDbBlockEnd
  0
BLOCK
  5
1C
330
1B
100
AcDbEntity
 67
     1
  8
0
100
AcDbBlockBegin
  2
*Paper_Space
 70
     0
 10
0.0
 20
0.0
 30
0.0
  3
*Paper_Space
  1

  0
ENDBLK
  5
1D
330
1B
100
AcDbEntity
 67
     1
  8
0
100
AcDbBlockEnd
  0
BLOCK
  5
24
330
23
100
AcDbEntity
  8
0
100
AcDbBlockBegin
  2
*Paper_Space0
 70
     0
 10
0.0
 20
0.0
 30
0.0
  3
*Paper_Space0
  1

  0
ENDBLK
  5
25
330
23
100
AcDbEntity
  8
0
100
AcDbBlockEnd
  0
ENDSEC
  0
SECTION
  2
ENTITIES
  0
SPLINE
  5
F3
330
1F
100
AcDbEntity
  8
0
  6
Continuous
 62
     7
370
    15
100
AcDbSpline
210
0.0
220
0.0
230
1.0
 70
     8
 71
     3
 72
    10
 73
     6
 74
     0
 42
0.000000001
 43
0.00000001
 40
0.0
 40
0.0
 40
0.0
 40
0.0
 40
0.5
 40
0.5
 40
1.0
 40
1.0
 40
1.0
 40
1.0
 10
-231.5000000000011
 20
-94.74018182810578
 30
0.0
 10
-231.6308997287197
 20
-94.74018182810578
 30
0.0
 10
-231.7609933988063
 20
-94.686295265577
 30
0.0
 10
-231.946113570471
 20
-94.50117509391227
 30
0.0
 10
-232.0000001329998
 20
-94.37108142382567
 30
0.0
 10
-232.0000001329998
 20
-94.24018169510711
 30
0.0
  0
SPLINE
  5
F5
330
1F
100
AcDbEntity
  8
0
  6
Continuous
 62
     7
370
    15
100
AcDbSpline
210
0.0
220
0.0
230
1.0
 70
     8
 71
     3
 72
    14
 73
    10
 74
     0
 42
0.000000001
 43
0.00000001
 40
0.0
 40
0.0
 40
0.0
 40
0.0
 40
0.25
 40
0.25
 40
0.5
 40
0.5
 40
0.75
 40
0.75
 40
1.0
 40
1.0
 40
1.0
 40
1.0
 10
-231.5000000000011
 20
-96.24018182810578
 30
0.0
 10
-231.7617994052098
 20
-96.24018182810579
 30
0.0
 10
-232.0234958035318
 20
-96.18812717798082
 30
0.0
 10
-232.5072380277236
 20
-95.98775458802804
 30
0.0
 10
-232.7290935216849
 20
-95.83951548625811
 30
0.0
 10
-233.0993337911522
 20
-95.46927521679085
 30
0.0
 10
-233.2475728929221
 20
-95.24741972282958
 30
0.0
 10
-233.4479454828749
 20
-94.76367749863779
 30
0.0
 10
-233.5000001329998
 20
-94.50198110031576
 30
0.0
 10
-233.5000001329998
 20
-94.24018169510711
 30
0.0
  0
SPLINE
  5
F7
330
1F
100
AcDbEntity
  8
0
  6
Continuous
 62
     7
370
    15
100
AcDbSpline
210
0.0
220
0.0
230
1.0
 70
     8
 71
     3
 72
    10
 73
     6
 74
     0
 42
0.000000001
 43
0.00000001
 40
0.0
 40
0.0
 40
0.0
 40
0.0
 40
0.5
 40
0.5
 40
1.0
 40
1.0
 40
1.0
 40
1.0
 10
232.0000001329999
 20
-94.2401816951072
 30
0.0
 10
232.0000001329999
 20
-94.37108142382571
 30
0.0
 10
231.9461135704711
 20
-94.50117509391237
 30
0.0
 10
231.7609933988064
 20
-94.6862952655771
 30
0.0
 10
231.6308997287198
 20
-94.74018182810588
 30
0.0
 10
231.5000000000012
 20
-94.74018182810588
 30
0.0
  0
SPLINE
  5
F8
330
1F
100
AcDbEntity
  8
0
  6
Continuous
 62
     7
370
    15
100
AcDbSpline
210
0.0
220
0.0
230
1.0
 70
     8
 71
     3
 72
    14
 73
    10
 74
     0
 42
0.000000001
 43
0.00000001
 40
0.0
 40
0.0
 40
0.0
 40
0.0
 40
0.25
 40
0.25
 40
0.5
 40
0.5
 40
0.75
 40
0.75
 40
1.0
 40
1.0
 40
1.0
 40
1.0
 10
233.5000001329999
 20
-94.2401816951072
 30
0.0
 10
233.5000001329998
 20
-94.50198110031582
 30
0.0
 10
233.4479454828749
 20
-94.76367749863789
 30
0.0
 10
233.2475728929221
 20
-95.24741972282965
 30
0.0
 10
233.0993337911522
 20
-95.4692752167909
 30
0.0
 10
232.7290935216849
 20
-95.83951548625818
 30
0.0
 10
232.5072380277236
 20
-95.98775458802817
 30
0.0
 10
232.0234958035319
 20
-96.1881271779809
 30
0.0
 10
231.7617994052098
 20
-96.24018182810589
 30
0.0
 10
231.5000000000012
 20
-96.24018182810588
 30
0.0
  0
SPLINE
  5
109
330
1F
100
AcDbEntity
  8
0
  6
Continuous
 62
     7
370
    15
100
AcDbSpline
210
0.0
220
0.0
230
1.0
 70
     8
 71
     3
 72
    22
 73
    18
 74
     0
 42
0.000000001
 43
0.00000001
 40
0.0
 40
0.0
 40
0.0
 40
0.0
 40
0.125
 40
0.125
 40
0.25
 40
0.25
 40
0.375
 40
0.375
 40
0.5
 40
0.5
 40
0.625
 40
0.625
 40
0.75
 40
0.75
 40
0.875
 40
0.875
 40
1.0
 40
1.0
 40
1.0
 40
1.0
 10
251.5549966598742
 20
-83.45137677537411
 30
0.0
 10
251.5485657420561
 20
-83.64505019859084
 30
0.0
 10
251.5416110030113
 20
-83.76914767693711
 30
0.0
 10
251.5281207959088
 20
-83.78749764500853
 30
0.0
 10
251.521627812382
 20
-83.67912349457974
 30
0.0
 10
251.5109042416251
 20
-83.22488540398264
 30
0.0
 10
251.5067108307955
 20
-82.88059621325583
 30
0.0
 10
251.5013583395172
 20
-82.06409127159344
 30
0.0
 10
251.5001806708684
 20
-81.59551438181842
 30
0.0
 10
251.5001806708684
 20
-80.66335501038745
 30
0.0
 10
251.5013583395173
 20
-80.12538493906294
 30
0.0
 10
251.5067108307955
 20
-78.9934887373901
 30
0.0
 10
251.5109042416252
 20
-78.40210617340358
 30
0.0
 10
251.5216278123819
 20
-77.31599026798685
 30
0.0
 10
251.5281207959088
 20
-76.82502226559541
 30
0.0
 10
251.5416110030113
 20
-76.04847258888537
 30
0.0
 10
251.5485657420561
 20
-75.7627676413457
 30
0.0
 10
251.5549966598742
 20
-75.57750438475945
 30
0.0
  0
SPLINE
  5
10A
330
1F
100
AcDbEntity
  8
0
  6
Continuous
 62
     7
370
    15
100
AcDbSpline
210
0.0
220
0.0
230
1.0
 70
     8
 71
     3
 72
    14
 73
    10
 74
     0
 42
0.000000001
 43
0.00000001
 40
0.0
 40
0.0
 40
0.0
 40
0.0
 40
0.25
 40
0.25
 40
0.5
 40
0.5
 40
0.75
 40
0.75
 40
1.0
 40
1.0
 40
1.0
 40
1.0
 10
251.6098126488837
 20
-77.89944646392489
 30
0.0
 10
251.6098126488837
 20
-78.36552614965561
 30
0.0
 10
251.6086349802349
 20
-78.90349622100206
 30
0.0
 10
251.603282488956
 20
-80.03539242272318
 30
0.0
 10
251.5990890781261
 20
-80.62677498673548
 30
0.0
 10
251.5883655073684
 20
-81.7128908921874
 30
0.0
 10
251.5818725238412
 20
-82.20385889458738
 30
0.0
 10
251.5683823167378
 20
-82.98040857128812
 30
0.0
 10
251.5614275776926
 20
-83.26611351881027
 30
0.0
 10
251.5549966598743
 20
-83.45137677537177
 30
0.0
  0
SPLINE
  5
10B
330
1F
100
AcDbEntity
  8
0
  6
Continuous
 62
     7
370
    15
100
AcDbSpline
210
0.0
220
0.0
230
1.0
 70
     8
 71
     3
 72
    14
 73
    10
 74
     0
 42
0.000000001
 43
0.00000001
 40
0.0
 40
0.0
 40
0.0
 40
0.0
 40
0.25
 40
0.25
 40
0.5
 40
0.5
 40
0.75
 40
0.75
 40
1.0
 40
1.0
 40
1.0
 40
1.0
 10
251.5549966598742
 20
-75.57750438476178
 30
0.0
 10
251.5614275776926
 20
-75.38383096150818
 30
0.0
 10
251.5683823167378
 20
-75.25973348312418
 30
0.0
 10
251.5818725238411
 20
-75.2413835149937
 30
0.0
 10
251.5883655073684
 20
-75.3497576654021
 30
0.0
 10
251.5990890781261
 20
-75.80399575598427
 30
0.0
 10
251.603282488956
 20
-76.14828494671637
 30
0.0
 10
251.6086349802348
 20
-76.96478988840205
 30
0.0
 10
251.6098126488837
 20
-77.43336677819426
 30
0.0
 10
251.6098126488837
 20
-77.89944646392489
 30
0.0
  0
LWPOLYLINE
  5
10E
330
1F
100
AcDbEntity
  8
0
  6
Continuous
 62
     7
370
    15
100
AcDbPolyline
 90
       30
 70
   128
 43
0.0
 10
251.1720538938
 20
-90.5659199914
 10
251.1747348017
 20
-87.4840367262
 10
251.1818795778
 20
-84.309249855
 10
251.1934044562
 20
-81.0787808509
 10
251.2091743183
 20
-77.8305040096
 10
251.2290042769
 20
-74.6025024069
 10
251.2526618437
 20
-71.4326214104
 10
251.2798696555
 20
-68.3580249764
 10
251.3103087255
 20
-65.4147599371
 10
251.3436221835
 20
-62.6373333838
 10
251.3794194596
 20
-60.0583081037
 10
251.4172808636
 20
-57.7079208099
 10
251.456762505
 20
-55.6137276447
 10
251.4974014977
 20
-53.800281108
 10
251.5387213867
 20
-52.2888422025
 10
251.5802377341
 20
-51.0971311675
 10
251.6214637986
 20
-50.2391197251
 10
251.6619162423
 20
-49.7248672752
 10
251.7011207974
 20
-49.5604029575
 10
251.7386178262
 20
-49.7476549658
 10
251.7739677104
 20
-50.2844279413
 10
251.806756005
 20
-51.1644287119
 10
251.836598297
 20
-52.3773400731
 10
251.863144713
 20
-53.908941748
 10
251.8860840205
 20
-55.7412771075
 10
251.905147277
 20
-57.8528636948
 10
251.9201109834
 20
-60.2189450877
 10
251.9307997038
 20
-62.8117811453
 10
251.9370881228
 20
-65.6009732355
 10
251.9389025144
 20
-68.5538206311
  0
SPLINE
  5
110
330
1F
100
AcDbEntity
  8
0
  6
Continuous
 62
     7
370
    15
100
AcDbSpline
210
0.0
220
0.0
230
1.0
 70
     8
 71
     3
 72
    10
 73
     6
 74
     0
 42
0.000000001
 43
0.00000001
 40
0.0
 40
0.0
 40
0.0
 40
0.0
 40
0.4422024471912808
 40
0.8844048374006745
 40
0.9999999999999999
 40
0.9999999999999999
 40
0.9999999999999999
 40
0.9999999999999999
 10
251.5549966599036
 20
-65.15566220572656
 30
0.0
 10
251.5661005129555
 20
-64.8762236352652
 30
0.0
 10
251.5883082176283
 20
-64.3173465303507
 30
0.0
 10
251.6131640029312
 20
-64.00097313761218
 30
0.0
 10
251.6258731493572
 20
-64.05969717606084
 30
0.0
 10
251.6285069290148
 20
-64.07186685077306
 30
0.0
  0
SPLINE
  5
111
330
1F
100
AcDbEntity
  8
0
  6
Continuous
 62
     7
370
    15
100
AcDbSpline
210
0.0
220
0.0
230
1.0
 70
     8
 71
     3
 72
    13
 73
     9
 74
     0
 42
0.000000001
 43
0.00000001
 40
0.0
 40
0.0
 40
0.0
 40
0.0
 40
0.1588484469708742
 40
0.3176891897530698
 40
0.4765298719966597
 40
0.6353582476844115
 40
0.7941865807085577
 40
1.0
 40
1.0
 40
1.0
 40
1.0
 10
251.6509717518073
 20
-64.14648121512613
 30
0.0
 10
251.6604452636058
 20
-64.29428877143229
 30
0.0
 10
251.6793918277351
 20
-64.58989671534188
 30
0.0
 10
251.7034668167141
 20
-65.58101754835803
 30
0.0
 10
251.723622813178
 20
-66.9282759255511
 30
0.0
 10
251.7387104527361
 20
-68.65241484623706
 30
0.0
 10
251.7501520711776
 20
-70.86164792759266
 30
0.0
 10
251.7517398809474
 20
-72.67056677284313
 30
0.0
 10
251.7526360826462
 20
-73.69156826375169
 30
0.0
  0
SPLINE
  5
112
330
1F
100
AcDbEntity
  8
0
  6
Continuous
 62
     7
370
    15
100
AcDbSpline
210
0.0
220
0.0
230
1.0
 70
     8
 71
     3
 72
    10
 73
     6
 74
     0
 42
0.000000001
 43
0.00000001
 40
0.0
 40
0.0
 40
0.0
 40
0.0
 40
0.5
 40
0.5
 40
1.0
 40
1.0
 40
1.0
 40
1.0
 10
251.7526360826465
 20
-73.69156826375169
 30
0.0
 10
251.7526360826465
 20
-74.60982610474949
 30
0.0
 10
251.7514092514517
 20
-75.57283779673747
 30
0.0
 10
251.746501926673
 20
-77.53671591228209
 30
0.0
 10
251.7428222797865
 20
-78.53724349316595
 30
0.0
 10
251.7380508474496
 20
-79.528480533552
 30
0.0
  0
SPLINE
  5
113
330
1F
100
AcDbEntity
  8
0
  6
Continuous
 62
     7
370
    15
100
AcDbSpline
210
0.0
220
0.0
230
1.0
 70
     8
 71
     3
 72
    22
 73
    18
 74
     0
 42
0.000000001
 43
0.00000001
 40
0.0
 40
0.0
 40
0.0
 40
0.0
 40
0.125
 40
0.125
 40
0.25
 40
0.25
 40
0.375
 40
0.375
 40
0.5
 40
0.5
 40
0.625
 40
0.625
 40
0.75
 40
0.75
 40
0.875
 40
0.875
 40
1.0
 40
1.0
 40
1.0
 40
1.0
 10
251.7918280514606
 20
-83.68246264895961
 30
0.0
 10
251.7878400269772
 20
-83.80242105000622
 30
0.0
 10
251.7836196093969
 20
-83.8991460563738
 30
0.0
 10
251.7749783186638
 20
-84.01969701470601
 30
0.0
 10
251.7705585649779
 20
-84.04320360551675
 30
0.0
 10
251.7619422462767
 20
-83.99441241928984
 30
0.0
 10
251.7577500284238
 20
-83.9217810510011
 30
0.0
 10
251.750093897336
 20
-83.67216576628127
 30
0.0
 10
251.7466359072918
 20
-83.49508781556477
 30
0.0
 10
251.7408711587234
 20
-83.04979388677934
 30
0.0
 10
251.738567964667
 20
-82.78185324350666
 30
0.0
 10
251.7352956379912
 20
-82.18730753225782
 30
0.0
 10
251.7343253538897
 20
-81.86116508578105
 30
0.0
 10
251.7336200385898
 20
-81.18991324190594
 30
0.0
 10
251.733880768691
 20
-80.84514581378751
 30
0.0
 10
251.7353472899133
 20
-80.1703848555358
 30
0.0
 10
251.7365489950769
 20
-79.84048154209712
 30
0.0
 10
251.7380508474499
 20
-79.52848053355196
 30
0.0
  0
SPLINE
  5
114
330
1F
100
AcDbEntity
  8
0
  6
Continuous
 62
     7
370
    15
100
AcDbSpline
210
0.0
220
0.0
230
1.0
 70
     8
 71
     3
 72
    14
 73
    10
 74
     0
 42
0.000000001
 43
0.00000001
 40
0.0
 40
0.0
 40
0.0
 40
0.0
 40
0.25
 40
0.25
 40
0.5
 40
0.5
 40
0.75
 40
0.75
 40
1.0
 40
1.0
 40
1.0
 40
1.0
 10
251.8456052554687
 20
-79.4993667517003
 30
0.0
 10
251.8435768914201
 20
-79.9207474680876
 30
0.0
 10
251.840742208657
 20
-80.36113994505344
 30
0.0
 10
251.8335205894968
 20
-81.22426624491301
 30
0.0
 10
251.8291346045856
 20
-81.6461226669863
 30
0.0
 10
251.8193243536361
 20
-82.40921961958185
 30
0.0
 10
251.8139105484063
 20
-82.74964644908776
 30
0.0
 10
251.8028498676044
 20
-83.30862111882975
 30
0.0
 10
251.7972141770421
 20
-83.52710231444657
 30
0.0
 10
251.7918280514599
 20
-83.68246264896075
 30
0.0
  0
SPLINE
  5
115
330
1F
100
AcDbEntity
  8
0
  6
Continuous
 62
     7
370
    15
100
AcDbSpline
210
0.0
220
0.0
230
1.0
 70
     8
 71
     3
 72
    10
 73
     6
 74
     0
 42
0.000000001
 43
0.00000001
 40
0.0
 40
0.0
 40
0.0
 40
0.0
 40
0.5
 40
0.5
 40
1.0
 40
1.0
 40
1.0
 40
1.0
 10
251.868659336909
 20
-70.2732796155644
 30
0.0
 10
251.868659336909
 20
-71.72471942875447
 30
0.0
 10
251.8667201521174
 20
-73.24689919996132
 30
0.0
 10
251.8589634129509
 20
-76.35109364066076
 30
0.0
 10
251.8531471969047
 20
-77.93257272012241
 30
0.0
 10
251.8456052554687
 20
-79.49936675170031
 30
0.0
  0
SPLINE
  5
116
330
1F
100
AcDbEntity
  8
0
  6
Continuous
 62
     7
370
    15
100
AcDbSpline
210
0.0
220
0.0
230
1.0
 70
     8
 71
     3
 72
    22
 73
    18
 74
     0
 42
0.000000001
 43
0.00000001
 40
0.0
 40
0.0
 40
0.0
 40
0.0
 40
0.125
 40
0.125
 40
0.25
 40
0.25
 40
0.375
 40
0.375
 40
0.5
 40
0.5
 40
0.625
 40
0.625
 40
0.75
 40
0.75
 40
0.875
 40
0.875
 40
1.0
 40
1.0
 40
1.0
 40
1.0
 10
251.554996659884
 20
-56.81826536951402
 30
0.0
 10
251.5734649411987
 20
-56.2720562721026
 30
0.0
 10
251.5926277729801
 20
-55.82438270871708
 30
0.0
 10
251.6314491798476
 20
-55.19715947264496
 30
0.0
 10
251.6511038097516
 20
-55.01818481234361
 30
0.0
 10
251.6897121907661
 20
-54.98445864037405
 30
0.0
 10
251.7086580945255
 20
-55.13020184362775
 30
0.0
 10
251.7445283178645
 20
-55.76919829921752
 30
0.0
 10
251.7614432874287
 20
-56.26261130633407
 30
0.0
 10
251.792076444423
 20
-57.57666488666599
 30
0.0
 10
251.8057877053216
 20
-58.39700833628527
 30
0.0
 10
251.8292433543824
 20
-60.30288099253649
 30
0.0
 10
251.8389861312067
 20
-61.38778024128258
 30
0.0
 10
251.8542766900224
 20
-63.73357940243045
 30
0.0
 10
251.859828095834
 20
-64.99380342543814
 30
0.0
 10
251.8670162571476
 20
-67.59467364177121
 30
0.0
 10
251.868659336909
 20
-68.93484687667267
 30
0.0
 10
251.868659336909
 20
-70.2732796155644
 30
0.0
  0
SPLINE
  5
117
330
1F
100
AcDbEntity
  8
0
  6
Continuous
 62
     7
370
    15
100
AcDbSpline
210
0.0
220
0.0
230
1.0
 70
     8
 71
     3
 72
    22
 73
    18
 74
     0
 42
0.000000001
 43
0.00000001
 40
0.0
 40
0.0
 40
0.0
 40
0.0
 40
0.125
 40
0.125
 40
0.25
 40
0.25
 40
0.375
 40
0.375
 40
0.5
 40
0.5
 40
0.625
 40
0.625
 40
0.75
 40
0.75
 40
0.875
 40
0.875
 40
1.0
 40
1.0
 40
1.0
 40
1.0
 10
251.2643880642834
 20
-79.52951440832791
 30
0.0
 10
251.2698814123995
 20
-78.3883036053914
 30
0.0
 10
251.2764417806281
 20
-77.2224109145647
 30
0.0
 10
251.2917278318472
 20
-74.87543901212983
 30
0.0
 10
251.3004541781496
 20
-73.69446504084372
 30
0.0
 10
251.3199576162892
 20
-71.35758369488391
 30
0.0
 10
251.3307345619961
 20
-70.20182559976425
 30
0.0
 10
251.3540676516808
 20
-67.95772295204878
 30
0.0
 10
251.3666227402789
 20
-66.86954199838489
 30
0.0
 10
251.3931014825724
 20
-64.800211223026
 30
0.0
 10
251.4070233534059
 20
-63.81920073313106
 30
0.0
 10
251.4357294990313
 20
-61.9964036028833
 30
0.0
 10
251.4505116821688
 20
-61.15469930637495
 30
0.0
 10
251.48039666964
 20
-59.63184336077767
 30
0.0
 10
251.4954975667536
 20
-58.9507029028358
 30
0.0
 10
251.525504448955
 20
-57.7580028678766
 30
0.0
 10
251.5404090907485
 20
-57.24639119161341
 30
0.0
 10
251.5549966598838
 20
-56.8182653695158
 30
0.0
  0
SPLINE
  5
118
330
1F
100
AcDbEntity
  8
0
  6
Continuous
 62
     7
370
    15
100
AcDbSpline
210
0.0
220
0.0
230
1.0
 70
     8
 71
     3
 72
    22
 73
    18
 74
     0
 42
0.000000001
 43
0.00000001
 40
0.0
 40
0.0
 40
0.0
 40
0.0
 40
0.125
 40
0.125
 40
0.25
 40
0.25
 40
0.375
 40
0.375
 40
0.5
 40
0.5
 40
0.625
 40
0.625
 40
0.75
 40
0.75
 40
0.875
 40
0.875
 40
1.0
 40
1.0
 40
1.0
 40
1.0
 10
251.318165268294
 20
-83.68349652373547
 30
0.0
 10
251.3141772438107
 20
-83.80345492478209
 30
0.0
 10
251.3099568262305
 20
-83.90017993114967
 30
0.0
 10
251.3013155354973
 20
-84.02073088948194
 30
0.0
 10
251.2968957818113
 20
-84.04423748029268
 30
0.0
 10
251.2882794631103
 20
-83.99544629406581
 30
0.0
 10
251.2840872452571
 20
-83.92281492577703
 30
0.0
 10
251.2764311141694
 20
-83.67319964105718
 30
0.0
 10
251.2729731241253
 20
-83.4961216903407
 30
0.0
 10
251.2672083755569
 20
-83.05082776155527
 30
0.0
 10
251.2649051815004
 20
-82.78288711828257
 30
0.0
 10
251.2616328548248
 20
-82.18834140703372
 30
0.0
 10
251.2606625707231
 20
-81.86219896055691
 30
0.0
 10
251.2599572554231
 20
-81.19094711668178
 30
0.0
 10
251.2602179855245
 20
-80.84617968856337
 30
0.0
 10
251.2616845067467
 20
-80.17141873031159
 30
0.0
 10
251.2628862119103
 20
-79.8415154168729
 30
0.0
 10
251.2643880642834
 20
-79.52951440832774
 30
0.0
  0
SPLINE
  5
119
330
1F
100
AcDbEntity
  8
0
  6
Continuous
 62
     7
370
    15
100
AcDbSpline
210
0.0
220
0.0
230
1.0
 70
     8
 71
     3
 72
    14
 73
    10
 74
     0
 42
0.000000001
 43
0.00000001
 40
0.0
 40
0.0
 40
0.0
 40
0.0
 40
0.25
 40
0.25
 40
0.5
 40
0.5
 40
0.75
 40
0.75
 40
1.0
 40
1.0
 40
1.0
 40
1.0
 10
251.3719424723028
 20
-79.50040062647624
 30
0.0
 10
251.3699141082542
 20
-79.92178134286354
 30
0.0
 10
251.3670794254911
 20
-80.36217381982938
 30
0.0
 10
251.3598578063308
 20
-81.22530011968894
 30
0.0
 10
251.3554718214197
 20
-81.64715654176223
 30
0.0
 10
251.3456615704701
 20
-82.41025349435775
 30
0.0
 10
251.3402477652403
 20
-82.7506803238636
 30
0.0
 10
251.3291870844385
 20
-83.3096549936056
 30
0.0
 10
251.3235513938762
 20
-83.52813618922242
 30
0.0
 10
251.318165268294
 20
-83.68349652373661
 30
0.0
  0
SPLINE
  5
11A
330
1F
100
AcDbEntity
  8
0
  6
Continuous
 62
     7
370
    15
100
AcDbSpline
210
0.0
220
0.0
230
1.0
 70
     8
 71
     3
 72
    18
 73
    14
 74
     0
 42
0.000000001
 43
0.00000001
 40
0.0
 40
0.0
 40
0.0
 40
0.0
 40
0.2500000000000009
 40
0.2500000000000009
 40
0.375000000000001
 40
0.375000000000001
 40
0.5000000000000011
 40
0.5000000000000011
 40
0.6250000000000013
 40
0.6250000000000013
 40
0.7500000000000013
 40
0.7500000000000013
 40
1.0
 40
1.0
 40
1.0
 40
1.0
 10
251.3719424723028
 20
-79.50040062647626
 30
0.0
 10
251.3788724021171
 20
-78.0607484142842
 30
0.0
 10
251.388530760601
 20
-76.55734881259107
 30
0.0
 10
251.4069536662644
 20
-74.34672302683879
 30
0.0
 10
251.4137388494103
 20
-73.61779262107858
 30
0.0
 10
251.4284279676804
 20
-72.20214321581862
 30
0.0
 10
251.4363312473965
 20
-71.51552588849768
 30
0.0
 10
251.4529999211119
 20
-70.20931286272192
 30
0.0
 10
251.4617642088131
 20
-69.58980385746474
 30
0.0
 10
251.4798385174998
 20
-68.43800153915852
 30
0.0
 10
251.4891472393071
 20
-67.90575972183929
 30
0.0
 10
251.5173835949545
 20
-66.46000972519742
 30
0.0
 10
251.536594286231
 20
-65.70113402635651
 30
0.0
 10
251.5549966599037
 20
-65.15566220571662
 30
0.0
  0
SPLINE
  5
11D
330
1F
100
AcDbEntity
  8
0
  6
Continuous
 62
     7
370
    15
100
AcDbSpline
210
0.0
220
0.0
230
1.0
 70
     8
 71
     3
 72
     8
 73
     4
 74
     0
 42
0.000000001
 43
0.00000001
 40
0.0
 40
0.0
 40
0.0
 40
0.0
 40
1.0
 40
1.0
 40
1.0
 40
1.0
 10
245.3613915961118
 20
-61.31630454835524
 30
0.0
 10
245.4525505409081
 20
-60.90570892367866
 30
0.0
 10
245.5010000000001
 20
-60.50063283309355
 30
0.0
 10
245.5010000000001
 20
-60.10104910144867
 30
0.0
  0
LWPOLYLINE
  5
11F
330
1F
100
AcDbEntity
  8
0
  6
Continuous
 62
     7
370
    15
100
AcDbPolyline
 90
       30
 70
   128
 43
0.0
 10
-251.9389025144
 20
-68.5538206311
 10
-251.9370881228
 20
-65.6009732355
 10
-251.9307997038
 20
-62.8117811453
 10
-251.9201109834
 20
-60.2189450877
 10
-251.905147277
 20
-57.8528636948
 10
-251.8860840205
 20
-55.7412771075
 10
-251.863144713
 20
-53.908941748
 10
-251.836598297
 20
-52.3773400731
 10
-251.806756005
 20
-51.1644287119
 10
-251.7739677104
 20
-50.2844279413
 10
-251.7386178262
 20
-49.7476549658
 10
-251.7011207974
 20
-49.5604029575
 10
-251.6619162423
 20
-49.7248672752
 10
-251.6214637986
 20
-50.2391197251
 10
-251.5802377341
 20
-51.0971311675
 10
-251.5387213867
 20
-52.2888422025
 10
-251.4974014977
 20
-53.800281108
 10
-251.456762505
 20
-55.6137276447
 10
-251.4172808636
 20
-57.7079208099
 10
-251.3794194596
 20
-60.0583081037
 10
-251.3436221835
 20
-62.6373333838
 10
-251.3103087255
 20
-65.4147599371
 10
-251.2798696555
 20
-68.3580249764
 10
-251.2526618437
 20
-71.4326214104
 10
-251.2290042769
 20
-74.6025024069
 10
-251.2091743183
 20
-77.8305040096
 10
-251.1934044562
 20
-81.0787808509
 10
-251.1818795778
 20
-84.309249855
 10
-251.1747348017
 20
-87.4840367262
 10
-251.1720538938
 20
-90.5659199914
  0
SPLINE
  5
121
330
1F
100
AcDbEntity
  8
0
  6
Continuous
 62
     7
370
    15
100
AcDbSpline
210
0.0
220
0.0
230
1.0
 70
     8
 71
     3
 72
     8
 73
     4
 74
     0
 42
0.000000001
 43
0.00000001
 40
0.0
 40
0.0
 40
0.0
 40
0.0
 40
1.0
 40
1.0
 40
1.0
 40
1.0
 10
-245.5010000000001
 20
-60.10104910144965
 30
0.0
 10
-245.5010000000001
 20
-60.50063283309608
 30
0.0
 10
-245.4525505409075
 20
-60.90570892368433
 30
0.0
 10
-245.3613915961104
 20
-61.31630454836252
 30
0.0
  0
SPLINE
  5
124
330
1F
100
AcDbEntity
  8
0
  6
Continuous
 62
     7
370
    15
100
AcDbSpline
210
0.0
220
0.0
230
1.0
 70
     8
 71
     3
 72
    18
 73
    14
 74
     0
 42
0.000000001
 43
0.00000001
 40
0.0
 40
0.0
 40
0.0
 40
0.0
 40
0.2500000000000075
 40
0.2500000000000075
 40
0.3750000000000072
 40
0.3750000000000072
 40
0.5000000000000069
 40
0.5000000000000069
 40
0.6250000000000066
 40
0.6250000000000066
 40
0.7500000000000062
 40
0.7500000000000062
 40
1.0
 40
1.0
 40
1.0
 40
1.0
 10
-251.2601536411612
 20
-81.22410184149503
 30
0.0
 10
-251.2601536411612
 20
-81.71747539107083
 30
0.0
 10
-251.2613999479815
 20
-82.21347654061263
 30
0.0
 10
-251.2656479105231
 20
-82.86173603306067
 30
0.0
 10
-251.2674527182827
 20
-83.06149469048405
 30
0.0
 10
-251.2717979502007
 20
-83.41198096199203
 30
0.0
 10
-251.2743380703
 20
-83.56259009451595
 30
0.0
 10
-251.2800118419554
 20
-83.80312883694322
 30
0.0
 10
-251.2831441854508
 20
-83.89300299178876
 30
0.0
 10
-251.2897836139857
 20
-84.00820983797868
 30
0.0
 10
-251.2932889380261
 20
-84.03357346302722
 30
0.0
 10
-251.3039966573276
 20
-84.01935797536706
 30
0.0
 10
-251.3113577227216
 20
-83.88826514673903
 30
0.0
 10
-251.3181652682963
 20
-83.68349652365556
 30
0.0
  0
SPLINE
  5
125
330
1F
100
AcDbEntity
  8
0
  6
Continuous
 62
     7
370
    15
100
AcDbSpline
210
0.0
220
0.0
230
1.0
 70
     8
 71
     3
 72
     8
 73
     4
 74
     0
 42
0.000000001
 43
0.00000001
 40
0.0
 40
0.0
 40
0.0
 40
0.0
 40
1.0
 40
1.0
 40
1.0
 40
1.0
 10
-251.2643880642829
 20
-79.52951440832791
 30
0.0
 10
-251.261617555184
 20
-80.10507139951956
 30
0.0
 10
-251.2601536411612
 20
-80.69091986930295
 30
0.0
 10
-251.2601536411612
 20
-81.22410184149504
 30
0.0
  0
SPLINE
  5
126
330
1F
100
AcDbEntity
  8
0
  6
Continuous
 62
     7
370
    15
100
AcDbSpline
210
0.0
220
0.0
230
1.0
 70
     8
 71
     3
 72
    22
 73
    18
 74
     0
 42
0.000000001
 43
0.00000001
 40
0.0
 40
0.0
 40
0.0
 40
0.0
 40
0.125
 40
0.125
 40
0.25
 40
0.25
 40
0.375
 40
0.375
 40
0.5
 40
0.5
 40
0.625
 40
0.625
 40
0.75
 40
0.75
 40
0.875
 40
0.875
 40
1.0
 40
1.0
 40
1.0
 40
1.0
 10
-251.5549966588279
 20
-56.81826540049401
 30
0.0
 10
-251.5404090897289
 20
-57.24639122508677
 30
0.0
 10
-251.5255044479778
 20
-57.75800290337375
 30
0.0
 10
-251.4954975658705
 20
-58.9507029412398
 30
0.0
 10
-251.4803966688087
 20
-59.63184340006326
 30
0.0
 10
-251.4505116814464
 20
-61.15469934620322
 30
0.0
 10
-251.4357294983661
 20
-61.99640364237221
 30
0.0
 10
-251.407023352855
 20
-63.81920077079555
 30
0.0
 10
-251.3931014820788
 20
-64.80021125920625
 30
0.0
 10
-251.3666227398951
 20
-66.86954203067691
 30
0.0
 10
-251.3540676513497
 20
-67.95772298193882
 30
0.0
 10
-251.3307345617606
 20
-70.20182562426564
 30
0.0
 10
-251.3199576160972
 20
-71.35758371640117
 30
0.0
 10
-251.3004541780327
 20
-73.69446505618404
 30
0.0
 10
-251.2917278317622
 20
-74.87543902427956
 30
0.0
 10
-251.2764417805944
 20
-77.22241092047018
 30
0.0
 10
-251.2698814123852
 20
-78.38830360824436
 30
0.0
 10
-251.2643880642827
 20
-79.52951440832791
 30
0.0
  0
SPLINE
  5
127
330
1F
100
AcDbEntity
  8
0
  6
Continuous
 62
     7
370
    15
100
AcDbSpline
210
0.0
220
0.0
230
1.0
 70
     8
 71
     3
 72
    22
 73
    18
 74
     0
 42
0.000000001
 43
0.00000001
 40
0.0
 40
0.0
 40
0.0
 40
0.0
 40
0.1249999999999998
 40
0.1249999999999998
 40
0.2499999999999997
 40
0.2499999999999997
 40
0.3749999999999997
 40
0.3749999999999997
 40
0.4999999999999998
 40
0.4999999999999998
 40
0.6249999999999998
 40
0.6249999999999998
 40
0.7499999999999999
 40
0.7499999999999999
 40
0.8749999999999999
 40
0.8749999999999999
 40
1.0
 40
1.0
 40
1.0
 40
1.0
 10
-251.8456052554687
 20
-79.49936675170024
 30
0.0
 10
-251.853762995113
 20
-77.80464425952046
 30
0.0
 10
-251.8602920963598
 20
-76.01332749483147
 30
0.0
 10
-251.8682802105635
 20
-72.35025598639922
 30
0.0
 10
-251.8697173496744
 20
-70.47899217518773
 30
0.0
 10
-251.8659633076802
 20
-66.83512756535647
 30
0.0
 10
-251.8607495266092
 20
-65.06435646829102
 30
0.0
 10
-251.843128431539
 20
-61.83375489560181
 30
0.0
 10
-251.8307149645833
 20
-60.37639285700485
 30
0.0
 10
-251.7996204346605
 20
-57.94956105371801
 30
0.0
 10
-251.7809582844698
 20
-56.98156737264989
 30
0.0
 10
-251.7396060321922
 20
-55.60948174454603
 30
0.0
 10
-251.7169474928318
 20
-55.20490451433826
 30
0.0
 10
-251.670333089112
 20
-54.91766785828611
 30
0.0
 10
-251.6464005892931
 20
-55.03323840356915
 30
0.0
 10
-251.5995606795715
 20
-55.66404754262393
 30
0.0
 10
-251.5766595115247
 20
-56.17757517542915
 30
0.0
 10
-251.5549966588281
 20
-56.81826540073158
 30
0.0
  0
SPLINE
  5
128
330
1F
100
AcDbEntity
  8
0
  6
Continuous
 62
     7
370
    15
100
AcDbSpline
210
0.0
220
0.0
230
1.0
 70
     8
 71
     3
 72
    14
 73
    10
 74
     0
 42
0.000000001
 43
0.00000001
 40
0.0
 40
0.0
 40
0.0
 40
0.0
 40
0.25
 40
0.25
 40
0.5
 40
0.5
 40
0.75
 40
0.75
 40
1.0
 40
1.0
 40
1.0
 40
1.0
 10
-251.7918280514624
 20
-83.68246264888407
 30
0.0
 10
-251.7972141770443
 20
-83.52710231435711
 30
0.0
 10
-251.8028498676066
 20
-83.30862111873239
 30
0.0
 10
-251.8139105484078
 20
-82.7496464489872
 30
0.0
 10
-251.8193243536372
 20
-82.40921961948615
 30
0.0
 10
-251.829134604586
 20
-81.64612266691006
 30
0.0
 10
-251.8335205894972
 20
-81.22426624485124
 30
0.0
 10
-251.8407422086569
 20
-80.36113994502267
 30
0.0
 10
-251.84357689142
 20
-79.92074746807327
 30
0.0
 10
-251.8456052554685
 20
-79.4993667517003
 30
0.0
  0
SPLINE
  5
129
330
1F
100
AcDbEntity
  8
0
  6
Continuous
 62
     7
370
    15
100
AcDbSpline
210
0.0
220
0.0
230
1.0
 70
     8
 71
     3
 72
    18
 73
    14
 74
     0
 42
0.000000001
 43
0.00000001
 40
0.0
 40
0.0
 40
0.0
 40
0.0
 40
0.2499999999999969
 40
0.2499999999999969
 40
0.3749999999999974
 40
0.3749999999999974
 40
0.499999999999998
 40
0.499999999999998
 40
0.6249999999999986
 40
0.6249999999999986
 40
0.7499999999999991
 40
0.7499999999999991
 40
1.0
 40
1.0
 40
1.0
 40
1.0
 10
-251.7338164243272
 20
-81.2230679667191
 30
0.0
 10
-251.7338164243272
 20
-81.71644151629494
 30
0.0
 10
-251.7350627311475
 20
-82.21244266583675
 30
0.0
 10
-251.7393106936892
 20
-82.86070215828478
 30
0.0
 10
-251.7411155014488
 20
-83.06046081570815
 30
0.0
 10
-251.7454607333669
 20
-83.41094708721612
 30
0.0
 10
-251.748000853466
 20
-83.56155621974004
 30
0.0
 10
-251.7536746251213
 20
-83.80209496216732
 30
0.0
 10
-251.7568069686167
 20
-83.8919691170128
 30
0.0
 10
-251.7634463971517
 20
-84.00717596320276
 30
0.0
 10
-251.7669517211921
 20
-84.03253958825131
 30
0.0
 10
-251.7776594404935
 20
-84.01832410059117
 30
0.0
 10
-251.7850205058876
 20
-83.8872312719631
 30
0.0
 10
-251.7918280514623
 20
-83.68246264887965
 30
0.0
  0
SPLINE
  5
12A
330
1F
100
AcDbEntity
  8
0
  6
Continuous
 62
     7
370
    15
100
AcDbSpline
210
0.0
220
0.0
230
1.0
 70
     8
 71
     3
 72
     8
 73
     4
 74
     0
 42
0.000000001
 43
0.00000001
 40
0.0
 40
0.0
 40
0.0
 40
0.0
 40
1.0
 40
1.0
 40
1.0
 40
1.0
 10
-251.738050847449
 20
-79.52848053355193
 30
0.0
 10
-251.7352803383501
 20
-80.1040375247436
 30
0.0
 10
-251.7338164243273
 20
-80.68988599452702
 30
0.0
 10
-251.7338164243273
 20
-81.22306796671911
 30
0.0
  0
SPLINE
  5
12B
330
1F
100
AcDbEntity
  8
0
  6
Continuous
 62
     7
370
    15
100
AcDbSpline
210
0.0
220
0.0
230
1.0
 70
     8
 71
     3
 72
    16
 73
    12
 74
     0
 42
0.000000001
 43
0.00000001
 40
0.0
 40
0.0
 40
0.0
 40
0.0
 40
0.1111097996342012
 40
0.2222195813009039
 40
0.3333286337298116
 40
0.4444376962902742
 40
0.5555456604199509
 40
0.6666536583346142
 40
0.7777662956667211
 40
0.8888789756322631
 40
1.0
 40
1.0
 40
1.0
 40
1.0
 10
-251.738050847449
 20
-79.52848053355194
 30
0.0
 10
-251.7417308452245
 20
-78.65718333939539
 30
0.0
 10
-251.7490908401801
 20
-76.91458909197924
 30
0.0
 10
-251.7532968585441
 20
-74.37334744709312
 30
0.0
 10
-251.7521257922266
 20
-71.98149739119594
 30
0.0
 10
-251.7453598254858
 20
-69.7993131338033
 30
0.0
 10
-251.7330896567123
 20
-67.8995838346088
 30
0.0
 10
-251.7158600697538
 20
-66.32090121391964
 30
0.0
 10
-251.6939135391342
 20
-65.13308436096963
 30
0.0
 10
-251.6682585922787
 20
-64.31453108776053
 30
0.0
 10
-251.6485407072573
 20
-64.1394941285663
 30
0.0
 10
-251.6386813945643
 20
-64.05197236283671
 30
0.0
  0
SPLINE
  5
12C
330
1F
100
AcDbEntity
  8
0
  6
Continuous
 62
     7
370
    15
100
AcDbSpline
210
0.0
220
0.0
230
1.0
 70
     8
 71
     3
 72
     9
 73
     5
 74
     0
 42
0.000000001
 43
0.00000001
 40
0.0
 40
0.0
 40
0.0
 40
0.0
 40
0.3450950871091762
 40
1.0
 40
1.0
 40
1.0
 40
1.0
 10
-251.6335104745888
 20
-64.06535687614507
 30
0.0
 10
-251.6248870073011
 20
-64.06079302540758
 30
0.0
 10
-251.5998983371933
 20
-64.04756811752571
 30
0.0
 10
-251.5727658554443
 20
-64.71714984465886
 30
0.0
 10
-251.554996659848
 20
-65.1556622073403
 30
0.0
  0
SPLINE
  5
12D
330
1F
100
AcDbEntity
  8
0
  6
Continuous
 62
     7
370
    15
100
AcDbSpline
210
0.0
220
0.0
230
1.0
 70
     8
 71
     3
 72
    18
 73
    14
 74
     0
 42
0.000000001
 43
0.00000001
 40
0.0
 40
0.0
 40
0.0
 40
0.0
 40
0.2500000000000002
 40
0.2500000000000002
 40
0.3750000000000002
 40
0.3750000000000002
 40
0.5000000000000002
 40
0.5000000000000002
 40
0.6250000000000001
 40
0.6250000000000001
 40
0.75
 40
0.75
 40
1.0
 40
1.0
 40
1.0
 40
1.0
 10
-251.5549966598483
 20
-65.15566220735015
 30
0.0
 10
-251.5365942861794
 20
-65.7011340282476
 30
0.0
 10
-251.517383594908
 20
-66.46000972724443
 30
0.0
 10
-251.4891472392693
 20
-67.90575972392521
 30
0.0
 10
-251.4798385174649
 20
-68.43800154122569
 30
0.0
 10
-251.4617642087842
 20
-69.58980385943491
 30
0.0
 10
-251.4529999210859
 20
-70.20931286461386
 30
0.0
 10
-251.4363312473763
 20
-71.51552589018556
 30
0.0
 10
-251.4284279676629
 20
-72.20214321738078
 30
0.0
 10
-251.4137388493979
 20
-73.61779262235889
 30
0.0
 10
-251.4069536662541
 20
-74.34672302796307
 30
0.0
 10
-251.3885307605966
 20
-76.55734881323127
 30
0.0
 10
-251.3788724021154
 20
-78.06074841458252
 30
0.0
 10
-251.3719424723025
 20
-79.50040062647626
 30
0.0
  0
SPLINE
  5
12E
330
1F
100
AcDbEntity
  8
0
  6
Continuous
 62
     7
370
    15
100
AcDbSpline
210
0.0
220
0.0
230
1.0
 70
     8
 71
     3
 72
    14
 73
    10
 74
     0
 42
0.000000001
 43
0.00000001
 40
0.0
 40
0.0
 40
0.0
 40
0.0
 40
0.25
 40
0.25
 40
0.5
 40
0.5
 40
0.75
 40
0.75
 40
1.0
 40
1.0
 40
1.0
 40
1.0
 10
-251.3181652682961
 20
-83.68349652366001
 30
0.0
 10
-251.323551393878
 20
-83.52813618913302
 30
0.0
 10
-251.3291870844403
 20
-83.30965499350833
 30
0.0
 10
-251.3402477652415
 20
-82.75068032376316
 30
0.0
 10
-251.3456615704709
 20
-82.41025349426214
 30
0.0
 10
-251.35547182142
 20
-81.64715654168597
 30
0.0
 10
-251.359857806331
 20
-81.22530011962715
 30
0.0
 10
-251.3670794254907
 20
-80.36217381979858
 30
0.0
 10
-251.3699141082537
 20
-79.92178134284919
 30
0.0
 10
-251.3719424723022
 20
-79.50040062647624
 30
0.0
  0
SPLINE
  5
132
330
1F
100
AcDbEntity
  8
0
  6
Continuous
 62
     7
370
    15
100
AcDbSpline
210
0.0
220
0.0
230
1.0
 70
     8
 71
     3
 72
    14
 73
    10
 74
     0
 42
0.000000001
 43
0.00000001
 40
0.0
 40
0.0
 40
0.0
 40
0.0
 40
0.25
 40
0.25
 40
0.5
 40
0.5
 40
0.75
 40
0.75
 40
1.0
 40
1.0
 40
1.0
 40
1.0
 10
-251.500180670868
 20
-81.1294346961027
 30
0.0
 10
-251.5001806708679
 20
-81.59551438182699
 30
0.0
 10
-251.5013583395169
 20
-82.06409127161194
 30
0.0
 10
-251.5067108307954
 20
-82.88059621328779
 30
0.0
 10
-251.5109042416253
 20
-83.22488540401775
 30
0.0
 10
-251.5216278123825
 20
-83.67912349460636
 30
0.0
 10
-251.5281207959098
 20
-83.78749764502345
 30
0.0
 10
-251.5416110030127
 20
-83.76914767691812
 30
0.0
 10
-251.5485657420576
 20
-83.64505019855012
 30
0.0
 10
-251.5549966598759
 20
-83.45137677531218
 30
0.0
  0
SPLINE
  5
133
330
1F
100
AcDbEntity
  8
0
  6
Continuous
 62
     7
370
    15
100
AcDbSpline
210
0.0
220
0.0
230
1.0
 70
     8
 71
     3
 72
    14
 73
    10
 74
     0
 42
0.000000001
 43
0.00000001
 40
0.0
 40
0.0
 40
0.0
 40
0.0
 40
0.25
 40
0.25
 40
0.5
 40
0.5
 40
0.75
 40
0.75
 40
1.0
 40
1.0
 40
1.0
 40
1.0
 10
-251.5549966598761
 20
-75.57750438470042
 30
0.0
 10
-251.548565742058
 20
-75.76276764127245
 30
0.0
 10
-251.5416110030128
 20
-76.04847258880207
 30
0.0
 10
-251.5281207959098
 20
-76.82502226550666
 30
0.0
 10
-251.5216278123827
 20
-77.31599026790298
 30
0.0
 10
-251.5109042416254
 20
-78.40210617333976
 30
0.0
 10
-251.5067108307956
 20
-78.99348873734098
 30
0.0
 10
-251.5013583395171
 20
-80.12538493904147
 30
0.0
 10
-251.5001806708682
 20
-80.66335501037852
 30
0.0
 10
-251.5001806708682
 20
-81.12943469610272
 30
0.0
  0
SPLINE
  5
134
330
1F
100
AcDbEntity
  8
0
  6
Continuous
 62
     7
370
    15
100
AcDbSpline
210
0.0
220
0.0
230
1.0
 70
     8
 71
     3
 72
    22
 73
    18
 74
     0
 42
0.000000001
 43
0.00000001
 40
0.0
 40
0.0
 40
0.0
 40
0.0
 40
0.125
 40
0.125
 40
0.25
 40
0.25
 40
0.375
 40
0.375
 40
0.5
 40
0.5
 40
0.625
 40
0.625
 40
0.75
 40
0.75
 40
0.875
 40
0.875
 40
1.0
 40
1.0
 40
1.0
 40
1.0
 10
-251.5549966598763
 20
-83.45137677531255
 30
0.0
 10
-251.5614275776945
 20
-83.26611351873683
 30
0.0
 10
-251.5683823167396
 20
-82.98040857120463
 30
0.0
 10
-251.5818725238422
 20
-82.20385889449851
 30
0.0
 10
-251.5883655073694
 20
-81.71289089210343
 30
0.0
 10
-251.5990890781265
 20
-80.62677498667172
 30
0.0
 10
-251.6032824889563
 20
-80.03539242267424
 30
0.0
 10
-251.6086349802349
 20
-78.90349622098086
 30
0.0
 10
-251.6098126488837
 20
-78.36552614964701
 30
0.0
 10
-251.6098126488835
 20
-77.43336677820308
 30
0.0
 10
-251.6086349802348
 20
-76.96478988842074
 30
0.0
 10
-251.6032824889563
 20
-76.14828494674845
 30
0.0
 10
-251.5990890781264
 20
-75.80399575601939
 30
0.0
 10
-251.5883655073695
 20
-75.34975766542867
 30
0.0
 10
-251.5818725238423
 20
-75.2413835150086
 30
0.0
 10
-251.5683823167395
 20
-75.25973348310526
 30
0.0
 10
-251.5614275776946
 20
-75.38383096146761
 30
0.0
 10
-251.5549966598763
 20
-75.57750438470006
 30
0.0
  0
SPLINE
  5
137
330
1F
100
AcDbEntity
  8
0
  6
Continuous
 62
     7
370
    15
100
AcDbSpline
210
0.0
220
0.0
230
1.0
 70
     8
 71
     3
 72
     8
 73
     4
 74
     0
 42
0.000000001
 43
0.00000001
 40
0.0
 40
0.0
 40
0.0
 40
0.0
 40
0.0001607224325098
 40
0.0001607224325098
 40
0.0001607224325098
 40
0.0001607224325098
 10
245.1708554991605
 20
-102.2964680181699
 30
0.0
 10
245.2235238809997
 20
-102.3058190945406
 30
0.0
 10
245.2762285263612
 20
-102.3149903548602
 30
0.0
 10
245.3289650038946
 20
-102.3239939170016
 30
0.0
  0
SPLINE
  5
13F
330
1F
100
AcDbEntity
  8
0
  6
Continuous
 62
     7
370
    15
100
AcDbSpline
210
0.0
220
0.0
230
1.0
 70
     8
 71
     3
 72
     8
 73
     4
 74
     0
 42
0.000000001
 43
0.00000001
 40
0.0
 40
0.0
 40
0.0
 40
0.0
 40
0.0001607117482023
 40
0.0001607117482023
 40
0.0001607117482023
 40
0.0001607117482023
 10
-245.3289544865786
 20
-102.3239921214033
 30
0.0
 10
-245.2762215190772
 20
-102.3149891354903
 30
0.0
 10
-245.2235203797755
 20
-102.3058184729093
 30
0.0
 10
-245.17085549916
 20
-102.2964680181679
 30
0.0
  0
SPLINE
  5
148
330
1F
100
AcDbEntity
  8
0
  6
Continuous
 62
     7
370
    15
100
AcDbSpline
210
0.0
220
0.0
230
1.0
 70
     8
 71
     3
 72
    18
 73
    14
 74
     0
 42
0.000000001
 43
0.00000001
 40
0.0
 40
0.0
 40
0.0
 40
0.0
 40
0.2500000000000061
 40
0.2500000000000061
 40
0.5000000000000122
 40
0.5000000000000122
 40
0.6250000000000091
 40
0.6250000000000091
 40
0.7500000000000061
 40
0.7500000000000061
 40
0.875000000000003
 40
0.875000000000003
 40
1.0
 40
1.0
 40
1.0
 40
1.0
 10
242.0010000000001
 20
-103.0901816951057
 30
0.0
 10
242.4012488689175
 20
-102.9554983419434
 30
0.0
 10
242.7907104874357
 20
-102.8244789235336
 30
0.0
 10
243.5435751215101
 20
-102.5557783823195
 30
0.0
 10
243.8902335241043
 20
-102.4240732615748
 30
0.0
 10
244.355068375605
 20
-102.2230115058428
 30
0.0
 10
244.4994710169383
 20
-102.1558721101897
 30
0.0
 10
244.7601554602543
 20
-102.0229987377477
 30
0.0
 10
244.8776332635196
 20
-101.9567743841035
 30
0.0
 10
245.0859804703875
 20
-101.823009042207
 30
0.0
 10
245.1763013877097
 20
-101.7556205298746
 30
0.0
 10
245.323750853394
 20
-101.6221859424209
 30
0.0
 10
245.3818006330799
 20
-101.5555960228214
 30
0.0
 10
245.423643283142
 20
-101.4882572046105
 30
0.0
  0
SPLINE
  5
149
330
1F
100
AcDbEntity
  8
0
  6
Continuous
 62
     7
370
    15
100
AcDbSpline
210
0.0
220
0.0
230
1.0
 70
     8
 71
     3
 72
   194
 73
   190
 74
     0
 42
0.000000001
 43
0.00000001
 40
0.0
 40
0.0
 40
0.0
 40
0.0
 40
0.000096457943347
 40
0.000096457943347
 40
0.000096457943347
 40
0.0001929158865834
 40
0.0001929158865834
 40
0.0001929158865834
 40
0.0002893738298334
 40
0.0002893738298334
 40
0.0002893738298334
 40
0.0003858317731682
 40
0.0003858317731682
 40
0.0003858317731682
 40
0.0004822897166155
 40
0.0004822897166155
 40
0.0004822897166155
 40
0.0005787476601697
 40
0.0005787476601697
 40
0.0005787476601697
 40
0.0006752056038013
 40
0.0006752056038013
 40
0.0006752056038013
 40
0.0007716635474658
 40
0.0007716635474658
 40
0.0007716635474658
 40
0.000868121491113
 40
0.000868121491113
 40
0.000868121491113
 40
0.0009645794346961
 40
0.0009645794346961
 40
0.0009645794346961
 40
0.0010610373781801
 40
0.0010610373781801
 40
0.0010610373781801
 40
0.0011574953215519
 40
0.0011574953215519
 40
0.0011574953215519
 40
0.0012539532648289
 40
0.0012539532648289
 40
0.0012539532648289
 40
0.0013504112080688
 40
0.0013504112080688
 40
0.0013504112080688
 40
0.00144686915138
 40
0.00144686915138
 40
0.00144686915138
 40
0.0014950925805426
 40
0.0014950925805426
 40
0.0014950925805426
 40
0.0015915505238049
 40
0.0015915505238049
 40
0.0015915505238049
 40
0.0016880084670232
 40
0.0016880084670232
 40
0.0016880084670232
 40
0.0017844664102961
 40
0.0017844664102961
 40
0.0017844664102961
 40
0.001880924353673
 40
0.001880924353673
 40
0.001880924353673
 40
0.0019773822971642
 40
0.0019773822971642
 40
0.0019773822971642
 40
0.0020738402407508
 40
0.0020738402407508
 40
0.0020738402407508
 40
0.0021702981843944
 40
0.0021702981843944
 40
0.0021702981843944
 40
0.0022185216135647
 40
0.0022185216135647
 40
0.0022185216135647
 40
0.0023149795572
 40
0.0023149795572
 40
0.0023149795572
 40
0.0024114375007696
 40
0.0024114375007696
 40
0.0024114375007696
 40
0.0025078954442382
 40
0.0025078954442382
 40
0.0025078954442382
 40
0.0026043533875918
 40
0.0026043533875918
 40
0.0026043533875918
 40
0.0027008113308479
 40
0.0027008113308479
 40
0.0027008113308479
 40
0.0027972692740647
 40
0.0027972692740647
 40
0.0027972692740647
 40
0.0028937272173518
 40
0.0028937272173518
 40
0.0028937272173518
 40
0.0029901851606873
 40
0.0029901851606873
 40
0.0029901851606873
 40
0.0030384085898361
 40
0.0030384085898361
 40
0.0030384085898361
 40
0.0031348665330476
 40
0.0031348665330476
 40
0.0031348665330476
 40
0.0032313244763112
 40
0.0032313244763112
 40
0.0032313244763112
 40
0.0033277824196779
 40
0.0033277824196779
 40
0.0033277824196779
 40
0.003424240363159
 40
0.003424240363159
 40
0.003424240363159
 40
0.0035206983067367
 40
0.0035206983067367
 40
0.0035206983067367
 40
0.0036171562503728
 40
0.0036171562503728
 40
0.0036171562503728
 40
0.0037136141940184
 40
0.0037136141940184
 40
0.0037136141940184
 40
0.0037618376231832
 40
0.0037618376231832
 40
0.0037618376231832
 40
0.0038582955667458
 40
0.0038582955667458
 40
0.0038582955667458
 40
0.0039547535102082
 40
0.0039547535102082
 40
0.0039547535102082
 40
0.0040512114535557
 40
0.0040512114535557
 40
0.0040512114535557
 40
0.0041476693968045
 40
0.0041476693968045
 40
0.0041476693968045
 40
0.0042441273400112
 40
0.0042441273400112
 40
0.0042441273400112
 40
0.0043405852832836
 40
0.0043405852832836
 40
0.0043405852832836
 40
0.0044370432266129
 40
0.0044370432266129
 40
0.0044370432266129
 40
0.0044852666557571
 40
0.0044852666557571
 40
0.0044852666557571
 40
0.004581724598966
 40
0.004581724598966
 40
0.004581724598966
 40
0.0046781825422246
 40
0.0046781825422246
 40
0.0046781825422246
 40
0.0047746404855835
 40
0.0047746404855835
 40
0.0047746404855835
 40
0.0048710984290543
 40
0.0048710984290543
 40
0.0048710984290543
 40
0.0049675563726196
 40
0.0049675563726196
 40
0.0049675563726196
 40
0.0050640143162421
 40
0.0050640143162421
 40
0.0050640143162421
 40
0.0051604722598735
 40
0.0051604722598735
 40
0.0051604722598735
 40
0.0052086956890332
 40
0.0052086956890332
 40
0.0052086956890332
 40
0.0053051536325823
 40
0.0053051536325823
 40
0.0053051536325823
 40
0.0054016115760323
 40
0.0054016115760323
 40
0.0054016115760323
 40
0.0054980695193682
 40
0.0054980695193682
 40
0.0054980695193682
 40
0.0055945274626059
 40
0.0055945274626059
 40
0.0055945274626059
 40
0.0056975007042782
 40
0.0056975007042782
 40
0.0056975007042782
 40
0.0058005459654805
 40
0.0058005459654805
 40
0.0058005459654805
 40
0.0058005459654805
 10
245.5010000000001
 20
-38.24018169510565
 30
0.0
 10
245.5010000000001
 20
-38.22992735331924
 30
0.0
 10
245.5006019480872
 20
-38.21967198980525
 30
0.0
 10
245.4998060444233
 20
-38.20941733591621
 30
0.0
 10
245.4990101407599
 20
-38.1991626820349
 30
0.0
 10
245.4978162632653
 20
-38.18890716598378
 30
0.0
 10
245.4962250012783
 20
-38.17865246497994
 30
0.0
 10
245.4946337392912
 20
-38.16839776397564
 30
0.0
 10
245.4926448489151
 20
-38.15814230620478
 30
0.0
 10
245.4902593103712
 20
-38.14788772265379
 30
0.0
 10
245.4878737718261
 20
-38.13763313909761
 30
0.0
 10
245.4850912195659
 20
-38.12737785794516
 30
0.0
 10
245.4819130257108
 20
-38.11712347204993
 30
0.0
 10
245.4787348318535
 20
-38.10686908614756
 30
0.0
 10
245.4751605094498
 20
-38.09661402369355
 30
0.0
 10
245.4711918228293
 20
-38.08635984765596
 30
0.0
 10
245.4672231362062
 20
-38.07610567161147
 30
0.0
 10
245.4628594773403
 20
-38.06585081018544
 30
0.0
 10
245.4581030023627
 20
-38.05559680482011
 30
0.0
 10
245.4533465273826
 20
-38.04534279944967
 30
0.0
 10
245.4481965076044
 20
-38.03508807835193
 30
0.0
 10
245.4426554898305
 20
-38.02483416988051
 30
0.0
 10
245.4371144720553
 20
-38.01458026140678
 30
0.0
 10
245.4311816074353
 20
-38.0043255937773
 30
0.0
 10
245.4248598315936
 20
-37.99407169074099
 30
0.0
 10
245.4185380557523
 20
-37.98381778770558
 30
0.0
 10
245.4118264002595
 20
-37.97356307748151
 30
0.0
 10
245.4047281869918
 20
-37.96330908771384
 30
0.0
 10
245.3976299737269
 20
-37.95305509795008
 30
0.0
 10
245.3901441153422
 20
-37.94280025685548
 30
0.0
 10
245.3822743166978
 20
-37.93254610446022
 30
0.0
 10
245.3744045180582
 20
-37.92229195207115
 30
0.0
 10
245.3661495736455
 20
-37.91203691658454
 30
0.0
 10
245.3575135673472
 20
-37.90178255886342
 30
0.0
 10
245.348877561055
 20
-37.89152820114945
 30
0.0
 10
245.3398591700216
 20
-37.88127294939319
 30
0.0
 10
245.330462852541
 20
-37.87101839366592
 30
0.0
 10
245.321066535066
 20
-37.86076383794484
 30
0.0
 10
245.3112908518488
 20
-37.85050840643726
 30
0.0
 10
245.3011406303349
 20
-37.84025372669193
 30
0.0
 10
245.2909904088237
 20
-37.8299990469493
 30
0.0
 10
245.2804640942565
 20
-37.81974354715471
 30
0.0
 10
245.2695668773747
 20
-37.80948890045966
 30
0.0
 10
245.2586696604886
 20
-37.79923425376062
 30
0.0
 10
245.2473998721092
 20
-37.78897888836445
 30
0.0
 10
245.2357630598577
 20
-37.77872453096412
 30
0.0
 10
245.2299449880673
 20
-37.77359764688021
 30
0.0
 10
245.2240348585928
 20
-37.76847063358681
 30
0.0
 10
245.2180334052273
 20
-37.7633436647169
 30
0.0
 10
245.2060298087509
 20
-37.75308913773594
 30
0.0
 10
245.1936594442937
 20
-37.7428336712772
 30
0.0
 10
245.180928410021
 20
-37.73257897134932
 30
0.0
 10
245.1681973757524
 20
-37.7223242714248
 30
0.0
 10
245.155103721298
 20
-37.71206876621461
 30
0.0
 10
245.1416539060271
 20
-37.70181411059607
 30
0.0
 10
245.1282040907521
 20
-37.69155945497436
 30
0.0
 10
245.114396054207
 20
-37.68130407711811
 30
0.0
 10
245.1002366133407
 20
-37.67104958892784
 30
0.0
 10
245.0860771724653
 20
-37.66079510073108
 30
0.0
 10
245.0715641581218
 20
-37.65053993037772
 30
0.0
 10
245.0567047404921
 20
-37.64028565511317
 30
0.0
 10
245.0418453228518
 20
-37.63003137984132
 30
0.0
 10
245.0266372255564
 20
-37.61977642784579
 30
0.0
 10
245.0110879669661
 20
-37.60952235016521
 30
0.0
 10
244.9955387083663
 20
-37.5992682724784
 30
0.0
 10
244.979645906432
 20
-37.58901349730531
 30
0.0
 10
244.9634174219548
 20
-37.57875955801744
 30
0.0
 10
244.9471889374715
 20
-37.56850561872575
 30
0.0
 10
244.9306222843644
 20
-37.55825094352653
 30
0.0
 10
244.9137256594423
 20
-37.5479970567232
 30
0.0
 10
244.9052778324506
 20
-37.54287040793352
 30
0.0
 10
244.896747046596
 20
-37.53774366157418
 30
0.0
 10
244.8881343572
 20
-37.5326170079781
 30
0.0
 10
244.8709079885212
 20
-37.52236311156155
 30
0.0
 10
244.8533519495845
 20
-37.5121084073052
 30
0.0
 10
244.8354749277907
 20
-37.50185442209043
 30
0.0
 10
244.8175979060039
 20
-37.49160043687967
 30
0.0
 10
244.7993971627963
 20
-37.48134559891488
 30
0.0
 10
244.7808817028158
 20
-37.47109144757478
 30
0.0
 10
244.7623662428468
 20
-37.46083729624102
 30
0.0
 10
244.7435332297758
 20
-37.45058225972637
 30
0.0
 10
244.7243919769894
 20
-37.44032789848591
 30
0.0
 10
244.7052507242166
 20
-37.43007353725278
 30
0.0
 10
244.6857982995749
 20
-37.41981827947692
 30
0.0
 10
244.6660443161716
 20
-37.40956371519707
 30
0.0
 10
244.6462903327805
 20
-37.3993091509236
 30
0.0
 10
244.6262317646482
 20
-37.38905370832099
 30
0.0
 10
244.6058785151241
 20
-37.37879901541403
 30
0.0
 10
244.5855252656055
 20
-37.3685443225099
 30
0.0
 10
244.5648742169397
 20
-37.35828880747712
 30
0.0
 10
244.543935552833
 20
-37.34803414458666
 30
0.0
 10
244.5229968887184
 20
-37.33777948169229
 30
0.0
 10
244.5017674017273
 20
-37.32752409913304
 30
0.0
 10
244.4802575456914
 20
-37.31726972550202
 30
0.0
 10
244.4587476896466
 20
-37.30701535186669
 30
0.0
 10
244.4369542517576
 20
-37.29676006765697
 30
0.0
 10
244.4148880109587
 20
-37.28650542639167
 30
0.0
 10
244.4038555245474
 20
-37.28137840038649
 30
0.0
 10
244.3927542163339
 20
-37.2762512542883
 30
0.0
 10
244.3815854544545
 20
-37.27112419981673
 30
0.0
 10
244.3592466470751
 20
-37.26086950162362
 30
0.0
 10
244.336635394474
 20
-37.25061399447063
 30
0.0
 10
244.3137628514165
 20
-37.24035933483943
 30
0.0
 10
244.2908903083524
 20
-37.23010467520525
 30
0.0
 10
244.2677529709665
 20
-37.21984929126675
 30
0.0
 10
244.2443622635747
 20
-37.2095947962489
 30
0.0
 10
244.2209715561682
 20
-37.19934030122461
 30
0.0
 10
244.1973238955154
 20
-37.18908512329812
 30
0.0
 10
244.1734309667687
 20
-37.17883084075417
 30
0.0
 10
244.1495380380049
 20
-37.16857655820291
 30
0.0
 10
244.1253961809633
 20
-37.15832159922133
 30
0.0
 10
244.1010173323274
 20
-37.14806751559872
 30
0.0
 10
244.0766384836766
 20
-37.13781343196982
 30
0.0
 10
244.0520189087995
 20
-37.12755865189829
 30
0.0
 10
244.0271707860558
 20
-37.11730470921503
 30
0.0
 10
244.0023226633027
 20
-37.10705076652784
 30
0.0
 10
243.9772421861585
 20
-37.09679608943595
 30
0.0
 10
243.9519417642965
 20
-37.08654220240935
 30
0.0
 10
243.9266413424326
 20
-37.07628831538192
 30
0.0
 10
243.9011171000452
 20
-37.06603364663033
 30
0.0
 10
243.8753816672998
 20
-37.05577971989185
 30
0.0
 10
243.8625146903523
 20
-37.05065305113636
 30
0.0
 10
243.8495941890714
 20
-37.04552627334702
 30
0.0
 10
243.8366217616681
 20
-37.04039957756765
 30
0.0
 10
243.8106754159032
 20
-37.03014559678304
 30
0.0
 10
243.7845183359365
 20
-37.01989076461412
 30
0.0
 10
243.7581634614897
 20
-37.00963661987386
 30
0.0
 10
243.7318085870589
 20
-36.99938247513986
 30
0.0
 10
243.7052518808807
 20
-36.98912744602938
 30
0.0
 10
243.6785064744361
 20
-36.97887309214128
 30
0.0
 10
243.6517610680106
 20
-36.9686187382605
 30
0.0
 10
243.6248228642674
 20
-36.95836348778555
 30
0.0
 10
243.5977051744265
 20
-36.94810892961154
 30
0.0
 10
243.5705874846026
 20
-36.93785437144395
 30
0.0
 10
243.5432861546376
 20
-36.92759893375231
 30
0.0
 10
243.5158146632593
 20
-36.91734424313435
 30
0.0
 10
243.488343171889
 20
-36.9070895525194
 30
0.0
 10
243.4606973108841
 20
-36.89683403715355
 30
0.0
 10
243.4328907141027
 20
-36.88657936960293
 30
0.0
 10
243.4050841173114
 20
-36.87632470204868
 30
0.0
 10
243.3771125251747
 20
-36.86606931050153
 30
0.0
 10
243.3489897142266
 20
-36.85581492157876
 30
0.0
 10
243.3208669032656
 20
-36.84556053265133
 30
0.0
 10
243.2925886539308
 20
-36.83530528871658
 30
0.0
 10
243.2641689752724
 20
-36.82505066386265
 30
0.0
 10
243.2499599524726
 20
-36.81992364606264
 30
0.0
 10
243.2357147583417
 20
-36.8147965079937
 30
0.0
 10
243.2214351484303
 20
-36.80966946120022
 30
0.0
 10
243.1928742874578
 20
-36.79941477836385
 30
0.0
 10
243.1641724485904
 20
-36.78915928512328
 30
0.0
 10
243.1353437918096
 20
-36.77890463709078
 30
0.0
 10
243.1065151350209
 20
-36.76864998905543
 30
0.0
 10
243.0775552440914
 20
-36.75839461441201
 30
0.0
 10
243.0484784194902
 20
-36.7481401261102
 30
0.0
 10
243.0194015948713
 20
-36.73788563780214
 30
0.0
 10
242.9902033823276
 20
-36.72763046402228
 30
0.0
 10
242.9608982110764
 20
-36.71737618324001
 30
0.0
 10
242.9315930398048
 20
-36.7071219024506
 30
0.0
 10
242.9021764205698
 20
-36.69686694285485
 30
0.0
 10
242.8726628992175
 20
-36.68661285675396
 30
0.0
 10
242.8431493778476
 20
-36.67635877064691
 30
0.0
 10
242.8135344331634
 20
-36.66610398624169
 30
0.0
 10
242.7838327151973
 20
-36.65585003807665
 30
0.0
 10
242.7541309972201
 20
-36.64559608990778
 30
0.0
 10
242.7243379559176
 20
-36.63534140619445
 30
0.0
 10
242.6944683328009
 20
-36.62508751217857
 30
0.0
 10
242.6645987096818
 20
-36.61483361816191
 30
0.0
 10
242.6346479289799
 20
-36.60457894206146
 30
0.0
 10
242.6046308107707
 20
-36.5943250083193
 30
0.0
 10
242.5896231141116
 20
-36.58919833606205
 30
0.0
 10
242.5745979748733
 20
-36.58407155485526
 30
0.0
 10
242.5595572514973
 20
-36.57894485581397
 30
0.0
 10
242.5294740760724
 20
-36.56869086850534
 30
0.0
 10
242.4993250931579
 20
-36.55843603045592
 30
0.0
 10
242.4691252161562
 20
-36.5481818808337
 30
0.0
 10
242.4389253391727
 20
-36.53792773121769
 30
0.0
 10
242.4086699417944
 20
-36.52767269823239
 30
0.0
 10
242.3783739831949
 20
-36.51741834142958
 30
0.0
 10
242.3480780246168
 20
-36.50716398463401
 30
0.0
 10
242.3177368638269
 20
-36.49690873221345
 30
0.0
 10
242.28736549261
 20
-36.48665417247533
 30
0.0
 10
242.2569941214121
 20
-36.47639961274361
 30
0.0
 10
242.2265878872753
 20
-36.4661441738788
 30
0.0
 10
242.1961618015074
 20
-36.45588948120902
 30
0.0
 10
242.1636809185464
 20
-36.44494224747845
 30
0.0
 10
242.1311719207722
 20
-36.43399401170826
 30
0.0
 10
242.0986530789045
 20
-36.42304680825597
 30
0.0
 10
242.066111497334
 20
-36.41209194966786
 30
0.0
 10
242.0335543710575
 20
-36.40113620914579
 30
0.0
 10
242.0010000000001
 20
-36.39018169510569
 30
0.0
  0
SPLINE
  5
14A
330
1F
100
AcDbEntity
  8
0
  6
Continuous
 62
     7
370
    15
100
AcDbSpline
210
0.0
220
0.0
230
1.0
 70
     8
 71
     3
 72
    22
 73
    18
 74
     0
 42
0.000000001
 43
0.00000001
 40
0.0
 40
0.0
 40
0.0
 40
0.0
 40
0.125
 40
0.125
 40
0.25
 40
0.25
 40
0.375
 40
0.375
 40
0.5
 40
0.5
 40
0.625
 40
0.625
 40
0.75
 40
0.75
 40
0.875
 40
0.875
 40
1.0
 40
1.0
 40
1.0
 40
1.0
 10
-242.0010000000001
 20
-36.39018169510551
 30
0.0
 10
-242.2321010626998
 20
-36.46794697681127
 30
0.0
 10
-242.4595390744173
 20
-36.5444915856305
 30
0.0
 10
-242.9065181252398
 20
-36.69783181531422
 30
0.0
 10
-243.1278769304089
 20
-36.77527989843345
 30
0.0
 10
-243.5526477306304
 20
-36.92998902543406
 30
0.0
 10
-243.7537884368031
 20
-37.00638521113466
 30
0.0
 10
-244.1333151101321
 20
-37.15990508473803
 30
0.0
 10
-244.3133129952648
 20
-37.2378415214046
 30
0.0
 10
-244.6371830828689
 20
-37.39192643050023
 30
0.0
 10
-244.7818771980272
 20
-37.46826217244183
 30
0.0
 10
-245.036351359719
 20
-37.62214495584666
 30
0.0
 10
-245.146294087567
 20
-37.70016195556209
 30
0.0
 10
-245.32128002287
 20
-37.85381080685876
 30
0.0
 10
-245.3877866620503
 20
-37.93017240548345
 30
0.0
 10
-245.4779149408674
 20
-38.08460423727547
 30
0.0
 10
-245.5010000000001
 20
-38.16241640959117
 30
0.0
 10
-245.5010000000001
 20
-38.24018169510543
 30
0.0
  0
SPLINE
  5
14B
330
1F
100
AcDbEntity
  8
0
  6
Continuous
 62
     7
370
    15
100
AcDbSpline
210
0.0
220
0.0
230
1.0
 70
     8
 71
     3
 72
   170
 73
   166
 74
     0
 42
0.000000001
 43
0.00000001
 40
0.0000000000004758
 40
0.0000000000004758
 40
0.0000000000004758
 40
0.0000000000004758
 40
0.000096457943519
 40
0.000096457943519
 40
0.000096457943519
 40
0.0001929158869711
 40
0.0001929158869711
 40
0.0001929158869711
 40
0.0002893738303227
 40
0.0002893738303227
 40
0.0002893738303227
 40
0.0003858317735621
 40
0.0003858317735621
 40
0.0003858317735621
 40
0.000482289716709
 40
0.000482289716709
 40
0.000482289716709
 40
0.0005787476598243
 40
0.0005787476598243
 40
0.0005787476598243
 40
0.0006269710889229
 40
0.0006269710889229
 40
0.0006269710889229
 40
0.0007234290321664
 40
0.0007234290321664
 40
0.0007234290321664
 40
0.0008198869753201
 40
0.0008198869753201
 40
0.0008198869753201
 40
0.0009163449184378
 40
0.0009163449184378
 40
0.0009163449184378
 40
0.0010128028616147
 40
0.0010128028616147
 40
0.0010128028616147
 40
0.0011092608048972
 40
0.0011092608048972
 40
0.0011092608048972
 40
0.0012057187482936
 40
0.0012057187482936
 40
0.0012057187482936
 40
0.0013021766917835
 40
0.0013021766917835
 40
0.0013021766917835
 40
0.001350400120903
 40
0.001350400120903
 40
0.001350400120903
 40
0.0014468580644584
 40
0.0014468580644584
 40
0.0014468580644584
 40
0.0015433160079928
 40
0.0015433160079928
 40
0.0015433160079928
 40
0.0016397739514587
 40
0.0016397739514587
 40
0.0016397739514587
 40
0.001736231894822
 40
0.001736231894822
 40
0.001736231894822
 40
0.0018326898380704
 40
0.0018326898380704
 40
0.0018326898380704
 40
0.0019291477812237
 40
0.0019291477812237
 40
0.0019291477812237
 40
0.0020256057243431
 40
0.0020256057243431
 40
0.0020256057243431
 40
0.0021220636675416
 40
0.0021220636675416
 40
0.0021220636675416
 40
0.002170287096647
 40
0.002170287096647
 40
0.002170287096647
 40
0.0022667450397909
 40
0.0022667450397909
 40
0.0022667450397909
 40
0.0023632029828947
 40
0.0023632029828947
 40
0.0023632029828947
 40
0.0024596609260551
 40
0.0024596609260551
 40
0.0024596609260551
 40
0.0025561188693204
 40
0.0025561188693204
 40
0.0025561188693204
 40
0.0026525768126998
 40
0.0026525768126998
 40
0.0026525768126998
 40
0.0027490347561738
 40
0.0027490347561738
 40
0.0027490347561738
 40
0.0028454926997033
 40
0.0028454926997033
 40
0.0028454926997033
 40
0.0028937161288161
 40
0.0028937161288161
 40
0.0028937161288161
 40
0.0029901740723349
 40
0.0029901740723349
 40
0.0029901740723349
 40
0.0030866320157867
 40
0.0030866320157867
 40
0.0030866320157867
 40
0.0031830899591367
 40
0.0031830899591367
 40
0.0031830899591367
 40
0.0032795479023719
 40
0.0032795479023719
 40
0.0032795479023719
 40
0.0033760058455106
 40
0.0033760058455106
 40
0.0033760058455106
 40
0.0034724637886125
 40
0.0034724637886125
 40
0.0034724637886125
 40
0.0035689217317888
 40
0.0035689217317888
 40
0.0035689217317888
 40
0.0036171451608867
 40
0.0036171451608867
 40
0.0036171451608867
 40
0.0037136031040248
 40
0.0037136031040248
 40
0.0037136031040248
 40
0.0038100610471215
 40
0.0038100610471215
 40
0.0038100610471215
 40
0.0039065189902724
 40
0.0039065189902724
 40
0.0039065189902724
 40
0.0040029769335253
 40
0.0040029769335253
 40
0.0040029769335253
 40
0.0040994348768899
 40
0.0040994348768899
 40
0.0040994348768899
 40
0.0041958928203471
 40
0.0041958928203471
 40
0.0041958928203471
 40
0.0042923507638585
 40
0.0042923507638585
 40
0.0042923507638585
 40
0.0043405741929638
 40
0.0043405741929638
 40
0.0043405741929638
 40
0.0044370321364642
 40
0.0044370321364642
 40
0.0044370321364642
 40
0.0045334900798984
 40
0.0045334900798984
 40
0.0045334900798984
 40
0.0046299480232316
 40
0.0046299480232316
 40
0.0046299480232316
 40
0.0047264059664509
 40
0.0047264059664509
 40
0.0047264059664509
 40
0.0048228639095741
 40
0.0048228639095741
 40
0.0048228639095741
 40
0.004922763253126
 40
0.004922763253126
 40
0.004922763253126
 40
0.0050227283525115
 40
0.0050227283525115
 40
0.0050227283525115
 40
0.0050227283525115
 10
-245.4236451948279
 20
-101.4882541280494
 30
0.0
 10
-245.4172737531285
 20
-101.4985080339506
 30
0.0
 10
-245.4105125663651
 20
-101.5087627500624
 30
0.0
 10
-245.4033649809511
 20
-101.5190167482031
 30
0.0
 10
-245.3962173955399
 20
-101.5292707463397
 30
0.0
 10
-245.3886823165717
 20
-101.539525598293
 30
0.0
 10
-245.3807634732113
 20
-101.5497797629552
 30
0.0
 10
-245.3728446298556
 20
-101.5600339276112
 30
0.0
 10
-245.3645408090833
 20
-101.5702889767738
 30
0.0
 10
-245.3558561188108
 20
-101.5805433479659
 30
0.0
 10
-245.3471714285444
 20
-101.5907977191509
 30
0.0
 10
-245.3381045384667
 20
-101.6010529841738
 30
0.0
 10
-245.3286599305843
 20
-101.6113075508181
 30
0.0
 10
-245.3192153227075
 20
-101.6215621174564
 30
0.0
 10
-245.3093915503353
 20
-101.6318175575319
 30
0.0
 10
-245.2991934642699
 20
-101.6420722408276
 30
0.0
 10
-245.2889953782069
 20
-101.6523269241209
 30
0.0
 10
-245.2784214163605
 20
-101.6625824224481
 30
0.0
 10
-245.2674767924356
 20
-101.672837059477
 30
0.0
 10
-245.2620047949202
 20
-101.6779640833681
 30
0.0
 10
-245.2564398391276
 20
-101.683091185759
 30
0.0
 10
-245.2507826101372
 20
-101.6882181521987
 30
0.0
 10
-245.2394675019657
 20
-101.6984726743254
 30
0.0
 10
-245.2277819000977
 20
-101.708727728569
 30
0.0
 10
-245.2157316494222
 20
-101.7189822751184
 30
0.0
 10
-245.2036813987524
 20
-101.7292368216629
 30
0.0
 10
-245.1912646371688
 20
-101.7394922974427
 30
0.0
 10
-245.1784874859732
 20
-101.749746999951
 30
0.0
 10
-245.165710334781
 20
-101.7600017024564
 30
0.0
 10
-245.1525708365442
 20
-101.7702572035078
 30
0.0
 10
-245.1390754735587
 20
-101.780511851215
 30
0.0
 10
-245.1255801105687
 20
-101.7907664989256
 30
0.0
 10
-245.1117268154003
 20
-101.8010218651183
 30
0.0
 10
-245.0975224276735
 20
-101.8112763403533
 30
0.0
 10
-245.0833180399376
 20
-101.8215308155949
 30
0.0
 10
-245.0687603836114
 20
-101.8317859717009
 30
0.0
 10
-245.0538566512469
 20
-101.8420402333511
 30
0.0
 10
-245.0389529188718
 20
-101.8522944950086
 30
0.0
 10
-245.0237008273012
 20
-101.8625494340221
 30
0.0
 10
-245.0081079169186
 20
-101.8728035007357
 30
0.0
 10
-244.9925150065267
 20
-101.8830575674554
 30
0.0
 10
-244.9765788885966
 20
-101.8933123336759
 30
0.0
 10
-244.9603074455542
 20
-101.9035662668613
 30
0.0
 10
-244.9521721915371
 20
-101.9086929388423
 30
0.0
 10
-244.9439526586204
 20
-101.9138196973617
 30
0.0
 10
-244.9356498634485
 20
-101.9189463518148
 30
0.0
 10
-244.9190433188332
 20
-101.9292002499467
 30
0.0
 10
-244.902101738941
 20
-101.9394549101942
 30
0.0
 10
-244.8848335069413
 20
-101.9497088095635
 30
0.0
 10
-244.8675652749435
 20
-101.9599627089317
 30
0.0
 10
-244.8499677455076
 20
-101.9702174192118
 30
0.0
 10
-244.8320496265159
 20
-101.9804714129824
 30
0.0
 10
-244.8141315075315
 20
-101.9907254067488
 30
0.0
 10
-244.795890054134
 20
-102.0009802558018
 30
0.0
 10
-244.7773342909268
 20
-102.0112344196737
 30
0.0
 10
-244.7587785277312
 20
-102.0214885835392
 30
0.0
 10
-244.739905612225
 20
-102.03174363403
 30
0.0
 10
-244.7207248771892
 20
-102.0419980090568
 30
0.0
 10
-244.7015441421672
 20
-102.0522523840763
 30
0.0
 10
-244.6820526494164
 20
-102.0625076554495
 30
0.0
 10
-244.6622600308471
 20
-102.0727622309639
 30
0.0
 10
-244.6424674122898
 20
-102.0830168064721
 30
0.0
 10
-244.6223706360182
 20
-102.093272257947
 30
0.0
 10
-244.6019796235655
 20
-102.1035269546586
 30
0.0
 10
-244.5815886111178
 20
-102.1137816513676
 30
0.0
 10
-244.5609002389496
 20
-102.1240371651372
 30
0.0
 10
-244.5399247083083
 20
-102.1342918184698
 30
0.0
 10
-244.5189491776578
 20
-102.1445464718069
 30
0.0
 10
-244.4976832754497
 20
-102.1548018365124
 30
0.0
 10
-244.4761374723937
 20
-102.165056180259
 30
0.0
 10
-244.4653651898946
 20
-102.1701830575165
 30
0.0
 10
-244.4545223571074
 20
-102.1753100891827
 30
0.0
 10
-244.4436103104435
 20
-102.1804370627064
 30
0.0
 10
-244.4217849629978
 20
-102.1906915989951
 30
0.0
 10
-244.3996801849526
 20
-102.2009470699443
 30
0.0
 10
-244.3773068713773
 20
-102.2112017711861
 30
0.0
 10
-244.3549335578088
 20
-102.2214564724247
 30
0.0
 10
-244.3322882812993
 20
-102.2317119757729
 30
0.0
 10
-244.309382214058
 20
-102.2419666277538
 30
0.0
 10
-244.2864761468093
 20
-102.2522212797381
 30
0.0
 10
-244.2633057798285
 20
-102.2624766521812
 30
0.0
 10
-244.2398825543375
 20
-102.2727311343372
 30
0.0
 10
-244.2164593288314
 20
-102.2829856164997
 30
0.0
 10
-244.1927796565931
 20
-102.2932407801973
 30
0.0
 10
-244.1688552391047
 20
-102.3034950490889
 30
0.0
 10
-244.1449308215994
 20
-102.3137493179878
 30
0.0
 10
-244.1207579938355
 20
-102.3240042638928
 30
0.0
 10
-244.0963487082139
 20
-102.3342583364159
 30
0.0
 10
-244.0719394225777
 20
-102.3445124089452
 30
0.0
 10
-244.0472899397885
 20
-102.3547671798936
 30
0.0
 10
-244.0224124532768
 20
-102.3650211162845
 30
0.0
 10
-243.997534966756
 20
-102.3752750526792
 30
0.0
 10
-243.97242566549
 20
-102.385529726309
 30
0.0
 10
-243.9470969735458
 20
-102.3957836130085
 30
0.0
 10
-243.9344333553111
 20
-102.4009102617462
 30
0.0
 10
-243.9217141748597
 20
-102.4060370084159
 30
0.0
 10
-243.9089410056277
 20
-102.4111636626778
 30
0.0
 10
-243.8833931990984
 20
-102.4214175604259
 30
0.0
 10
-243.8576264514161
 20
-102.431672267452
 30
0.0
 10
-243.8316535121225
 20
-102.4419262566264
 30
0.0
 10
-243.8056805728393
 20
-102.4521802457968
 30
0.0
 10
-243.779497463152
 20
-102.4624350889114
 30
0.0
 10
-243.7531171353691
 20
-102.4726892460869
 30
0.0
 10
-243.7267368076025
 20
-102.4829434032561
 30
0.0
 10
-243.7001552205765
 20
-102.493198446292
 30
0.0
 10
-243.6733855175996
 20
-102.5034528139802
 30
0.0
 10
-243.6466158146417
 20
-102.5137071816611
 30
0.0
 10
-243.6196538949624
 20
-102.5239624458114
 30
0.0
 10
-243.5925130808344
 20
-102.5342170153808
 30
0.0
 10
-243.5653722667232
 20
-102.5444715849438
 30
0.0
 10
-243.5380484005794
 20
-102.5547270317511
 30
0.0
 10
-243.510554971398
 20
-102.5649817265175
 30
0.0
 10
-243.4830615422239
 20
-102.5752364212813
 30
0.0
 10
-243.4553943384305
 20
-102.5854919358284
 30
0.0
 10
-243.4275670033501
 20
-102.5957465943836
 30
0.0
 10
-243.3997396682585
 20
-102.6060012529431
 30
0.0
 10
-243.3717479391315
 20
-102.6162566273171
 30
0.0
 10
-243.3436056011818
 20
-102.6265109871713
 30
0.0
 10
-243.3295352407593
 20
-102.6316378724822
 30
0.0
 10
-243.3154264544725
 20
-102.63676488177
 30
0.0
 10
-243.3012809947456
 20
-102.6418918469512
 30
0.0
 10
-243.2729884495573
 20
-102.6521463665547
 30
0.0
 10
-243.2445459045589
 20
-102.6624018207994
 30
0.0
 10
-243.2159673779526
 20
-102.6726565068665
 30
0.0
 10
-243.1873888513552
 20
-102.6829111929305
 30
0.0
 10
-243.1586699652228
 20
-102.6931666826234
 30
0.0
 10
-243.1298248888415
 20
-102.7034213232961
 30
0.0
 10
-243.1009798124514
 20
-102.7136759639719
 30
0.0
 10
-243.0720041270698
 20
-102.7239313274436
 30
0.0
 10
-243.0429121417338
 20
-102.7341858032071
 30
0.0
 10
-243.0138201563798
 20
-102.744440278977
 30
0.0
 10
-242.9846074144945
 20
-102.7546954388515
 30
0.0
 10
-242.9552883531013
 20
-102.7649497062801
 30
0.0
 10
-242.9259692916876
 20
-102.7752039737159
 30
0.0
 10
-242.8965394193806
 20
-102.7854589205089
 30
0.0
 10
-242.8670132890472
 20
-102.7957129957429
 30
0.0
 10
-242.8374871586965
 20
-102.805967070983
 30
0.0
 10
-242.8078602471896
 20
-102.8162218464564
 30
0.0
 10
-242.7781472107765
 20
-102.8264757884713
 30
0.0
 10
-242.7484341743528
 20
-102.8367297304898
 30
0.0
 10
-242.718630461245
 20
-102.846984410834
 30
0.0
 10
-242.6887508183635
 20
-102.8572383045667
 30
0.0
 10
-242.6738118554166
 20
-102.862364956821
 30
0.0
 10
-242.6588530563752
 20
-102.867491707087
 30
0.0
 10
-242.643876271682
 20
-102.8726183649338
 30
0.0
 10
-242.6139209809619
 20
-102.8828722698519
 30
0.0
 10
-242.583890288951
 20
-102.8931269839889
 30
0.0
 10
-242.5537990542659
 20
-102.9033809796066
 30
0.0
 10
-242.5237078195928
 20
-102.9136349752202
 30
0.0
 10
-242.4935514325521
 20
-102.9238898241019
 30
0.0
 10
-242.4633448098598
 20
-102.9341439860351
 30
0.0
 10
-242.433138187186
 20
-102.9443981479619
 30
0.0
 10
-242.4028767015218
 20
-102.9546531947373
 30
0.0
 10
-242.3725753145136
 20
-102.9649075652242
 30
0.0
 10
-242.3422739275268
 20
-102.9751619357038
 30
0.0
 10
-242.3119279973762
 20
-102.985417201703
 30
0.0
 10
-242.2815525174816
 20
-102.9956717727981
 30
0.0
 10
-242.2511770376057
 20
-103.005926343887
 30
0.0
 10
-242.220767354846
 20
-103.0161817918876
 30
0.0
 10
-242.1903384813145
 20
-103.026436488833
 30
0.0
 10
-242.1588241499925
 20
-103.0370569909956
 30
0.0
 10
-242.1272841452303
 20
-103.0476784039106
 30
0.0
 10
-242.0957351500751
 20
-103.0582988673787
 30
0.0
 10
-242.0641653921418
 20
-103.0689263203031
 30
0.0
 10
-242.0325814396377
 20
-103.0795545715372
 30
0.0
 10
-242.0010000000001
 20
-103.0901816951055
 30
0.0
  0
SPLINE
  5
14D
330
1F
100
AcDbEntity
  8
0
  6
Continuous
 62
     7
370
    15
100
AcDbSpline
210
0.0
220
0.0
230
1.0
 70
     8
 71
     3
 72
    10
 73
     6
 74
     0
 42
0.000000001
 43
0.00000001
 40
0.0
 40
0.0
 40
0.0
 40
0.0
 40
0.480953600137016
 40
0.9621214179315749
 40
1.0
 40
1.0
 40
1.0
 40
1.0
 10
-242.0010000000001
 20
-103.2401816951056
 30
0.0
 10
-242.2624740292426
 20
-103.2053123923808
 30
0.0
 10
-242.7855385487627
 20
-103.135558256077
 30
0.0
 10
-243.3080352825021
 20
-102.8406140526276
 30
0.0
 10
-243.4594539569724
 20
-102.5975661547062
 30
0.0
 10
-243.4705040763627
 20
-102.5798291860067
 30
0.0
  0
SPLINE
  5
14F
330
1F
100
AcDbEntity
  8
0
  6
Continuous
 62
     7
370
    15
100
AcDbSpline
210
0.0
220
0.0
230
1.0
 70
     8
 71
     3
 72
    18
 73
    14
 74
     0
 42
0.000000001
 43
0.00000001
 40
0.0
 40
0.0
 40
0.0
 40
0.0
 40
0.2499999999999994
 40
0.2499999999999994
 40
0.3750000000000007
 40
0.3750000000000007
 40
0.5000000000000019
 40
0.5000000000000019
 40
0.625000000000003
 40
0.625000000000003
 40
0.7500000000000043
 40
0.7500000000000043
 40
1.0
 40
1.0
 40
1.0
 40
1.0
 10
-242.0010000000003
 20
-104.7401816951055
 30
0.0
 10
-242.3704579637274
 20
-104.7401816951055
 30
0.0
 10
-242.7307605745052
 20
-104.6828874976508
 30
0.0
 10
-243.2546127664335
 20
-104.5131235623835
 30
0.0
 10
-243.4259171595871
 20
-104.4421980924652
 30
0.0
 10
-243.7511694567309
 20
-104.2766607076088
 30
0.0
 10
-243.9065995521671
 20
-104.1816241108966
 30
0.0
 10
-244.2025538578511
 20
-103.967186232985
 30
0.0
 10
-244.3440315052084
 20
-103.8466629927318
 30
0.0
 10
-244.6032675024662
 20
-103.587892332063
 30
0.0
 10
-244.7217660554968
 20
-103.4494009493671
 30
0.0
 10
-245.0438843453937
 20
-103.0075881082235
 30
0.0
 10
-245.2145583707167
 20
-102.6752917970334
 30
0.0
 10
-245.3289647225264
 20
-102.3239947812143
 30
0.0
  0
SPLINE
  5
150
330
1F
100
AcDbEntity
  8
0
  6
Continuous
 62
     7
370
    15
100
AcDbSpline
210
0.0
220
0.0
230
1.0
 70
     8
 71
     3
 72
    10
 73
     6
 74
     0
 42
0.000000001
 43
0.00000001
 40
0.0
 40
0.0
 40
0.0
 40
0.0
 40
0.480945957101839
 40
0.9621148259481545
 40
1.0
 40
1.0
 40
1.0
 40
1.0
 10
242.0010000000001
 20
-36.24018169510568
 30
0.0
 10
242.2624694297796
 20
-36.27504972503571
 30
0.0
 10
242.7855294767733
 20
-36.34480194574141
 30
0.0
 10
243.3080260369335
 20
-36.63974234016164
 30
0.0
 10
243.4594479274355
 20
-36.88279251022129
 30
0.0
 10
243.4705000418645
 20
-36.90053247029294
 30
0.0
  0
SPLINE
  5
152
330
1F
100
AcDbEntity
  8
0
  6
Continuous
 62
     7
370
    15
100
AcDbSpline
210
0.0
220
0.0
230
1.0
 70
     8
 71
     3
 72
    22
 73
    18
 74
     0
 42
0.000000001
 43
0.00000001
 40
0.0
 40
0.0
 40
0.0
 40
0.0
 40
0.125
 40
0.125
 40
0.25
 40
0.25
 40
0.375
 40
0.375
 40
0.5
 40
0.5
 40
0.625
 40
0.625
 40
0.75
 40
0.75
 40
0.875
 40
0.875
 40
1.0
 40
1.0
 40
1.0
 40
1.0
 10
242.0010000000003
 20
-34.74018169510568
 30
0.0
 10
242.2321097103712
 20
-34.74018169510569
 30
0.0
 10
242.4595864446744
 20
-34.76288116167957
 30
0.0
 10
242.906570502218
 20
-34.85169197363428
 30
0.0
 10
243.127785059296
 20
-34.91854806810353
 30
0.0
 10
243.5527542979501
 20
-35.09455725460464
 30
0.0
 10
243.7539412092439
 20
-35.20221890687493
 30
0.0
 10
244.1333849727745
 20
-35.45540969121991
 30
0.0
 10
244.3132785665366
 20
-35.60278538289417
 30
0.0
 10
244.6373617552872
 20
-35.92672364011734
 30
0.0
 10
244.7820531141949
 20
-36.10290134535032
 30
0.0
 10
245.0363552240909
 20
-36.48267141604401
 30
0.0
 10
245.1463420261637
 20
-36.6880800890151
 30
0.0
 10
245.3214204547907
 20
-37.11013574002767
 30
0.0
 10
245.387867571144
 20
-37.32822832180717
 30
0.0
 10
245.4778720883483
 20
-37.77769777019283
 30
0.0
 10
245.5010000000001
 20
-38.00907197533486
 30
0.0
 10
245.5010000000001
 20
-38.24018169510568
 30
0.0
  0
SPLINE
  5
153
330
1F
100
AcDbEntity
  8
0
  6
Continuous
 62
     7
370
    15
100
AcDbSpline
210
0.0
220
0.0
230
1.0
 70
     8
 71
     3
 72
   158
 73
   154
 74
     0
 42
0.000000001
 43
0.00000001
 40
0.0000000000002376
 40
0.0000000000002376
 40
0.0000000000002376
 40
0.0000000000002376
 40
0.0000964576976603
 40
0.0000964576976603
 40
0.0000964576976603
 40
0.0001929153952839
 40
0.0001929153952839
 40
0.0001929153952839
 40
0.0002893730929915
 40
0.0002893730929915
 40
0.0002893730929915
 40
0.0003375965848769
 40
0.0003375965848769
 40
0.0003375965848769
 40
0.0004340542825209
 40
0.0004340542825209
 40
0.0004340542825209
 40
0.0005305119801187
 40
0.0005305119801187
 40
0.0005305119801187
 40
0.0006269696777774
 40
0.0006269696777774
 40
0.0006269696777774
 40
0.0007234273755505
 40
0.0007234273755505
 40
0.0007234273755505
 40
0.0008198850734496
 40
0.0008198850734496
 40
0.0008198850734496
 40
0.0009163427714544
 40
0.0009163427714544
 40
0.0009163427714544
 40
0.0010128004695233
 40
0.0010128004695233
 40
0.0010128004695233
 40
0.0011092581676028
 40
0.0011092581676028
 40
0.0011092581676028
 40
0.0011574816594944
 40
0.0011574816594944
 40
0.0011574816594944
 40
0.0012539393574833
 40
0.0012539393574833
 40
0.0012539393574833
 40
0.0013503970553625
 40
0.0013503970553625
 40
0.0013503970553625
 40
0.0014468547531153
 40
0.0014468547531153
 40
0.0014468547531153
 40
0.0015433124507578
 40
0.0015433124507578
 40
0.0015433124507578
 40
0.0016397701483497
 40
0.0016397701483497
 40
0.0016397701483497
 40
0.0017362278460053
 40
0.0017362278460053
 40
0.0017362278460053
 40
0.0018326855437346
 40
0.0018326855437346
 40
0.0018326855437346
 40
0.0019291432413409
 40
0.0019291432413409
 40
0.0019291432413409
 40
0.0020256009389439
 40
0.0020256009389439
 40
0.0020256009389439
 40
0.0020738244308164
 40
0.0020738244308164
 40
0.0020738244308164
 40
0.0021702821285708
 40
0.0021702821285708
 40
0.0021702821285708
 40
0.0022667398264518
 40
0.0022667398264518
 40
0.0022667398264518
 40
0.0023631975244436
 40
0.0023631975244436
 40
0.0023631975244436
 40
0.0024596552225072
 40
0.0024596552225072
 40
0.0024596552225072
 40
0.0025561129205904
 40
0.0025561129205904
 40
0.0025561129205904
 40
0.0026525706186376
 40
0.0026525706186376
 40
0.0026525706186376
 40
0.0027490283165994
 40
0.0027490283165994
 40
0.0027490283165994
 40
0.0028454860144429
 40
0.0028454860144429
 40
0.0028454860144429
 40
0.0028937095063193
 40
0.0028937095063193
 40
0.0028937095063193
 40
0.0029901672039741
 40
0.0029901672039741
 40
0.0029901672039741
 40
0.0030866249015653
 40
0.0030866249015653
 40
0.0030866249015653
 40
0.0031830825991975
 40
0.0031830825991975
 40
0.0031830825991975
 40
0.0032795402969297
 40
0.0032795402969297
 40
0.0032795402969297
 40
0.0033759979945529
 40
0.0033759979945529
 40
0.0033759979945529
 40
0.0034724556921555
 40
0.0034724556921555
 40
0.0034724556921555
 40
0.0035689133898314
 40
0.0035689133898314
 40
0.0035689133898314
 40
0.0036653710876244
 40
0.0036653710876244
 40
0.0036653710876244
 40
0.0037618287855389
 40
0.0037618287855389
 40
0.0037618287855389
 40
0.0038100522774263
 40
0.0038100522774263
 40
0.0038100522774263
 40
0.003906509975476
 40
0.003906509975476
 40
0.003906509975476
 40
0.0040029676735515
 40
0.0040029676735515
 40
0.0040029676735515
 40
0.0040994253715981
 40
0.0040994253715981
 40
0.0040994253715981
 40
0.0041958830695658
 40
0.0041958830695658
 40
0.0041958830695658
 40
0.0042923407674192
 40
0.0042923407674192
 40
0.0042923407674192
 40
0.0043887984651474
 40
0.0043887984651474
 40
0.0043887984651474
 40
0.004485256162774
 40
0.004485256162774
 40
0.004485256162774
 40
0.0045813857859115
 40
0.0045813857859115
 40
0.0045813857859115
 40
0.0046775720305288
 40
0.0046775720305288
 40
0.0046775720305288
 40
0.0046775720305288
 10
245.3289650038268
 20
-102.3239939174502
 30
0.0
 10
245.3196085260605
 20
-102.3527240147155
 30
0.0
 10
245.3098792711566
 20
-102.3813350276394
 30
0.0
 10
245.2997819368255
 20
-102.4098131470053
 30
0.0
 10
245.2896846024971
 20
-102.4382912663637
 30
0.0
 10
245.279217693876
 20
-102.4666407086688
 30
0.0
 10
245.2683862565325
 20
-102.494847806317
 30
0.0
 10
245.2575548191839
 20
-102.5230549039782
 30
0.0
 10
245.2463572495673
 20
-102.5511238333979
 30
0.0
 10
245.2347989345498
 20
-102.5790410793966
 30
0.0
 10
245.2290200980057
 20
-102.5929989271576
 30
0.0
 10
245.2231507908212
 20
-102.6069195985011
 30
0.0
 10
245.2171917210343
 20
-102.6208014159374
 30
0.0
 10
245.2052729195125
 20
-102.6485665928363
 30
0.0
 10
245.1929936604428
 20
-102.676179407749
 30
0.0
 10
245.1803598614261
 20
-102.7036265596469
 30
0.0
 10
245.1677260624137
 20
-102.7310737115353
 30
0.0
 10
245.1547358527508
 20
-102.7583592641528
 30
0.0
 10
245.1413954978314
 20
-102.7854700556388
 30
0.0
 10
245.1280551429075
 20
-102.8125808471341
 30
0.0
 10
245.1143626674382
 20
-102.839520891442
 30
0.0
 10
245.1003246812637
 20
-102.8662771781904
 30
0.0
 10
245.0862866950795
 20
-102.8930334649576
 30
0.0
 10
245.0719011196235
 20
-102.9196099556521
 30
0.0
 10
245.0571749050829
 20
-102.945993803616
 30
0.0
 10
245.0424486905308
 20
-102.9723776516006
 30
0.0
 10
245.0273796564348
 20
-102.9985727632413
 30
0.0
 10
245.0119750884902
 20
-103.0245664676507
 30
0.0
 10
244.9965705205353
 20
-103.0505601720776
 30
0.0
 10
244.9808281378406
 20
-103.0763563179387
 30
0.0
 10
244.9647555560506
 20
-103.1019424219389
 30
0.0
 10
244.9486829742538
 20
-103.1275285259498
 30
0.0
 10
244.9322778135731
 20
-103.1529083764514
 30
0.0
 10
244.9155480133469
 20
-103.1780696892619
 30
0.0
 10
244.8988182131193
 20
-103.2032310020747
 30
0.0
 10
244.8817612962656
 20
-103.2281775026759
 30
0.0
 10
244.8643855188962
 20
-103.2528971171598
 30
0.0
 10
244.8556981127404
 20
-103.265256237933
 30
0.0
 10
244.8469305272412
 20
-103.2775593362661
 30
0.0
 10
244.8380838232951
 20
-103.2898049237982
 30
0.0
 10
244.8203894326581
 20
-103.3142974591756
 30
0.0
 10
244.8023765314298
 20
-103.3385626188573
 30
0.0
 10
244.7840538365118
 20
-103.3625886643452
 30
0.0
 10
244.765731141606
 20
-103.386614709817
 30
0.0
 10
244.7470959401656
 20
-103.4104051984862
 30
0.0
 10
244.7281572458723
 20
-103.4339486280969
 30
0.0
 10
244.7092185515939
 20
-103.4574920576892
 30
0.0
 10
244.6899735604556
 20
-103.4807919141454
 30
0.0
 10
244.6704315739593
 20
-103.5038369409301
 30
0.0
 10
244.6508895874765
 20
-103.5268819676987
 30
0.0
 10
244.6310477123461
 20
-103.5496755769165
 30
0.0
 10
244.610915528453
 20
-103.5722067666559
 30
0.0
 10
244.590783344567
 20
-103.5947379563874
 30
0.0
 10
244.5703578712725
 20
-103.61701006269
 30
0.0
 10
244.5496489569833
 20
-103.6390123464998
 30
0.0
 10
244.5289400426871
 20
-103.6610146303169
 30
0.0
 10
244.5079446213607
 20
-103.6827503494161
 30
0.0
 10
244.4866727997369
 20
-103.7042090351828
 30
0.0
 10
244.4654009781013
 20
-103.7256677209613
 30
0.0
 10
244.4438496563217
 20
-103.7468524986798
 30
0.0
 10
244.4220293185892
 20
-103.7677530667056
 30
0.0
 10
244.4002089808732
 20
-103.7886536347154
 30
0.0
 10
244.3781163638637
 20
-103.8092731204148
 30
0.0
 10
244.3557621161091
 20
-103.8296015869998
 30
0.0
 10
244.3334078683561
 20
-103.8499300535832
 30
0.0
 10
244.3107886799985
 20
-103.8699705107557
 30
0.0
 10
244.2879154650871
 20
-103.88971328683
 30
0.0
 10
244.2764794927981
 20
-103.8995841266296
 30
0.0
 10
244.2649793935499
 20
-103.9093811108535
 30
0.0
 10
244.2534165555708
 20
-103.9191030564356
 30
0.0
 10
244.2302895951665
 20
-103.9385480275522
 30
0.0
 10
244.206909053894
 20
-103.9576949359147
 30
0.0
 10
244.1832862287819
 20
-103.9765345260959
 30
0.0
 10
244.1596634036512
 20
-103.995374116292
 30
0.0
 10
244.1357947970011
 20
-104.0139091776475
 30
0.0
 10
244.1116919500811
 20
-104.0321307440431
 30
0.0
 10
244.0875891031442
 20
-104.0503523104514
 30
0.0
 10
244.0632484471732
 20
-104.0682630797783
 30
0.0
 10
244.0386817580695
 20
-104.0858543840898
 30
0.0
 10
244.0141150689544
 20
-104.1034456884095
 30
0.0
 10
243.9893187092588
 20
-104.1207201323129
 30
0.0
 10
243.9643046794303
 20
-104.1376693543937
 30
0.0
 10
243.9392906495982
 20
-104.154618576477
 30
0.0
 10
243.9140552459561
 20
-104.1712450862984
 30
0.0
 10
243.8886106829054
 20
-104.187540836741
 30
0.0
 10
243.8631661198597
 20
-104.2038365871802
 30
0.0
 10
243.837508630001
 20
-104.2198039910671
 30
0.0
 10
243.8116506306569
 20
-104.2354353227141
 30
0.0
 10
243.785792631326
 20
-104.251066654353
 30
0.0
 10
243.7597302939233
 20
-104.2663642282155
 30
0.0
 10
243.7334762272958
 20
-104.2813206465274
 30
0.0
 10
243.7072221606873
 20
-104.2962770648284
 30
0.0
 10
243.6807724776673
 20
-104.3108945421204
 30
0.0
 10
243.6541399668752
 20
-104.3251660143396
 30
0.0
 10
243.6408244510566
 20
-104.3323013541344
 30
0.0
 10
243.6274624992697
 20
-104.339350608527
 30
0.0
 10
243.6140557256664
 20
-104.3463129263794
 30
0.0
 10
243.5872406891977
 20
-104.3602383354782
 30
0.0
 10
243.5602433476958
 20
-104.3738174656345
 30
0.0
 10
243.5330767369489
 20
-104.3870437626421
 30
0.0
 10
243.5059101262136
 20
-104.400270059644
 30
0.0
 10
243.4785702240274
 20
-104.4131454819022
 30
0.0
 10
243.4510702156724
 20
-104.4256638202508
 30
0.0
 10
243.423570207312
 20
-104.438182158602
 30
0.0
 10
243.3959060212091
 20
-104.4503452666584
 30
0.0
 10
243.3680909798108
 20
-104.462147283519
 30
0.0
 10
243.3402759383943
 20
-104.4739493003873
 30
0.0
 10
243.3123059209568
 20
-104.4853919723595
 30
0.0
 10
243.2841946099623
 20
-104.4964697034003
 30
0.0
 10
243.2560832989852
 20
-104.5075474344342
 30
0.0
 10
243.2278264767544
 20
-104.5182618886309
 30
0.0
 10
243.1994377605838
 20
-104.528607904405
 30
0.0
 10
243.1710490444183
 20
-104.5389539201773
 30
0.0
 10
243.1425242310377
 20
-104.5489330292064
 30
0.0
 10
243.113877083077
 20
-104.5585404156122
 30
0.0
 10
243.0852299351042
 20
-104.5681478020221
 30
0.0
 10
243.0564562110236
 20
-104.5773848881492
 30
0.0
 10
243.0275698076509
 20
-104.5862472100081
 30
0.0
 10
242.9986834042576
 20
-104.5951095318734
 30
0.0
 10
242.969680044605
 20
-104.6035984015286
 30
0.0
 10
242.9405737481009
 20
-104.611709712471
 30
0.0
 10
242.9114674515745
 20
-104.6198210234196
 30
0.0
 10
242.8822539086457
 20
-104.6275559765533
 30
0.0
 10
242.8529472493367
 20
-104.6349108277976
 30
0.0
 10
242.8382947335201
 20
-104.6385880491775
 30
0.0
 10
242.8236181305118
 20
-104.6421704707978
 30
0.0
 10
242.8089192155932
 20
-104.6456576590607
 30
0.0
 10
242.7795197529017
 20
-104.6526324229668
 30
0.0
 10
242.7500277570377
 20
-104.6592269414811
 30
0.0
 10
242.7204575007859
 20
-104.6654380219464
 30
0.0
 10
242.6908872445287
 20
-104.6716491024129
 30
0.0
 10
242.6612343495951
 20
-104.6774776644565
 30
0.0
 10
242.6315131681451
 20
-104.6829208872019
 30
0.0
 10
242.6017919866999
 20
-104.6883641099465
 30
0.0
 10
242.5719981181105
 20
-104.6934227993539
 30
0.0
 10
242.5421459810619
 20
-104.69809450881
 30
0.0
 10
242.5122938440274
 20
-104.7027662182638
 30
0.0
 10
242.4823790185393
 20
-104.7070516395185
 30
0.0
 10
242.4524159768496
 20
-104.7109487019566
 30
0.0
 10
242.4224529351809
 20
-104.714845764392
 30
0.0
 10
242.3924372409303
 20
-104.7183550450894
 30
0.0
 10
242.3623834069174
 20
-104.7214748504152
 30
0.0
 10
242.332329572928
 20
-104.7245946557385
 30
0.0
 10
242.3022331493925
 20
-104.7273254477095
 30
0.0
 10
242.2721086767245
 20
-104.7296659099152
 30
0.0
 10
242.2419842040761
 20
-104.7320063721194
 30
0.0
 10
242.2118272220841
 20
-104.7339568512111
 30
0.0
 10
242.1816522858766
 20
-104.7355164074913
 30
0.0
 10
242.1515799663416
 20
-104.7370706601488
 30
0.0
 10
242.1214853847126
 20
-104.7382368738193
 30
0.0
 10
242.0913829501108
 20
-104.7390144893857
 30
0.0
 10
242.0612627874438
 20
-104.739792562909
 30
0.0
 10
242.0311303293158
 20
-104.7401816951058
 30
0.0
 10
242.0009999999998
 20
-104.7401816951058
 30
0.0
  0
SPLINE
  5
155
330
1F
100
AcDbEntity
  8
0
  6
Continuous
 62
     7
370
    15
100
AcDbSpline
210
0.0
220
0.0
230
1.0
 70
     8
 71
     3
 72
    10
 73
     6
 74
     0
 42
0.000000001
 43
0.00000001
 40
0.0
 40
0.0
 40
0.0
 40
0.0
 40
0.0082974669954749
 40
0.4808429054363341
 40
1.0
 40
1.0
 40
1.0
 40
1.0
 10
243.4984706995484
 20
-102.5617973253767
 30
0.0
 10
243.4961290454249
 20
-102.5658233519307
 30
0.0
 10
243.3604288645286
 20
-102.7991338678612
 30
0.0
 10
242.8351345333885
 20
-103.1176623394913
 30
0.0
 10
242.2876228291017
 20
-103.1980819582884
 30
0.0
 10
242.001
 20
-103.2401816951058
 30
0.0
  0
SPLINE
  5
157
330
1F
100
AcDbEntity
  8
0
  6
Continuous
 62
     7
370
    15
100
AcDbSpline
210
0.0
220
0.0
230
1.0
 70
     8
 71
     3
 72
   194
 73
   190
 74
     0
 42
0.000000001
 43
0.00000001
 40
0.0
 40
0.0
 40
0.0
 40
0.0
 40
0.0000964576977155
 40
0.0000964576977155
 40
0.0000964576977155
 40
0.000192915395308
 40
0.000192915395308
 40
0.000192915395308
 40
0.000289373092914
 40
0.000289373092914
 40
0.000289373092914
 40
0.0003858307906121
 40
0.0003858307906121
 40
0.0003858307906121
 40
0.0004822884884338
 40
0.0004822884884338
 40
0.0004822884884338
 40
0.0005787461863742
 40
0.0005787461863742
 40
0.0005787461863742
 40
0.0006752038844018
 40
0.0006752038844018
 40
0.0006752038844018
 40
0.0007716615824688
 40
0.0007716615824688
 40
0.0007716615824688
 40
0.0008681192805205
 40
0.0008681192805205
 40
0.0008681192805205
 40
0.0009645769785049
 40
0.0009645769785049
 40
0.0009645769785049
 40
0.0010610346763827
 40
0.0010610346763827
 40
0.0010610346763827
 40
0.0011574923741369
 40
0.0011574923741369
 40
0.0011574923741369
 40
0.0012539500717828
 40
0.0012539500717828
 40
0.0012539500717828
 40
0.0013504077693784
 40
0.0013504077693784
 40
0.0013504077693784
 40
0.0014468654670351
 40
0.0014468654670351
 40
0.0014468654670351
 40
0.0015433231647597
 40
0.0015433231647597
 40
0.0015433231647597
 40
0.0016397808623607
 40
0.0016397808623607
 40
0.0016397808623607
 40
0.0017362385599592
 40
0.0017362385599592
 40
0.0017362385599592
 40
0.0017844620518294
 40
0.0017844620518294
 40
0.0017844620518294
 40
0.0018809197495798
 40
0.0018809197495798
 40
0.0018809197495798
 40
0.0019773774474568
 40
0.0019773774474568
 40
0.0019773774474568
 40
0.0020738351454444
 40
0.0020738351454444
 40
0.0020738351454444
 40
0.0021702928435035
 40
0.0021702928435035
 40
0.0021702928435035
 40
0.0022667505415818
 40
0.0022667505415818
 40
0.0022667505415818
 40
0.0023632082396238
 40
0.0023632082396238
 40
0.0023632082396238
 40
0.0024596659375802
 40
0.0024596659375802
 40
0.0024596659375802
 40
0.002556123635418
 40
0.002556123635418
 40
0.002556123635418
 40
0.002604347127292
 40
0.002604347127292
 40
0.002604347127292
 40
0.0027008048249414
 40
0.0027008048249414
 40
0.0027008048249414
 40
0.0027972625225276
 40
0.0027972625225276
 40
0.0027972625225276
 40
0.0028937202201557
 40
0.0028937202201557
 40
0.0028937202201557
 40
0.0029901779178816
 40
0.0029901779178816
 40
0.0029901779178816
 40
0.0030866356154929
 40
0.0030866356154929
 40
0.0030866356154929
 40
0.003183093313082
 40
0.003183093313082
 40
0.003183093313082
 40
0.0032795510107451
 40
0.0032795510107451
 40
0.0032795510107451
 40
0.0033760087085277
 40
0.0033760087085277
 40
0.0033760087085277
 40
0.0034724664064347
 40
0.0034724664064347
 40
0.0034724664064347
 40
0.0035206898983197
 40
0.0035206898983197
 40
0.0035206898983197
 40
0.0036171475963665
 40
0.0036171475963665
 40
0.0036171475963665
 40
0.0037136052944416
 40
0.0037136052944416
 40
0.0037136052944416
 40
0.0038100629924891
 40
0.0038100629924891
 40
0.0038100629924891
 40
0.0039065206904583
 40
0.0039065206904583
 40
0.0039065206904583
 40
0.0040029783883126
 40
0.0040029783883126
 40
0.0040029783883126
 40
0.0040994360860407
 40
0.0040994360860407
 40
0.0040994360860407
 40
0.0041958937836659
 40
0.0041958937836659
 40
0.0041958937836659
 40
0.0042923514812568
 40
0.0042923514812568
 40
0.0042923514812568
 40
0.004340574973129
 40
0.004340574973129
 40
0.004340574973129
 40
0.0044370326708707
 40
0.0044370326708707
 40
0.0044370326708707
 40
0.0045334903685219
 40
0.0045334903685219
 40
0.0045334903685219
 40
0.0046299480661326
 40
0.0046299480661326
 40
0.0046299480661326
 40
0.0047264057638053
 40
0.0047264057638053
 40
0.0047264057638053
 40
0.0048228634615913
 40
0.0048228634615913
 40
0.0048228634615913
 40
0.0049193211595002
 40
0.0049193211595002
 40
0.0049193211595002
 40
0.005015778857511
 40
0.005015778857511
 40
0.005015778857511
 40
0.0051122365555817
 40
0.0051122365555817
 40
0.0051122365555817
 40
0.0052086942536596
 40
0.0052086942536596
 40
0.0052086942536596
 40
0.0052569177455528
 40
0.0052569177455528
 40
0.0052569177455528
 40
0.0053533754435368
 40
0.0053533754435368
 40
0.0053533754435368
 40
0.0054498331414106
 40
0.0054498331414106
 40
0.0054498331414106
 40
0.0055462908391589
 40
0.0055462908391589
 40
0.0055462908391589
 40
0.0056427485367993
 40
0.0056427485367993
 40
0.0056427485367993
 40
0.0057463980959657
 40
0.0057463980959657
 40
0.0057463980959657
 40
0.0058501186428532
 40
0.0058501186428532
 40
0.0058501186428532
 40
0.0058501186428532
 10
-245.5010000000003
 20
-38.2401816951054
 30
0.0
 10
-245.5010000000003
 20
-38.20996634571186
 30
0.0
 10
-245.5006086683045
 20
-38.17974884917319
 30
0.0
 10
-245.4998261979286
 20
-38.14954375223777
 30
0.0
 10
-245.4990437275533
 20
-38.11933865532763
 30
0.0
 10
-245.4978700024713
 20
-38.08914148584804
 30
0.0
 10
-245.4963055892347
 20
-38.058966800952
 30
0.0
 10
-245.4947411759981
 20
-38.02879211605479
 30
0.0
 10
-245.4927858428314
 20
-37.99863544810447
 30
0.0
 10
-245.4904405317718
 20
-37.96851135217707
 30
0.0
 10
-245.4880952207109
 20
-37.93838725623311
 30
0.0
 10
-245.4853595843865
 20
-37.90829127215663
 30
0.0
 10
-245.4822349415552
 20
-37.87823794022973
 30
0.0
 10
-245.4791102987216
 20
-37.84818460827989
 30
0.0
 10
-245.4755961866455
 20
-37.8181694787698
 30
0.0
 10
-245.4716943013053
 20
-37.78820706430707
 30
0.0
 10
-245.4677924159622
 20
-37.75824464982199
 30
0.0
 10
-245.4635021795623
 20
-37.72833051409675
 30
0.0
 10
-245.4588256650634
 20
-37.69847912909041
 30
0.0
 10
-245.454149150562
 20
-37.66862774406734
 30
0.0
 10
-245.449085665498
 20
-37.63883468988004
 30
0.0
 10
-245.4436376588181
 20
-37.60911438483986
 30
0.0
 10
-245.4381896521367
 20
-37.57939407979175
 30
0.0
 10
-245.4323563171699
 20
-37.5497421233926
 30
0.0
 10
-245.426140477112
 20
-37.52017286734895
 30
0.0
 10
-245.4199246370545
 20
-37.49060361130744
 30
0.0
 10
-245.4133253715753
 20
-37.46111267748066
 30
0.0
 10
-245.4063458756326
 20
-37.43171433812037
 30
0.0
 10
-245.3993663796928
 20
-37.40231599877178
 30
0.0
 10
-245.3920056199196
 20
-37.37300590106392
 30
0.0
 10
-245.3842671598216
 20
-37.34379822511551
 30
0.0
 10
-245.3765286997287
 20
-37.31459054918607
 30
0.0
 10
-245.3684113936004
 20
-37.28548097044158
 30
0.0
 10
-245.3599191695683
 20
-37.25648356442424
 30
0.0
 10
-245.3514269455426
 20
-37.22748615842912
 30
0.0
 10
-245.3425585463344
 20
-37.19859663174644
 30
0.0
 10
-245.3333182600822
 20
-37.16982894319538
 30
0.0
 10
-245.3240779738363
 20
-37.14106125466409
 30
0.0
 10
-245.3144644325435
 20
-37.11241114488416
 30
0.0
 10
-245.3044822790739
 20
-37.08389244416374
 30
0.0
 10
-245.2945001256077
 20
-37.05537374345317
 30
0.0
 10
-245.2841478821493
 20
-37.02698222929107
 30
0.0
 10
-245.2734305404025
 20
-36.99873159210526
 30
0.0
 10
-245.2627131986522
 20
-36.97048095491031
 30
0.0
 10
-245.2516291719607
 20
-36.94236701183902
 30
0.0
 10
-245.240183794388
 20
-36.91440330254783
 30
0.0
 10
-245.2287384168095
 20
-36.88643959324233
 30
0.0
 10
-245.2169300207935
 20
-36.85862204666111
 30
0.0
 10
-245.2047643498903
 20
-36.83096418514792
 30
0.0
 10
-245.1925986789963
 20
-36.80330632365592
 30
0.0
 10
-245.1800739150796
 20
-36.77580401110141
 30
0.0
 10
-245.1671960957064
 20
-36.74847050203471
 30
0.0
 10
-245.154318276334
 20
-36.72113699296979
 30
0.0
 10
-245.1410854946832
 20
-36.69396824047858
 30
0.0
 10
-245.1275041350478
 20
-36.66697735569898
 30
0.0
 10
-245.1207138323712
 20
-36.65348266281964
 30
0.0
 10
-245.1138360280712
 20
-36.64003167782717
 30
0.0
 10
-245.1068715522387
 20
-36.62662602485643
 30
0.0
 10
-245.092941826932
 20
-36.59981322976162
 30
0.0
 10
-245.0786637894523
 20
-36.57317882553723
 30
0.0
 10
-245.0640443371742
 20
-36.54673568518852
 30
0.0
 10
-245.0494248848845
 20
-36.52029254481901
 30
0.0
 10
-245.0344618531438
 20
-36.49403675316662
 30
0.0
 10
-245.0191624756378
 20
-36.4679810093336
 30
0.0
 10
-245.0038630981211
 20
-36.44192526548235
 30
0.0
 10
-244.9882251095217
 20
-36.41606571160572
 30
0.0
 10
-244.9722560743887
 20
-36.39041486104047
 30
0.0
 10
-244.9562870392483
 20
-36.36476401046333
 30
0.0
 10
-244.9399845931149
 20
-36.33931806526433
 30
0.0
 10
-244.9233566252529
 20
-36.3140893414424
 30
0.0
 10
-244.9067286573885
 20
-36.28886061761686
 30
0.0
 10
-244.8897727057889
 20
-36.2638453797106
 30
0.0
 10
-244.8724969776131
 20
-36.23905573516262
 30
0.0
 10
-244.8552212494409
 20
-36.21426609061969
 30
0.0
 10
-244.8376231868021
 20
-36.18969836897692
 30
0.0
 10
-244.8197113072911
 20
-36.16536445829938
 30
0.0
 10
-244.8017994277893
 20
-36.14103054763436
 30
0.0
 10
-244.7835710793693
 20
-36.11692684495461
 30
0.0
 10
-244.7650350819995
 20
-36.093065008599
 30
0.0
 10
-244.7464990846433
 20
-36.06920317226075
 30
0.0
 10
-244.7276526939252
 20
-36.0455796691726
 30
0.0
 10
-244.7085050235683
 20
-36.02220591810714
 30
0.0
 10
-244.6989317201153
 20
-36.01051969165694
 30
0.0
 10
-244.6892825822555
 20
-35.99889524010206
 30
0.0
 10
-244.6795587757812
 20
-35.98733396729867
 30
0.0
 10
-244.660110082685
 20
-35.96421013743332
 30
0.0
 10
-244.6403604881408
 20
-35.9413365125634
 30
0.0
 10
-244.6203195292301
 20
-35.91872413490926
 30
0.0
 10
-244.600278570328
 20
-35.89611175726471
 30
0.0
 10
-244.579943279917
 20
-35.87375727876844
 30
0.0
 10
-244.5593234651704
 20
-35.85167148002216
 30
0.0
 10
-244.5387036504195
 20
-35.82958568127133
 30
0.0
 10
-244.5177962584919
 20
-35.80776529213831
 30
0.0
 10
-244.4966113564932
 20
-35.78622082391355
 30
0.0
 10
-244.4754264544809
 20
-35.76467635567494
 30
0.0
 10
-244.4539609049043
 20
-35.7434046204116
 30
0.0
 10
-244.4322252092291
 20
-35.72241602252846
 30
0.0
 10
-244.4104895135682
 20
-35.70142742465909
 30
0.0
 10
-244.388480410747
 20
-35.68071881254262
 30
0.0
 10
-244.3662085072004
 20
-35.66030016343287
 30
0.0
 10
-244.3439366036582
 20
-35.63988151432705
 30
0.0
 10
-244.321398601718
 20
-35.61974980517276
 30
0.0
 10
-244.2986053745102
 20
-35.59991474969616
 30
0.0
 10
-244.2758121472925
 20
-35.58007969421101
 30
0.0
 10
-244.2527603199667
 20
-35.56053835573836
 30
0.0
 10
-244.2294610244288
 20
-35.54130017443799
 30
0.0
 10
-244.2061617288739
 20
-35.52206199312354
 30
0.0
 10
-244.1826115153361
 20
-35.50312412065333
 30
0.0
 10
-244.1588217658961
 20
-35.48449571397044
 30
0.0
 10
-244.1350320164375
 20
-35.46586730727305
 30
0.0
 10
-244.1109992086779
 20
-35.44754560827518
 30
0.0
 10
-244.0867349656907
 20
-35.42953948150121
 30
0.0
 10
-244.0746035180083
 20
-35.42053691813931
 30
0.0
 10
-244.0624135512275
 20
-35.41161273016863
 30
0.0
 10
-244.0501665397506
 20
-35.40276799732262
 30
0.0
 10
-244.025671156316
 20
-35.38507754909796
 30
0.0
 10
-244.0009448216397
 20
-35.36770302884867
 30
0.0
 10
-243.9759995018139
 20
-35.35065284634238
 30
0.0
 10
-243.9510541819831
 20
-35.33360266383269
 30
0.0
 10
-243.9258861834973
 20
-35.31687429456071
 30
0.0
 10
-243.9005076880852
 20
-35.30047583517597
 30
0.0
 10
-243.875129192677
 20
-35.28407737579369
 30
0.0
 10
-243.8495364427167
 20
-35.26800639826725
 30
0.0
 10
-243.8237418246064
 20
-35.25227067888866
 30
0.0
 10
-243.7979472065081
 20
-35.23653495951742
 30
0.0
 10
-243.7719469010522
 20
-35.22113216837618
 30
0.0
 10
-243.745753487963
 20
-35.20606975481057
 30
0.0
 10
-243.7195600748922
 20
-35.19100734125554
 30
0.0
 10
-243.693169675975
 20
-35.17628307504179
 30
0.0
 10
-243.6665950525768
 20
-35.16190407266289
 30
0.0
 10
-243.6400204291996
 20
-35.14752507029527
 30
0.0
 10
-243.613257646731
 20
-35.13348920270891
 30
0.0
 10
-243.5863196362287
 20
-35.11980324834825
 30
0.0
 10
-243.559381625744
 20
-35.1061172939966
 30
0.0
 10
-243.5322643988509
 20
-35.09277922642032
 30
0.0
 10
-243.5049810441484
 20
-35.07979548154845
 30
0.0
 10
-243.4776976894527
 20
-35.06681173667985
 30
0.0
 10
-243.4502441674596
 20
-35.05418039201456
 30
0.0
 10
-243.4226337120266
 20
-35.04190753724648
 30
0.0
 10
-243.408829251025
 20
-35.03577145066739
 30
0.0
 10
-243.3949847988777
 20
-35.029724625485
 30
0.0
 10
-243.3811020221105
 20
-35.02376779006065
 30
0.0
 10
-243.3533349264239
 20
-35.01185345750377
 30
0.0
 10
-243.3254113737133
 20
-35.00029782742244
 30
0.0
 10
-243.2973450503118
 20
-34.98910656362494
 30
0.0
 10
-243.2692787269236
 20
-34.9779152998327
 30
0.0
 10
-243.2410654333602
 20
-34.96708672546194
 30
0.0
 10
-243.2127187632847
 20
-34.95662605545157
 30
0.0
 10
-243.1843720932179
 20
-34.94616538544443
 30
0.0
 10
-243.155887849584
 20
-34.93607107114449
 30
0.0
 10
-243.1272797730615
 20
-34.92634798280305
 30
0.0
 10
-243.0986716965288
 20
-34.91662489445817
 30
0.0
 10
-243.0699355513651
 20
-34.90727159260459
 30
0.0
 10
-243.0410852141993
 20
-34.8982925965261
 30
0.0
 10
-243.0122348770134
 20
-34.8893136004414
 30
0.0
 10
-242.9832660762016
 20
-34.88070758080399
 30
0.0
 10
-242.9541928128201
 20
-34.87247870024569
 30
0.0
 10
-242.9251195494163
 20
-34.86424981968108
 30
0.0
 10
-242.8959375187869
 20
-34.85639685989545
 30
0.0
 10
-242.8666608344953
 20
-34.84892362182055
 30
0.0
 10
-242.8373841501848
 20
-34.8414503837408
 30
0.0
 10
-242.8080084774115
 20
-34.83435576091856
 30
0.0
 10
-242.7785480299881
 20
-34.82764318820755
 30
0.0
 10
-242.749087582553
 20
-34.8209306154939
 30
0.0
 10
-242.7195379984415
 20
-34.81459909903219
 30
0.0
 10
-242.6899135791829
 20
-34.80865170391832
 30
0.0
 10
-242.6602891599223
 20
-34.80270430880405
 30
0.0
 10
-242.6305855192068
 20
-34.79714015444426
 30
0.0
 10
-242.6008170335369
 20
-34.79196193321695
 30
0.0
 10
-242.5859336173784
 20
-34.78937296640348
 30
0.0
 10
-242.5710331673181
 20
-34.78688031719689
 30
0.0
 10
-242.5561174860516
 20
-34.7844842869577
 30
0.0
 10
-242.5262844665969
 20
-34.77969196031417
 30
0.0
 10
-242.4963871956529
 20
-34.77528566520079
 30
0.0
 10
-242.4664401379679
 20
-34.77126753099474
 30
0.0
 10
-242.4364930803029
 20
-34.76724939679139
 30
0.0
 10
-242.4064918018775
 20
-34.76361882849405
 30
0.0
 10
-242.3764508100361
 20
-34.7603775786008
 30
0.0
 10
-242.3464098182181
 20
-34.75713632871008
 30
0.0
 10
-242.3163246650958
 20
-34.75428391722647
 30
0.0
 10
-242.286209887628
 20
-34.75182171941506
 30
0.0
 10
-242.2560951101808
 20
-34.74935952160534
 30
0.0
 10
-242.2259462496087
 20
-34.74728717279448
 30
0.0
 10
-242.1957778595857
 20
-34.74560567140605
 30
0.0
 10
-242.1633604933016
 20
-34.74379881839287
 30
0.0
 10
-242.1309152273008
 20
-34.74244297060885
 30
0.0
 10
-242.0984601236293
 20
-34.74153888334232
 30
0.0
 10
-242.0659827958608
 20
-34.7406341769891
 30
0.0
 10
-242.0334900591456
 20
-34.74018169510544
 30
0.0
 10
-242.0009999999997
 20
-34.74018169510544
 30
0.0
  0
SPLINE
  5
158
330
1F
100
AcDbEntity
  8
0
  6
Continuous
 62
     7
370
    15
100
AcDbSpline
210
0.0
220
0.0
230
1.0
 70
     8
 71
     3
 72
    10
 73
     6
 74
     0
 42
0.000000001
 43
0.00000001
 40
0.0
 40
0.0
 40
0.0
 40
0.0
 40
0.0082975047352895
 40
0.4808429251931764
 40
1.0
 40
1.0
 40
1.0
 40
1.0
 10
-243.4984707319273
 20
-36.91856612012012
 30
0.0
 10
-243.4961290671162
 20
-36.91454007506524
 30
0.0
 10
-243.3604288785039
 20
-36.68122953859627
 30
0.0
 10
-242.8351345362111
 20
-36.36270104878456
 30
0.0
 10
-242.2876228300716
 20
-36.2822814312578
 30
0.0
 10
-242.001
 20
-36.24018169510544
 30
0.0
  0
SPLINE
  5
161
330
1F
100
AcDbEntity
  8
0
  6
Continuous
 62
     7
370
    15
100
AcDbSpline
210
0.0
220
0.0
230
1.0
 70
     8
 71
     3
 72
    16
 73
    12
 74
     0
 42
0.000000001
 43
0.00000001
 40
0.0
 40
0.0
 40
0.0
 40
0.0
 40
0.2499999999999932
 40
0.2499999999999932
 40
0.3749999999999981
 40
0.3749999999999981
 40
0.5000000000000029
 40
0.5000000000000029
 40
0.7500000000000014
 40
0.7500000000000014
 40
1.0
 40
1.0
 40
1.0
 40
1.0
 10
-248.6228265104609
 20
-288.6625084591725
 30
0.0
 10
-249.0283638408137
 20
-288.2195646890391
 30
0.0
 10
-249.3870946479003
 20
-287.7545844382946
 30
0.0
 10
-249.8565779878393
 20
-287.0232355810359
 30
0.0
 10
-250.0015711513696
 20
-286.7737746656159
 30
0.0
 10
-250.2680270350541
 20
-286.2629654196641
 30
0.0
 10
-250.389203155803
 20
-286.0018323235577
 30
0.0
 10
-250.7107799360536
 20
-285.214571389263
 30
0.0
 10
-250.8721190276346
 20
-284.6799231090517
 30
0.0
 10
-251.0895069027229
 20
-283.5889530024079
 30
0.0
 10
-251.1452212625156
 20
-283.0293636905285
 30
0.0
 10
-251.1444988397771
 20
-282.4692227879485
 30
0.0
  0
SPLINE
  5
164
330
1F
100
AcDbEntity
  8
0
  6
Continuous
 62
     7
370
    15
100
AcDbSpline
210
0.0
220
0.0
230
1.0
 70
     8
 71
     3
 72
    12
 73
     8
 74
     0
 42
0.000000001
 43
0.00000001
 40
0.0
 40
0.0
 40
0.0
 40
0.0
 40
0.4999999999999964
 40
0.4999999999999964
 40
0.7499999999999982
 40
0.7499999999999982
 40
1.0
 40
1.0
 40
1.0
 40
1.0
 10
-244.1228265104608
 20
-285.6625084591726
 30
0.0
 10
-244.4483695408046
 20
-285.1847631776179
 30
0.0
 10
-244.7051250776615
 20
-284.6650571664229
 30
0.0
 10
-244.9663201174197
 20
-283.8470620503282
 30
0.0
 10
-245.0325703759936
 20
-283.5683422241137
 30
0.0
 10
-245.1212360435769
 20
-283.0084829915679
 30
0.0
 10
-245.144147934375
 20
-282.7259277258386
 30
0.0
 10
-245.1449889606608
 20
-282.4403416279215
 30
0.0
  0
SPLINE
  5
166
330
1F
100
AcDbEntity
  8
0
  6
Continuous
 62
     7
370
    15
100
AcDbSpline
210
0.0
220
0.0
230
1.0
 70
     8
 71
     3
 72
    16
 73
    12
 74
     0
 42
0.000000001
 43
0.00000001
 40
0.0
 40
0.0
 40
0.0
 40
0.0
 40
0.249999999999976
 40
0.249999999999976
 40
0.3749999999999738
 40
0.3749999999999738
 40
0.4999999999999716
 40
0.4999999999999716
 40
0.7499999999999858
 40
0.7499999999999858
 40
1.0
 40
1.0
 40
1.0
 40
1.0
 10
251.1444988397773
 20
-282.4692227879489
 30
0.0
 10
251.1452212625234
 20
-283.0293636964633
 30
0.0
 10
251.0904870699335
 20
-283.5820403853242
 30
0.0
 10
250.9277196174424
 20
-284.4018701320402
 30
0.0
 10
250.8599416998347
 20
-284.6736059732744
 30
0.0
 10
250.6968287888074
 20
-285.2142274282252
 30
0.0
 10
250.6014246973591
 20
-285.4827951965118
 30
0.0
 10
250.2792845783426
 20
-286.2698936197754
 30
0.0
 10
250.0155031896186
 20
-286.7749895163632
 30
0.0
 10
249.391354472276
 20
-287.7486179312589
 30
0.0
 10
249.0283638365173
 20
-288.2195646937323
 30
0.0
 10
248.6228265104611
 20
-288.6625084591728
 30
0.0
  0
SPLINE
  5
168
330
1F
100
AcDbEntity
  8
0
  6
Continuous
 62
     7
370
    15
100
AcDbSpline
210
0.0
220
0.0
230
1.0
 70
     8
 71
     3
 72
    12
 73
     8
 74
     0
 42
0.000000001
 43
0.00000001
 40
0.0
 40
0.0
 40
0.0
 40
0.0
 40
0.4999999999999996
 40
0.4999999999999996
 40
0.7499999999999998
 40
0.7499999999999998
 40
1.0
 40
1.0
 40
1.0
 40
1.0
 10
245.1449889606611
 20
-282.4403416279218
 30
0.0
 10
245.1433069082001
 20
-283.011513786128
 30
0.0
 10
245.0523940658247
 20
-283.579061822201
 30
0.0
 10
244.7905115399803
 20
-284.3968586134521
 30
0.0
 10
244.682382810085
 20
-284.6634974078607
 30
0.0
 10
244.4301364451744
 20
-285.1761671527082
 30
0.0
 10
244.285598036356
 20
-285.423635802659
 30
0.0
 10
244.122826510461
 20
-285.662508459173
 30
0.0
  0
SPLINE
  5
16E
330
1F
100
AcDbEntity
  8
0
  6
Continuous
 62
     7
370
    15
100
AcDbSpline
210
0.0
220
0.0
230
1.0
 70
     8
 71
     3
 72
    18
 73
    14
 74
     0
 42
0.000000001
 43
0.00000001
 40
0.0
 40
0.0
 40
0.0
 40
0.0
 40
0.2500000000000012
 40
0.2500000000000012
 40
0.3750000000000036
 40
0.3750000000000036
 40
0.5000000000000059
 40
0.5000000000000059
 40
0.6250000000000082
 40
0.6250000000000082
 40
0.7500000000000107
 40
0.7500000000000107
 40
1.0
 40
1.0
 40
1.0
 40
1.0
 10
-238.3088176348311
 20
-294.5000000000005
 30
0.0
 10
-239.2492122742097
 20
-294.5000000000005
 30
0.0
 10
-240.170307844486
 20
-294.3853541905411
 30
0.0
 10
-241.526262244158
 20
-294.0480797917686
 30
0.0
 10
-241.9765975514288
 20
-293.9067369557109
 30
0.0
 10
-242.855306256115
 20
-293.5712487966773
 30
0.0
 10
-243.2813324839031
 20
-293.3784295679294
 30
0.0
 10
-244.1079535865095
 20
-292.9445474503291
 30
0.0
 10
-244.5085576619313
 20
-292.7034929645307
 30
0.0
 10
-245.2844965076297
 20
-292.1730186687353
 30
0.0
 10
-245.6618472072127
 20
-291.8815953929794
 30
0.0
 10
-246.7306521948708
 20
-290.95391572233
 30
0.0
 10
-247.3657632834853
 20
-290.2624821949354
 30
0.0
 10
-247.9249168931042
 20
-289.5000000000005
 30
0.0
  0
SPLINE
  5
170
330
1F
100
AcDbEntity
  8
0
  6
Continuous
 62
     7
370
    15
100
AcDbSpline
210
0.0
220
0.0
230
1.0
 70
     8
 71
     3
 72
    16
 73
    12
 74
     0
 42
0.000000001
 43
0.00000001
 40
0.0
 40
0.0
 40
0.0
 40
0.0
 40
0.2500000000000095
 40
0.2500000000000095
 40
0.3750000000000112
 40
0.3750000000000112
 40
0.5000000000000129
 40
0.5000000000000129
 40
0.7500000000000064
 40
0.7500000000000064
 40
1.0
 40
1.0
 40
1.0
 40
1.0
 10
-238.3088176348311
 20
-288.5000000000005
 30
0.0
 10
-238.7916755080907
 20
-288.5000000000004
 30
0.0
 10
-239.2669752206608
 20
-288.4537774999942
 30
0.0
 10
-239.9657816154425
 20
-288.3191211389855
 30
0.0
 10
-240.1963488877743
 20
-288.2633006568381
 30
0.0
 10
-240.6521556699249
 20
-288.1299234238226
 30
0.0
 10
-240.87853787761
 20
-288.0518751597513
 30
0.0
 10
-241.5384695013534
 20
-287.7890360726804
 30
0.0
 10
-241.9529724992599
 20
-287.5763998791153
 30
0.0
 10
-242.7300302281755
 20
-287.0853603677422
 30
0.0
 10
-243.094540792183
 20
-286.8049625546971
 30
0.0
 10
-243.4249168931042
 20
-286.5000000000005
 30
0.0
  0
SPLINE
  5
172
330
1F
100
AcDbEntity
  8
0
  6
Continuous
 62
     7
370
    15
100
AcDbSpline
210
0.0
220
0.0
230
1.0
 70
     8
 71
     3
 72
    16
 73
    12
 74
     0
 42
0.000000001
 43
0.00000001
 40
0.0
 40
0.0
 40
0.0
 40
0.0
 40
0.2500000000000105
 40
0.2500000000000105
 40
0.3750000000000087
 40
0.3750000000000087
 40
0.500000000000007
 40
0.500000000000007
 40
0.7500000000000034
 40
0.7500000000000034
 40
1.0
 40
1.0
 40
1.0
 40
1.0
 10
-208.7839007417267
 20
-286.5000000000005
 30
0.0
 10
-208.453524302128
 20
-286.8049628673223
 30
0.0
 10
-208.0936312657864
 20
-287.0819987197853
 30
0.0
 10
-207.5116961153617
 20
-287.4503975695081
 30
0.0
 10
-207.3106708455966
 20
-287.5653020567893
 30
0.0
 10
-206.8945442758998
 20
-287.7780397147127
 30
0.0
 10
-206.6782699212495
 20
-287.8763036848529
 30
0.0
 10
-206.0183748425399
 20
-288.1392158619917
 30
0.0
 10
-205.5642297397607
 20
-288.2725678458114
 30
0.0
 10
-204.6318880106863
 20
-288.4530393568668
 30
0.0
 10
-204.1506588617231
 20
-288.5000000000005
 30
0.0
 10
-203.6678014834535
 20
-288.5000000000005
 30
0.0
  0
SPLINE
  5
173
330
1F
100
AcDbEntity
  8
0
  6
Continuous
 62
     7
370
    15
100
AcDbSpline
210
0.0
220
0.0
230
1.0
 70
     8
 71
     3
 72
    16
 73
    12
 74
     0
 42
0.000000001
 43
0.00000001
 40
0.0
 40
0.0
 40
0.0
 40
0.0
 40
0.2499999999999989
 40
0.2499999999999989
 40
0.3750000000000022
 40
0.3750000000000022
 40
0.5000000000000054
 40
0.5000000000000054
 40
0.7500000000000028
 40
0.7500000000000028
 40
1.0
 40
1.0
 40
1.0
 40
1.0
 10
203.6678014834534
 20
-288.5000000000004
 30
0.0
 10
204.150659356713
 20
-288.5000000000005
 30
0.0
 10
204.625959069283
 20
-288.4537774999942
 30
0.0
 10
205.3247654640648
 20
-288.3191211389855
 30
0.0
 10
205.5553327363967
 20
-288.2633006568382
 30
0.0
 10
206.0111395185472
 20
-288.1299234238225
 30
0.0
 10
206.2375217262322
 20
-288.0518751597513
 30
0.0
 10
206.8974533499759
 20
-287.7890360726806
 30
0.0
 10
207.3119563478824
 20
-287.5763998791155
 30
0.0
 10
208.089014076798
 20
-287.0853603677422
 30
0.0
 10
208.4535246408055
 20
-286.8049625546969
 30
0.0
 10
208.7839007417268
 20
-286.5000000000004
 30
0.0
  0
SPLINE
  5
175
330
1F
100
AcDbEntity
  8
0
  6
Continuous
 62
     7
370
    15
100
AcDbSpline
210
0.0
220
0.0
230
1.0
 70
     8
 71
     3
 72
    16
 73
    12
 74
     0
 42
0.000000001
 43
0.00000001
 40
0.0
 40
0.0
 40
0.0
 40
0.0
 40
0.2499999999999741
 40
0.2499999999999741
 40
0.3749999999999744
 40
0.3749999999999744
 40
0.4999999999999746
 40
0.4999999999999746
 40
0.7499999999999872
 40
0.7499999999999872
 40
1.0
 40
1.0
 40
1.0
 40
1.0
 10
243.4249168931046
 20
-286.5000000000004
 30
0.0
 10
243.094540453506
 20
-286.8049628673223
 30
0.0
 10
242.7346474171643
 20
-287.0819987197856
 30
0.0
 10
242.1527122667396
 20
-287.4503975695083
 30
0.0
 10
241.9516869969746
 20
-287.5653020567894
 30
0.0
 10
241.5355604272779
 20
-287.7780397147127
 30
0.0
 10
241.3192860726273
 20
-287.8763036848528
 30
0.0
 10
240.6593909939176
 20
-288.1392158619915
 30
0.0
 10
240.2052458911385
 20
-288.2725678458116
 30
0.0
 10
239.2729041620642
 20
-288.4530393568672
 30
0.0
 10
238.7916750131009
 20
-288.5000000000005
 30
0.0
 10
238.3088176348314
 20
-288.5000000000005
 30
0.0
  0
SPLINE
  5
177
330
1F
100
AcDbEntity
  8
0
  6
Continuous
 62
     7
370
    15
100
AcDbSpline
210
0.0
220
0.0
230
1.0
 70
     8
 71
     3
 72
    18
 73
    14
 74
     0
 42
0.000000001
 43
0.00000001
 40
0.0
 40
0.0
 40
0.0
 40
0.0
 40
0.2500000000000032
 40
0.2500000000000032
 40
0.3750000000000027
 40
0.3750000000000027
 40
0.5000000000000022
 40
0.5000000000000022
 40
0.6250000000000017
 40
0.6250000000000017
 40
0.7500000000000012
 40
0.7500000000000012
 40
1.0
 40
1.0
 40
1.0
 40
1.0
 10
247.9249168931047
 20
-289.5000000000003
 30
0.0
 10
247.3657633237445
 20
-290.262482140037
 30
0.0
 10
246.7320811671118
 20
-290.9519547767836
 30
0.0
 10
245.6692676549675
 20
-291.8755109506114
 30
0.0
 10
245.2936682549663
 20
-292.1663256012085
 30
0.0
 10
244.514108983923
 20
-292.7001126275281
 30
0.0
 10
244.1125629870184
 20
-292.9418923180426
 30
0.0
 10
243.2861275460026
 20
-293.3761457588241
 30
0.0
 10
242.8612262529072
 20
-293.5686058092758
 30
0.0
 10
241.9872668570177
 20
-293.9030390046892
 30
0.0
 10
241.5354342668863
 20
-294.0454984993479
 30
0.0
 10
240.1727144663202
 20
-294.3853485441816
 30
0.0
 10
239.2492123419179
 20
-294.5000000000006
 30
0.0
 10
238.3088176348314
 20
-294.5000000000005
 30
0.0
  0
LWPOLYLINE
  5
182
330
1F
100
AcDbEntity
  8
0
  6
Continuous
 62
     7
370
    15
100
AcDbPolyline
 90
        3
 70
   128
 43
0.0
 10
-1.399
 20
72.1127367746
 10
-1.49
 20
71.6
 10
-1.399
 20
71.0872632254
  0
LWPOLYLINE
  5
184
330
1F
100
AcDbEntity
  8
0
  6
Continuous
 62
     7
370
    15
100
AcDbPolyline
 90
        3
 70
   128
 43
0.0
 10
-1.399
 20
47.1127367746
 10
-1.49
 20
46.6
 10
-1.399
 20
46.0872632254
  0
SPLINE
  5
1EF
330
1F
100
AcDbEntity
  8
0
  6
Continuous
 62
     7
370
    15
100
AcDbSpline
210
0.0
220
0.0
230
1.0
 70
     8
 71
     3
 72
    10
 73
     6
 74
     0
 42
0.000000001
 43
0.00000001
 40
0.0
 40
0.0
 40
0.0
 40
0.0
 40
0.5
 40
0.5
 40
1.0
 40
1.0
 40
1.0
 40
1.0
 10
216.646448267194
 20
-80.0614445986924
 30
0.0
 10
216.7144429031175
 20
-80.67012245508333
 30
0.0
 10
216.7536279441724
 20
-81.2804836141776
 30
0.0
 10
216.7536279441723
 20
-82.50578498221336
 30
0.0
 10
216.7144429031175
 20
-83.11614614130613
 30
0.0
 10
216.646448267194
 20
-83.72482399769709
 30
0.0
  0
SPLINE
  5
1F1
330
1F
100
AcDbEntity
  8
0
  6
Continuous
 62
     7
370
    15
100
AcDbSpline
210
0.0
220
0.0
230
1.0
 70
     8
 71
     3
 72
    10
 73
     6
 74
     0
 42
0.000000001
 43
0.00000001
 40
0.0
 40
0.0
 40
0.0
 40
0.0
 40
0.5
 40
0.5
 40
1.0
 40
1.0
 40
1.0
 40
1.0
 10
212.4555517327932
 20
-83.72482399769754
 30
0.0
 10
212.3875570968702
 20
-83.11614614130721
 30
0.0
 10
212.3483720558149
 20
-82.50578498221357
 30
0.0
 10
212.3483720558147
 20
-81.28048361417912
 30
0.0
 10
212.3875570968697
 20
-80.67012245508239
 30
0.0
 10
212.4555517327932
 20
-80.06144459869212
 30
0.0
  0
SPLINE
  5
1F8
330
1F
100
AcDbEntity
  8
0
  6
Continuous
 62
     7
370
    15
100
AcDbSpline
210
0.0
220
0.0
230
1.0
 70
     8
 71
     3
 72
     9
 73
     5
 74
     0
 42
0.000000001
 43
0.00000001
 40
0.0
 40
0.0
 40
0.0
 40
0.0
 40
0.5
 40
1.0
 40
1.0
 40
1.0
 40
1.0
 10
216.646448267194
 20
-84.42308248936223
 30
0.0
 10
216.7146535161801
 20
-84.70813037843844
 30
0.0
 10
216.792602372163
 20
-85.27822615660739
 30
0.0
 10
216.7146535161801
 20
-85.84832193474362
 30
0.0
 10
216.6464482671939
 20
-86.13336982381983
 30
0.0
  0
SPLINE
  5
1FB
330
1F
100
AcDbEntity
  8
0
  6
Continuous
 62
     7
370
    15
100
AcDbSpline
210
0.0
220
0.0
230
1.0
 70
     8
 71
     3
 72
     9
 73
     5
 74
     0
 42
0.000000001
 43
0.00000001
 40
0.0
 40
0.0
 40
0.0
 40
0.0
 40
0.5
 40
1.0
 40
1.0
 40
1.0
 40
1.0
 10
216.6464482671939
 20
-77.37854380443835
 30
0.0
 10
216.7146535161801
 20
-77.7040591485295
 30
0.0
 10
216.7926023721629
 20
-78.35508983673073
 30
0.0
 10
216.7146535161802
 20
-79.00612052489411
 30
0.0
 10
216.6464482671939
 20
-79.33163586898523
 30
0.0
  0
SPLINE
  5
201
330
1F
100
AcDbEntity
  8
0
  6
Continuous
 62
     7
370
    15
100
AcDbSpline
210
0.0
220
0.0
230
1.0
 70
     8
 71
     3
 72
    10
 73
     6
 74
     0
 42
0.000000001
 43
0.00000001
 40
0.0
 40
0.0
 40
0.0
 40
0.0
 40
0.5
 40
0.5
 40
1.0
 40
1.0
 40
1.0
 40
1.0
 10
212.455551732797
 20
274.5019021022982
 30
0.0
 10
212.3875570968785
 20
275.1109189450402
 30
0.0
 10
212.3483720558266
 20
275.721620027954
 30
0.0
 10
212.3483720558266
 20
276.9476037938041
 30
0.0
 10
212.3875570968785
 20
277.558304876717
 30
0.0
 10
212.4555517327969
 20
278.1673217194589
 30
0.0
  0
SPLINE
  5
203
330
1F
100
AcDbEntity
  8
0
  6
Continuous
 62
     7
370
    15
100
AcDbSpline
210
0.0
220
0.0
230
1.0
 70
     8
 71
     3
 72
    10
 73
     6
 74
     0
 42
0.000000001
 43
0.00000001
 40
0.0
 40
0.0
 40
0.0
 40
0.0
 40
0.5
 40
0.5
 40
1.0
 40
1.0
 40
1.0
 40
1.0
 10
216.6464482671903
 20
278.1673217194584
 30
0.0
 10
216.7144429031086
 20
277.5583048767178
 30
0.0
 10
216.7536279441605
 20
276.9476037938031
 30
0.0
 10
216.7536279441606
 20
275.7216200279552
 30
0.0
 10
216.7144429031086
 20
275.1109189450387
 30
0.0
 10
216.6464482671902
 20
274.501902102298
 30
0.0
  0
SPLINE
  5
206
330
1F
100
AcDbEntity
  8
0
  6
Continuous
 62
     7
370
    15
100
AcDbSpline
210
0.0
220
0.0
230
1.0
 70
     8
 71
     3
 72
     9
 73
     5
 74
     0
 42
0.000000001
 43
0.00000001
 40
0.0
 40
0.0
 40
0.0
 40
0.0
 40
0.5
 40
1.0
 40
1.0
 40
1.0
 40
1.0
 10
216.6464482671903
 20
280.6473832049058
 30
0.0
 10
216.7146535161711
 20
280.3518258341982
 30
0.0
 10
216.7926023721499
 20
279.7607110927834
 30
0.0
 10
216.7146535161712
 20
279.169596351362
 30
0.0
 10
216.6464482671903
 20
278.8740389806545
 30
0.0
  0
SPLINE
  5
209
330
1F
100
AcDbEntity
  8
0
  6
Continuous
 62
     7
370
    15
100
AcDbSpline
210
0.0
220
0.0
230
1.0
 70
     8
 71
     3
 72
     9
 73
     5
 74
     0
 42
0.000000001
 43
0.00000001
 40
0.0
 40
0.0
 40
0.0
 40
0.0
 40
0.5
 40
1.0
 40
1.0
 40
1.0
 40
1.0
 10
216.6464482671901
 20
273.7797568194458
 30
0.0
 10
216.7146535161711
 20
273.4644109206283
 30
0.0
 10
216.79260237215
 20
272.8337191229966
 30
0.0
 10
216.7146535161712
 20
272.2030273253546
 30
0.0
 10
216.6464482671902
 20
271.8876814265372
 30
0.0
  0
SPLINE
  5
210
330
1F
100
AcDbEntity
  8
0
  6
Continuous
 62
     7
370
    15
100
AcDbSpline
210
0.0
220
0.0
230
1.0
 70
     8
 71
     3
 72
     9
 73
     5
 74
     0
 42
0.000000001
 43
0.00000001
 40
0.0
 40
0.0
 40
0.0
 40
0.0
 40
0.5
 40
1.0
 40
1.0
 40
1.0
 40
1.0
 10
-213.2535517328236
 20
-77.35956494098274
 30
0.0
 10
-213.1853464838409
 20
-77.66506998731215
 30
0.0
 10
-213.1073976278602
 20
-78.27608007997536
 30
0.0
 10
-213.1853464838399
 20
-78.88709017262873
 30
0.0
 10
-213.2535517328225
 20
-79.19259521895815
 30
0.0
  0
SPLINE
  5
213
330
1F
100
AcDbEntity
  8
0
  6
Continuous
 62
     7
370
    15
100
AcDbSpline
210
0.0
220
0.0
230
1.0
 70
     8
 71
     3
 72
     9
 73
     5
 74
     0
 42
0.000000001
 43
0.00000001
 40
0.0
 40
0.0
 40
0.0
 40
0.0
 40
0.5
 40
1.0
 40
1.0
 40
1.0
 40
1.0
 10
-213.2535517328238
 20
-84.28776817125626
 30
0.0
 10
-213.185346483841
 20
-84.5932732175857
 30
0.0
 10
-213.1073976278603
 20
-85.20428331025099
 30
0.0
 10
-213.1853464838399
 20
-85.81529340290474
 30
0.0
 10
-213.2535517328226
 20
-86.1207984492342
 30
0.0
  0
SPLINE
  5
215
330
1F
100
AcDbEntity
  8
0
  6
Continuous
 62
     7
370
    15
100
AcDbSpline
210
0.0
220
0.0
230
1.0
 70
     8
 71
     3
 72
    10
 73
     6
 74
     0
 42
0.000000001
 43
0.00000001
 40
0.0
 40
0.0
 40
0.0
 40
0.0
 40
0.5
 40
0.5
 40
1.0
 40
1.0
 40
1.0
 40
1.0
 10
-213.2535517328236
 20
-79.90715141713095
 30
0.0
 10
-213.1855570969036
 20
-80.5162747531425
 30
0.0
 10
-213.1463720558499
 20
-81.12708262383353
 30
0.0
 10
-213.1463720558498
 20
-82.35328076638211
 30
0.0
 10
-213.1855570969025
 20
-82.96408863707292
 30
0.0
 10
-213.2535517328225
 20
-83.57321197308451
 30
0.0
  0
SPLINE
  5
21A
330
1F
100
AcDbEntity
  8
0
  6
Continuous
 62
     7
370
    15
100
AcDbSpline
210
0.0
220
0.0
230
1.0
 70
     8
 71
     3
 72
    10
 73
     6
 74
     0
 42
0.000000001
 43
0.00000001
 40
0.0
 40
0.0
 40
0.0
 40
0.0
 40
0.5
 40
0.5
 40
1.0
 40
1.0
 40
1.0
 40
1.0
 10
-217.4444482671972
 20
-83.57321197308572
 30
0.0
 10
-217.5124429031165
 20
-82.96408863708093
 30
0.0
 10
-217.5516279441701
 20
-82.35328076637518
 30
0.0
 10
-217.55162794417
 20
-81.12708262384027
 30
0.0
 10
-217.5124429031161
 20
-80.51627475312982
 30
0.0
 10
-217.4444482671966
 20
-79.90715141712506
 30
0.0
  0
SPLINE
  5
21F
330
1F
100
AcDbEntity
  8
0
  6
Continuous
 62
     7
370
    15
100
AcDbSpline
210
0.0
220
0.0
230
1.0
 70
     8
 71
     3
 72
     9
 73
     5
 74
     0
 42
0.000000001
 43
0.00000001
 40
0.0
 40
0.0
 40
0.0
 40
0.0
 40
0.5
 40
1.0
 40
1.0
 40
1.0
 40
1.0
 10
-217.4444482671971
 20
-86.12079844923484
 30
0.0
 10
-217.5126535161781
 20
-85.81529340291308
 30
0.0
 10
-217.5906023721618
 20
-85.20428331026957
 30
0.0
 10
-217.5126535161782
 20
-84.59327321757878
 30
0.0
 10
-217.4444482671971
 20
-84.28776817125699
 30
0.0
  0
SPLINE
  5
222
330
1F
100
AcDbEntity
  8
0
  6
Continuous
 62
     7
370
    15
100
AcDbSpline
210
0.0
220
0.0
230
1.0
 70
     8
 71
     3
 72
     9
 73
     5
 74
     0
 42
0.000000001
 43
0.00000001
 40
0.0
 40
0.0
 40
0.0
 40
0.0
 40
0.5
 40
1.0
 40
1.0
 40
1.0
 40
1.0
 10
-217.4444482671967
 20
-79.19259521896113
 30
0.0
 10
-217.5126535161787
 20
-78.88709017263504
 30
0.0
 10
-217.5906023721629
 20
-78.27608008000597
 30
0.0
 10
-217.5126535161792
 20
-77.66506998730716
 30
0.0
 10
-217.4444482671972
 20
-77.35956494098106
 30
0.0
  0
SPLINE
  5
224
330
1F
100
AcDbEntity
  8
0
  6
Continuous
 62
     7
370
    15
100
AcDbSpline
210
0.0
220
0.0
230
1.0
 70
     8
 71
     3
 72
     9
 73
     5
 74
     0
 42
0.000000001
 43
0.00000001
 40
0.0
 40
0.0
 40
0.0
 40
0.0
 40
0.5
 40
1.0
 40
1.0
 40
1.0
 40
1.0
 10
-217.4444482671971
 20
271.8792015507652
 30
0.0
 10
-217.5126535161781
 20
272.184706597087
 30
0.0
 10
-217.5906023721618
 20
272.7957166897305
 30
0.0
 10
-217.5126535161781
 20
273.4067267824213
 30
0.0
 10
-217.4444482671971
 20
273.712231828743
 30
0.0
  0
SPLINE
  5
227
330
1F
100
AcDbEntity
  8
0
  6
Continuous
 62
     7
370
    15
100
AcDbSpline
210
0.0
220
0.0
230
1.0
 70
     8
 71
     3
 72
     9
 73
     5
 74
     0
 42
0.000000001
 43
0.00000001
 40
0.0
 40
0.0
 40
0.0
 40
0.0
 40
0.5
 40
1.0
 40
1.0
 40
1.0
 40
1.0
 10
-217.4444482671966
 20
278.8074047810389
 30
0.0
 10
-217.5126535161787
 20
279.1129098273651
 30
0.0
 10
-217.590602372163
 20
279.723919919994
 30
0.0
 10
-217.5126535161792
 20
280.334930012693
 30
0.0
 10
-217.4444482671972
 20
280.640435059019
 30
0.0
  0
SPLINE
  5
229
330
1F
100
AcDbEntity
  8
0
  6
Continuous
 62
     7
370
    15
100
AcDbSpline
210
0.0
220
0.0
230
1.0
 70
     8
 71
     3
 72
    10
 73
     6
 74
     0
 42
0.000000001
 43
0.00000001
 40
0.0
 40
0.0
 40
0.0
 40
0.0
 40
0.5
 40
0.5
 40
1.0
 40
1.0
 40
1.0
 40
1.0
 10
-217.4444482671972
 20
274.4267880269143
 30
0.0
 10
-217.5124429031164
 20
275.0359113629191
 30
0.0
 10
-217.5516279441701
 20
275.6467192336249
 30
0.0
 10
-217.55162794417
 20
276.8729173761598
 30
0.0
 10
-217.5124429031161
 20
277.4837252468703
 30
0.0
 10
-217.4444482671966
 20
278.092848582875
 30
0.0
  0
SPLINE
  5
22B
330
1F
100
AcDbEntity
  8
0
  6
Continuous
 62
     7
370
    15
100
AcDbSpline
210
0.0
220
0.0
230
1.0
 70
     8
 71
     3
 72
    10
 73
     6
 74
     0
 42
0.000000001
 43
0.00000001
 40
0.0
 40
0.0
 40
0.0
 40
0.0
 40
0.5
 40
0.5
 40
1.0
 40
1.0
 40
1.0
 40
1.0
 10
-213.2535517328237
 20
278.0928485828692
 30
0.0
 10
-213.1855570969036
 20
277.4837252468576
 30
0.0
 10
-213.1463720558499
 20
276.8729173761666
 30
0.0
 10
-213.1463720558498
 20
275.6467192336179
 30
0.0
 10
-213.1855570969025
 20
275.0359113629272
 30
0.0
 10
-213.2535517328225
 20
274.4267880269155
 30
0.0
  0
SPLINE
  5
22E
330
1F
100
AcDbEntity
  8
0
  6
Continuous
 62
     7
370
    15
100
AcDbSpline
210
0.0
220
0.0
230
1.0
 70
     8
 71
     3
 72
     9
 73
     5
 74
     0
 42
0.000000001
 43
0.00000001
 40
0.0
 40
0.0
 40
0.0
 40
0.0
 40
0.5
 40
1.0
 40
1.0
 40
1.0
 40
1.0
 10
-213.2535517328236
 20
280.6404350590173
 30
0.0
 10
-213.1853464838409
 20
280.3349300126878
 30
0.0
 10
-213.1073976278602
 20
279.7239199200247
 30
0.0
 10
-213.1853464838399
 20
279.1129098273714
 30
0.0
 10
-213.2535517328225
 20
278.807404781042
 30
0.0
  0
SPLINE
  5
231
330
1F
100
AcDbEntity
  8
0
  6
Continuous
 62
     7
370
    15
100
AcDbSpline
210
0.0
220
0.0
230
1.0
 70
     8
 71
     3
 72
     9
 73
     5
 74
     0
 42
0.000000001
 43
0.00000001
 40
0.0
 40
0.0
 40
0.0
 40
0.0
 40
0.5
 40
1.0
 40
1.0
 40
1.0
 40
1.0
 10
-213.2535517328237
 20
273.7122318287438
 30
0.0
 10
-213.185346483841
 20
273.4067267824142
 30
0.0
 10
-213.1073976278603
 20
272.795716689749
 30
0.0
 10
-213.1853464838399
 20
272.1847065970956
 30
0.0
 10
-213.2535517328226
 20
271.8792015507659
 30
0.0
  0
CIRCLE
  5
273
330
1F
100
AcDbEntity
  8
0
  6
Continuous
 62
     7
370
    15
100
AcDbCircle
 10
223.5
 20
-154.2401816951
 30
0.0
 40
3.250000000000028
  0
CIRCLE
  5
274
330
1F
100
AcDbEntity
  8
0
  6
Continuous
 62
     7
370
    15
100
AcDbCircle
 10
223.5
 20
103.7598183049
 30
0.0
 40
3.250000000000028
  0
CIRCLE
  5
275
330
1F
100
AcDbEntity
  8
0
  6
Continuous
 62
     7
370
    15
100
AcDbCircle
 10
80.0
 20
-200.2401816951
 30
0.0
 40
3.25
  0
CIRCLE
  5
278
330
1F
100
AcDbEntity
  8
0
  6
Continuous
 62
     7
370
    15
100
AcDbCircle
 10
223.5
 20
232.7598183049
 30
0.0
 40
3.250000000000028
  0
CIRCLE
  5
279
330
1F
100
AcDbEntity
  8
0
  6
Continuous
 62
     7
370
    15
100
AcDbCircle
 10
223.5
 20
-25.2401816951
 30
0.0
 40
3.250000000000028
  0
CIRCLE
  5
27E
330
1F
100
AcDbEntity
  8
0
  6
Continuous
 62
     7
370
    15
100
AcDbCircle
 10
-223.5
 20
-154.2401816951
 30
0.0
 40
3.25
  0
CIRCLE
  5
27F
330
1F
100
AcDbEntity
  8
0
  6
Continuous
 62
     7
370
    15
100
AcDbCircle
 10
-223.5
 20
103.7598183049
 30
0.0
 40
3.25
  0
CIRCLE
  5
280
330
1F
100
AcDbEntity
  8
0
  6
Continuous
 62
     7
370
    15
100
AcDbCircle
 10
-80.0
 20
-200.2401816951
 30
0.0
 40
3.25
  0
CIRCLE
  5
283
330
1F
100
AcDbEntity
  8
0
  6
Continuous
 62
     7
370
    15
100
AcDbCircle
 10
-223.5
 20
232.7598183049
 30
0.0
 40
3.25
  0
CIRCLE
  5
284
330
1F
100
AcDbEntity
  8
0
  6
Continuous
 62
     7
370
    15
100
AcDbCircle
 10
-223.5
 20
-25.2401816951
 30
0.0
 40
3.25
  0
SPLINE
  5
2B1
330
1F
100
AcDbEntity
  8
0
  6
Continuous
 62
     7
370
    15
100
AcDbSpline
210
0.0
220
0.0
230
1.0
 70
     8
 71
     3
 72
    14
 73
    10
 74
     0
 42
0.000000001
 43
0.00000001
 40
0.0
 40
0.0
 40
0.0
 40
0.0
 40
0.25
 40
0.25
 40
0.5
 40
0.5
 40
0.75
 40
0.75
 40
1.0
 40
1.0
 40
1.0
 40
1.0
 10
233.0009999999941
 20
-209.7401816951077
 30
0.0
 10
233.3312763286171
 20
-209.950442136254
 30
0.0
 10
233.6524265510818
 20
-210.1548371534196
 30
0.0
 10
234.2620925678997
 20
-210.5749074451695
 30
0.0
 10
234.5349483210087
 20
-210.7797525207447
 30
0.0
 10
235.0012100412196
 20
-211.1993726853475
 30
0.0
 10
235.1839818504361
 20
-211.4046708935717
 30
0.0
 10
235.436314260065
 20
-211.8238612608632
 30
0.0
 10
235.5009999999941
 20
-212.0299212592443
 30
0.0
 10
235.500999999994
 20
-212.2401816951077
 30
0.0
  0
SPLINE
  5
2B3
330
1F
100
AcDbEntity
  8
0
  6
Continuous
 62
     7
370
    15
100
AcDbSpline
210
0.0
220
0.0
230
1.0
 70
     8
 71
     3
 72
    14
 73
    10
 74
     0
 42
0.000000001
 43
0.00000001
 40
0.0
 40
0.0
 40
0.0
 40
0.0
 40
0.25
 40
0.25
 40
0.5
 40
0.5
 40
0.75
 40
0.75
 40
1.0
 40
1.0
 40
1.0
 40
1.0
 10
233.0009999999941
 20
-209.7401816951077
 30
0.0
 10
233.1328315813952
 20
-209.9499981734637
 30
0.0
 10
233.2626578527172
 20
-210.1567116583082
 30
0.0
 10
233.5043131175883
 20
-210.5729697623571
 30
0.0
 10
233.6160555661467
 20
-210.7830138435152
 30
0.0
 10
233.8000199288196
 20
-211.1970388010164
 30
0.0
 10
233.8737442704268
 20
-211.4032062532904
 30
0.0
 10
233.9749717267335
 20
-211.8228262080333
 30
0.0
 10
234.0009999999941
 20
-212.030365246019
 30
0.0
 10
234.000999999994
 20
-212.2401816951077
 30
0.0
  0
SPLINE
  5
2B5
330
1F
100
AcDbEntity
  8
0
  6
Continuous
 62
     7
370
    15
100
AcDbSpline
210
0.0
220
0.0
230
1.0
 70
     8
 71
     3
 72
    14
 73
    10
 74
     0
 42
0.000000001
 43
0.00000001
 40
0.0
 40
0.0
 40
0.0
 40
0.0
 40
0.25
 40
0.25
 40
0.5
 40
0.5
 40
0.75
 40
0.75
 40
1.0
 40
1.0
 40
1.0
 40
1.0
 10
235.500999999994
 20
296.7598183048928
 30
0.0
 10
235.500999999994
 20
296.5495578637464
 30
0.0
 10
235.4370813162932
 20
296.3451628465809
 30
0.0
 10
235.1846882255101
 20
295.9250925548307
 30
0.0
 10
235.0024040182598
 20
295.720247479256
 30
0.0
 10
234.5365048963894
 20
295.3006273146534
 30
0.0
 10
234.2631344108881
 20
295.0953291064289
 30
0.0
 10
233.6549399706468
 20
294.6761387391376
 30
0.0
 10
233.3312763203188
 20
294.4700787407563
 30
0.0
 10
233.0009999999941
 20
294.2598183048929
 30
0.0
  0
SPLINE
  5
2BD
330
1F
100
AcDbEntity
  8
0
  6
Continuous
 62
     7
370
    15
100
AcDbSpline
210
0.0
220
0.0
230
1.0
 70
     8
 71
     3
 72
    14
 73
    10
 74
     0
 42
0.000000001
 43
0.00000001
 40
0.0
 40
0.0
 40
0.0
 40
0.0
 40
0.25
 40
0.25
 40
0.5
 40
0.5
 40
0.75
 40
0.75
 40
1.0
 40
1.0
 40
1.0
 40
1.0
 10
234.000999999994
 20
296.7598183048928
 30
0.0
 10
234.000999999994
 20
296.5500018265368
 30
0.0
 10
233.9749796183775
 20
296.3432883416921
 30
0.0
 10
233.8749433817845
 20
295.9270302376434
 30
0.0
 10
233.8001400319606
 20
295.7169861564853
 30
0.0
 10
233.6162115843177
 20
295.3029611989841
 30
0.0
 10
233.5066637563607
 20
295.0967937467103
 30
0.0
 10
233.2632164594092
 20
294.6771737919674
 30
0.0
 10
233.1328315630061
 20
294.4696347539816
 30
0.0
 10
233.0009999999941
 20
294.2598183048929
 30
0.0
  0
SPLINE
  5
2C0
330
1F
100
AcDbEntity
  8
0
  6
Continuous
 62
     7
370
    15
100
AcDbSpline
210
0.0
220
0.0
230
1.0
 70
     8
 71
     3
 72
    14
 73
    10
 74
     0
 42
0.000000001
 43
0.00000001
 40
0.0
 40
0.0
 40
0.0
 40
0.0
 40
0.25
 40
0.25
 40
0.5
 40
0.5
 40
0.75
 40
0.75
 40
1.0
 40
1.0
 40
1.0
 40
1.0
 10
-235.5010000000065
 20
-212.2401816951077
 30
0.0
 10
-235.5010000000065
 20
-212.0299212539614
 30
0.0
 10
-235.437081316306
 20
-211.825526236796
 30
0.0
 10
-235.1846882255227
 20
-211.4054559450458
 30
0.0
 10
-235.0024040182724
 20
-211.2006108694708
 30
0.0
 10
-234.5365048964019
 20
-210.780990704868
 30
0.0
 10
-234.2631344109005
 20
-210.5756924966438
 30
0.0
 10
-233.6549399706593
 20
-210.1565021293523
 30
0.0
 10
-233.3312763203311
 20
-209.9504421309711
 30
0.0
 10
-233.0010000000065
 20
-209.7401816951077
 30
0.0
  0
SPLINE
  5
2C1
330
1F
100
AcDbEntity
  8
0
  6
Continuous
 62
     7
370
    15
100
AcDbSpline
210
0.0
220
0.0
230
1.0
 70
     8
 71
     3
 72
    14
 73
    10
 74
     0
 42
0.000000001
 43
0.00000001
 40
0.0
 40
0.0
 40
0.0
 40
0.0
 40
0.25
 40
0.25
 40
0.5
 40
0.5
 40
0.75
 40
0.75
 40
1.0
 40
1.0
 40
1.0
 40
1.0
 10
-233.0010000000065
 20
-209.7401816951077
 30
0.0
 10
-233.1328315814075
 20
-209.9499981734637
 30
0.0
 10
-233.2626578527297
 20
-210.1567116583083
 30
0.0
 10
-233.5043131176008
 20
-210.5729697623572
 30
0.0
 10
-233.6160555661591
 20
-210.7830138435153
 30
0.0
 10
-233.8000199288322
 20
-211.1970388010164
 30
0.0
 10
-233.8737442704393
 20
-211.4032062532904
 30
0.0
 10
-233.9749717267458
 20
-211.8228262080333
 30
0.0
 10
-234.0010000000066
 20
-212.030365246019
 30
0.0
 10
-234.0010000000065
 20
-212.2401816951077
 30
0.0
  0
SPLINE
  5
2C3
330
1F
100
AcDbEntity
  8
0
  6
Continuous
 62
     7
370
    15
100
AcDbSpline
210
0.0
220
0.0
230
1.0
 70
     8
 71
     3
 72
    14
 73
    10
 74
     0
 42
0.000000001
 43
0.00000001
 40
0.0
 40
0.0
 40
0.0
 40
0.0
 40
0.25
 40
0.25
 40
0.5
 40
0.5
 40
0.75
 40
0.75
 40
1.0
 40
1.0
 40
1.0
 40
1.0
 10
-233.0010000000065
 20
294.2598183048929
 30
0.0
 10
-233.3312763286295
 20
294.4700787460392
 30
0.0
 10
-233.6524265510943
 20
294.6744737632049
 30
0.0
 10
-234.2620925679122
 20
295.0945440549548
 30
0.0
 10
-234.5349483210212
 20
295.2993891305298
 30
0.0
 10
-235.0012100412321
 20
295.7190092951328
 30
0.0
 10
-235.1839818504487
 20
295.9243075033567
 30
0.0
 10
-235.4363142600776
 20
296.3434978706483
 30
0.0
 10
-235.5010000000066
 20
296.5495578690294
 30
0.0
 10
-235.5010000000065
 20
296.7598183048928
 30
0.0
  0
SPLINE
  5
2C5
330
1F
100
AcDbEntity
  8
0
  6
Continuous
 62
     7
370
    15
100
AcDbSpline
210
0.0
220
0.0
230
1.0
 70
     8
 71
     3
 72
    14
 73
    10
 74
     0
 42
0.000000001
 43
0.00000001
 40
0.0
 40
0.0
 40
0.0
 40
0.0
 40
0.25
 40
0.25
 40
0.5
 40
0.5
 40
0.75
 40
0.75
 40
1.0
 40
1.0
 40
1.0
 40
1.0
 10
-234.0010000000065
 20
296.7598183048928
 30
0.0
 10
-234.0010000000065
 20
296.5500018265368
 30
0.0
 10
-233.9749796183899
 20
296.3432883416921
 30
0.0
 10
-233.8749433817971
 20
295.9270302376434
 30
0.0
 10
-233.8001400319729
 20
295.7169861564852
 30
0.0
 10
-233.6162115843302
 20
295.3029611989841
 30
0.0
 10
-233.5066637563731
 20
295.0967937467101
 30
0.0
 10
-233.2632164594215
 20
294.6771737919673
 30
0.0
 10
-233.1328315630183
 20
294.4696347539816
 30
0.0
 10
-233.0010000000065
 20
294.2598183048929
 30
0.0
  0
LINE
  5
2FA
330
1F
100
AcDbEntity
  8
0
  6
Continuous
 62
     7
370
    15
100
AcDbLine
 10
251.6998941279
 20
-49.5602179126
 30
0.0
 11
245.7003842488
 21
-49.5313367526
 31
0.0
  0
LINE
  5
2FB
330
1F
100
AcDbEntity
  8
0
  6
Continuous
 62
     7
370
    15
100
AcDbLine
 10
-245.7003842488
 20
-49.5313367526
 30
0.0
 11
-251.6998941279
 21
-49.5602179126
 31
0.0
  0
LINE
  5
2FC
330
1F
100
AcDbEntity
  8
0
  6
Continuous
 62
     7
370
    15
100
AcDbLine
 10
-251.4045855036
 20
-64.0325462995
 30
0.0
 11
-251.6336514402
 21
-64.0336490046
 31
0.0
  0
LINE
  5
2FD
330
1F
100
AcDbEntity
  8
0
  6
Continuous
 62
     7
370
    15
100
AcDbLine
 10
251.6287333486
 20
-64.0289159293
 30
0.0
 11
251.4047918489
 21
-64.0278378929
 31
0.0
  0
LINE
  5
2FE
330
1F
100
AcDbEntity
  8
0
  6
Continuous
 62
     7
370
    15
100
AcDbLine
 10
-251.9129171894
 20
-240.1394683831
 30
0.0
 11
-251.1431244371
 21
-282.6326183745
 31
0.0
  0
LINE
  5
2FF
330
1F
100
AcDbEntity
  8
0
  6
Continuous
 62
     7
370
    15
100
AcDbLine
 10
251.1431277575
 20
-282.6324350831
 30
0.0
 11
251.912913869
 21
-240.1396516746
 31
0.0
  0
LINE
  5
300
330
1F
100
AcDbEntity
  8
0
  6
Continuous
 62
     7
370
    15
100
AcDbLine
 10
-211.999
 20
-77.1401816951
 30
0.0
 11
-212.999
 21
-77.1401816951
 31
0.0
  0
LINE
  5
301
330
1F
100
AcDbEntity
  8
0
  6
Continuous
 62
     7
370
    15
100
AcDbLine
 10
211.201
 20
-86.3401816951
 30
0.0
 11
212.201
 21
-86.3401816951
 31
0.0
  0
LINE
  5
302
330
1F
100
AcDbEntity
  8
0
  6
Continuous
 62
     7
370
    15
100
AcDbLine
 10
-211.999
 20
280.8598183049
 30
0.0
 11
-212.999
 21
280.8598183049
 31
0.0
  0
LINE
  5
303
330
1F
100
AcDbEntity
  8
0
  6
Continuous
 62
     7
370
    15
100
AcDbLine
 10
212.201
 20
280.8598183049
 30
0.0
 11
211.201
 21
280.8598183049
 31
0.0
  0
LINE
  5
304
330
1F
100
AcDbEntity
  8
0
  6
Continuous
 62
     7
370
    15
100
AcDbLine
 10
212.4555517328
 20
-77.3401816951
 30
0.0
 11
212.201
 21
-78.2901816951
 31
0.0
  0
LINE
  5
305
330
1F
100
AcDbEntity
  8
0
  6
Continuous
 62
     7
370
    15
100
AcDbLine
 10
212.201
 20
-85.1901816951
 30
0.0
 11
212.4555517328
 21
-86.1401816952
 31
0.0
  0
LINE
  5
306
330
1F
100
AcDbEntity
  8
0
  6
Continuous
 62
     7
370
    15
100
AcDbLine
 10
216.6464482672
 20
-86.1401816951
 30
0.0
 11
216.901
 21
-85.1901816951
 31
0.0
  0
LINE
  5
307
330
1F
100
AcDbEntity
  8
0
  6
Continuous
 62
     7
370
    15
100
AcDbLine
 10
216.901
 20
-78.2901816951
 30
0.0
 11
216.6464482672
 21
-77.3401816951
 31
0.0
  0
LINE
  5
308
330
1F
100
AcDbEntity
  8
0
  6
Continuous
 62
     7
370
    15
100
AcDbLine
 10
212.4555517328
 20
280.6598183049
 30
0.0
 11
212.201
 21
279.7098183048
 31
0.0
  0
LINE
  5
309
330
1F
100
AcDbEntity
  8
0
  6
Continuous
 62
     7
370
    15
100
AcDbLine
 10
212.201
 20
272.8098183049
 30
0.0
 11
212.4555517328
 21
271.8598183049
 31
0.0
  0
LINE
  5
30A
330
1F
100
AcDbEntity
  8
0
  6
Continuous
 62
     7
370
    15
100
AcDbLine
 10
216.6464482672
 20
271.8598183049
 30
0.0
 11
216.901
 21
272.8098183049
 31
0.0
  0
LINE
  5
30B
330
1F
100
AcDbEntity
  8
0
  6
Continuous
 62
     7
370
    15
100
AcDbLine
 10
216.901
 20
279.7098183049
 30
0.0
 11
216.6464482672
 21
280.6598183049
 31
0.0
  0
LINE
  5
30C
330
1F
100
AcDbEntity
  8
0
  6
Continuous
 62
     7
370
    15
100
AcDbLine
 10
-213.2535517328
 20
-86.1401816951
 30
0.0
 11
-212.999
 21
-85.1901816951
 31
0.0
  0
LINE
  5
30D
330
1F
100
AcDbEntity
  8
0
  6
Continuous
 62
     7
370
    15
100
AcDbLine
 10
-212.999
 20
-78.2901816952
 30
0.0
 11
-213.2535517328
 21
-77.3401816951
 31
0.0
  0
LINE
  5
30E
330
1F
100
AcDbEntity
  8
0
  6
Continuous
 62
     7
370
    15
100
AcDbLine
 10
-217.4444482672
 20
-77.3401816952
 30
0.0
 11
-217.699
 21
-78.2901816951
 31
0.0
  0
LINE
  5
30F
330
1F
100
AcDbEntity
  8
0
  6
Continuous
 62
     7
370
    15
100
AcDbLine
 10
-217.699
 20
-85.1901816951
 30
0.0
 11
-217.4444482672
 21
-86.1401816951
 31
0.0
  0
LINE
  5
310
330
1F
100
AcDbEntity
  8
0
  6
Continuous
 62
     7
370
    15
100
AcDbLine
 10
-217.4444482672
 20
280.6598183048
 30
0.0
 11
-217.699
 21
279.7098183049
 31
0.0
  0
LINE
  5
311
330
1F
100
AcDbEntity
  8
0
  6
Continuous
 62
     7
370
    15
100
AcDbLine
 10
-217.699
 20
272.8098183049
 30
0.0
 11
-217.4444482672
 21
271.8598183049
 31
0.0
  0
LINE
  5
312
330
1F
100
AcDbEntity
  8
0
  6
Continuous
 62
     7
370
    15
100
AcDbLine
 10
-213.2535517328
 20
271.8598183049
 30
0.0
 11
-212.999
 21
272.8098183049
 31
0.0
  0
LINE
  5
313
330
1F
100
AcDbEntity
  8
0
  6
Continuous
 62
     7
370
    15
100
AcDbLine
 10
-212.999
 20
279.7098183048
 30
0.0
 11
-213.2535517328
 21
280.6598183049
 31
0.0
  0
LINE
  5
314
330
1F
100
AcDbEntity
  8
0
  6
Continuous
 62
     7
370
    15
100
AcDbLine
 10
-149.399
 20
-85.7401816951
 30
0.0
 11
-121.399
 21
-85.7401816951
 31
0.0
  0
LINE
  5
315
330
1F
100
AcDbEntity
  8
0
  6
Continuous
 62
     7
370
    15
100
AcDbLine
 10
-121.399
 20
-77.7401816951
 30
0.0
 11
-149.399
 21
-77.7401816951
 31
0.0
  0
LINE
  5
316
330
1F
100
AcDbEntity
  8
0
  6
Continuous
 62
     7
370
    15
100
AcDbLine
 10
150.601
 20
-85.7401816951
 30
0.0
 11
178.601
 21
-85.7401816951
 31
0.0
  0
LINE
  5
317
330
1F
100
AcDbEntity
  8
0
  6
Continuous
 62
     7
370
    15
100
AcDbLine
 10
178.601
 20
-77.7401816951
 30
0.0
 11
150.601
 21
-77.7401816951
 31
0.0
  0
LINE
  5
318
330
1F
100
AcDbEntity
  8
0
  6
Continuous
 62
     7
370
    15
100
AcDbLine
 10
-179.399
 20
-85.7401816951
 30
0.0
 11
-151.399
 21
-85.7401816951
 31
0.0
  0
LINE
  5
319
330
1F
100
AcDbEntity
  8
0
  6
Continuous
 62
     7
370
    15
100
AcDbLine
 10
-151.399
 20
-77.7401816951
 30
0.0
 11
-179.399
 21
-77.7401816951
 31
0.0
  0
LINE
  5
31A
330
1F
100
AcDbEntity
  8
0
  6
Continuous
 62
     7
370
    15
100
AcDbLine
 10
-209.399
 20
-85.7401816951
 30
0.0
 11
-181.399
 21
-85.7401816951
 31
0.0
  0
LINE
  5
31B
330
1F
100
AcDbEntity
  8
0
  6
Continuous
 62
     7
370
    15
100
AcDbLine
 10
-181.399
 20
-77.7401816951
 30
0.0
 11
-209.399
 21
-77.7401816951
 31
0.0
  0
LINE
  5
31C
330
1F
100
AcDbEntity
  8
0
  6
Continuous
 62
     7
370
    15
100
AcDbLine
 10
-119.399
 20
-85.7401816951
 30
0.0
 11
-91.399
 21
-85.7401816951
 31
0.0
  0
LINE
  5
31D
330
1F
100
AcDbEntity
  8
0
  6
Continuous
 62
     7
370
    15
100
AcDbLine
 10
-91.399
 20
-77.7401816951
 30
0.0
 11
-119.399
 21
-77.7401816951
 31
0.0
  0
LINE
  5
31E
330
1F
100
AcDbEntity
  8
0
  6
Continuous
 62
     7
370
    15
100
AcDbLine
 10
90.601
 20
-85.7401816951
 30
0.0
 11
118.601
 21
-85.7401816951
 31
0.0
  0
LINE
  5
31F
330
1F
100
AcDbEntity
  8
0
  6
Continuous
 62
     7
370
    15
100
AcDbLine
 10
118.601
 20
-77.7401816951
 30
0.0
 11
90.601
 21
-77.7401816951
 31
0.0
  0
LINE
  5
320
330
1F
100
AcDbEntity
  8
0
  6
Continuous
 62
     7
370
    15
100
AcDbLine
 10
180.601
 20
-85.7401816951
 30
0.0
 11
208.601
 21
-85.7401816951
 31
0.0
  0
LINE
  5
321
330
1F
100
AcDbEntity
  8
0
  6
Continuous
 62
     7
370
    15
100
AcDbLine
 10
208.601
 20
-77.7401816951
 30
0.0
 11
180.601
 21
-77.7401816951
 31
0.0
  0
LINE
  5
322
330
1F
100
AcDbEntity
  8
0
  6
Continuous
 62
     7
370
    15
100
AcDbLine
 10
-59.399
 20
-85.7401816951
 30
0.0
 11
-31.399
 21
-85.7401816951
 31
0.0
  0
LINE
  5
323
330
1F
100
AcDbEntity
  8
0
  6
Continuous
 62
     7
370
    15
100
AcDbLine
 10
-31.399
 20
-77.7401816951
 30
0.0
 11
-59.399
 21
-77.7401816951
 31
0.0
  0
LINE
  5
324
330
1F
100
AcDbEntity
  8
0
  6
Continuous
 62
     7
370
    15
100
AcDbLine
 10
60.601
 20
-85.7401816951
 30
0.0
 11
88.601
 21
-85.7401816951
 31
0.0
  0
LINE
  5
325
330
1F
100
AcDbEntity
  8
0
  6
Continuous
 62
     7
370
    15
100
AcDbLine
 10
88.601
 20
-77.7401816951
 30
0.0
 11
60.601
 21
-77.7401816951
 31
0.0
  0
LINE
  5
326
330
1F
100
AcDbEntity
  8
0
  6
Continuous
 62
     7
370
    15
100
AcDbLine
 10
30.601
 20
-85.7401816951
 30
0.0
 11
58.601
 21
-85.7401816951
 31
0.0
  0
LINE
  5
327
330
1F
100
AcDbEntity
  8
0
  6
Continuous
 62
     7
370
    15
100
AcDbLine
 10
58.601
 20
-77.7401816951
 30
0.0
 11
30.601
 21
-77.7401816951
 31
0.0
  0
LINE
  5
328
330
1F
100
AcDbEntity
  8
0
  6
Continuous
 62
     7
370
    15
100
AcDbLine
 10
-29.399
 20
-85.7401816951
 30
0.0
 11
-1.399
 21
-85.7401816951
 31
0.0
  0
LINE
  5
329
330
1F
100
AcDbEntity
  8
0
  6
Continuous
 62
     7
370
    15
100
AcDbLine
 10
-1.399
 20
-77.7401816951
 30
0.0
 11
-29.399
 21
-77.7401816951
 31
0.0
  0
LINE
  5
32A
330
1F
100
AcDbEntity
  8
0
  6
Continuous
 62
     7
370
    15
100
AcDbLine
 10
120.601
 20
-85.7401816951
 30
0.0
 11
148.601
 21
-85.7401816951
 31
0.0
  0
LINE
  5
32B
330
1F
100
AcDbEntity
  8
0
  6
Continuous
 62
     7
370
    15
100
AcDbLine
 10
148.601
 20
-77.7401816951
 30
0.0
 11
120.601
 21
-77.7401816951
 31
0.0
  0
LINE
  5
32C
330
1F
100
AcDbEntity
  8
0
  6
Continuous
 62
     7
370
    15
100
AcDbLine
 10
-89.399
 20
-85.7401816951
 30
0.0
 11
-61.399
 21
-85.7401816951
 31
0.0
  0
LINE
  5
32D
330
1F
100
AcDbEntity
  8
0
  6
Continuous
 62
     7
370
    15
100
AcDbLine
 10
-61.399
 20
-77.7401816951
 30
0.0
 11
-89.399
 21
-77.7401816951
 31
0.0
  0
LINE
  5
32E
330
1F
100
AcDbEntity
  8
0
  6
Continuous
 62
     7
370
    15
100
AcDbLine
 10
0.601
 20
-85.7401816951
 30
0.0
 11
28.601
 21
-85.7401816951
 31
0.0
  0
LINE
  5
32F
330
1F
100
AcDbEntity
  8
0
  6
Continuous
 62
     7
370
    15
100
AcDbLine
 10
28.601
 20
-77.7401816951
 30
0.0
 11
0.601
 21
-77.7401816951
 31
0.0
  0
LINE
  5
330
330
1F
100
AcDbEntity
  8
0
  6
Continuous
 62
     7
370
    15
100
AcDbLine
 10
60.601
 20
272.2598183049
 30
0.0
 11
88.601
 21
272.2598183049
 31
0.0
  0
LINE
  5
331
330
1F
100
AcDbEntity
  8
0
  6
Continuous
 62
     7
370
    15
100
AcDbLine
 10
88.601
 20
280.2598183049
 30
0.0
 11
60.601
 21
280.2598183049
 31
0.0
  0
LINE
  5
332
330
1F
100
AcDbEntity
  8
0
  6
Continuous
 62
     7
370
    15
100
AcDbLine
 10
-119.399
 20
272.2598183049
 30
0.0
 11
-91.399
 21
272.2598183049
 31
0.0
  0
LINE
  5
333
330
1F
100
AcDbEntity
  8
0
  6
Continuous
 62
     7
370
    15
100
AcDbLine
 10
-91.399
 20
280.2598183049
 30
0.0
 11
-119.399
 21
280.2598183049
 31
0.0
  0
LINE
  5
334
330
1F
100
AcDbEntity
  8
0
  6
Continuous
 62
     7
370
    15
100
AcDbLine
 10
0.601
 20
272.2598183049
 30
0.0
 11
28.601
 21
272.2598183049
 31
0.0
  0
LINE
  5
335
330
1F
100
AcDbEntity
  8
0
  6
Continuous
 62
     7
370
    15
100
AcDbLine
 10
28.601
 20
280.2598183049
 30
0.0
 11
0.601
 21
280.2598183049
 31
0.0
  0
LINE
  5
336
330
1F
100
AcDbEntity
  8
0
  6
Continuous
 62
     7
370
    15
100
AcDbLine
 10
-89.399
 20
272.2598183049
 30
0.0
 11
-61.399
 21
272.2598183049
 31
0.0
  0
LINE
  5
337
330
1F
100
AcDbEntity
  8
0
  6
Continuous
 62
     7
370
    15
100
AcDbLine
 10
-61.399
 20
280.2598183049
 30
0.0
 11
-89.399
 21
280.2598183049
 31
0.0
  0
LINE
  5
338
330
1F
100
AcDbEntity
  8
0
  6
Continuous
 62
     7
370
    15
100
AcDbLine
 10
120.601
 20
272.2598183049
 30
0.0
 11
148.601
 21
272.2598183049
 31
0.0
  0
LINE
  5
339
330
1F
100
AcDbEntity
  8
0
  6
Continuous
 62
     7
370
    15
100
AcDbLine
 10
148.601
 20
280.2598183049
 30
0.0
 11
120.601
 21
280.2598183049
 31
0.0
  0
LINE
  5
33A
330
1F
100
AcDbEntity
  8
0
  6
Continuous
 62
     7
370
    15
100
AcDbLine
 10
-179.399
 20
272.2598183049
 30
0.0
 11
-151.399
 21
272.2598183049
 31
0.0
  0
LINE
  5
33B
330
1F
100
AcDbEntity
  8
0
  6
Continuous
 62
     7
370
    15
100
AcDbLine
 10
-151.399
 20
280.2598183049
 30
0.0
 11
-179.399
 21
280.2598183049
 31
0.0
  0
LINE
  5
33C
330
1F
100
AcDbEntity
  8
0
  6
Continuous
 62
     7
370
    15
100
AcDbLine
 10
-209.399
 20
272.2598183049
 30
0.0
 11
-181.399
 21
272.2598183049
 31
0.0
  0
LINE
  5
33D
330
1F
100
AcDbEntity
  8
0
  6
Continuous
 62
     7
370
    15
100
AcDbLine
 10
-181.399
 20
280.2598183049
 30
0.0
 11
-209.399
 21
280.2598183049
 31
0.0
  0
LINE
  5
33E
330
1F
100
AcDbEntity
  8
0
  6
Continuous
 62
     7
370
    15
100
AcDbLine
 10
-59.399
 20
272.2598183049
 30
0.0
 11
-31.399
 21
272.2598183049
 31
0.0
  0
LINE
  5
33F
330
1F
100
AcDbEntity
  8
0
  6
Continuous
 62
     7
370
    15
100
AcDbLine
 10
-31.399
 20
280.2598183049
 30
0.0
 11
-59.399
 21
280.2598183049
 31
0.0
  0
LINE
  5
340
330
1F
100
AcDbEntity
  8
0
  6
Continuous
 62
     7
370
    15
100
AcDbLine
 10
180.601
 20
272.2598183049
 30
0.0
 11
208.601
 21
272.2598183049
 31
0.0
  0
LINE
  5
341
330
1F
100
AcDbEntity
  8
0
  6
Continuous
 62
     7
370
    15
100
AcDbLine
 10
208.601
 20
280.2598183049
 30
0.0
 11
180.601
 21
280.2598183049
 31
0.0
  0
LINE
  5
342
330
1F
100
AcDbEntity
  8
0
  6
Continuous
 62
     7
370
    15
100
AcDbLine
 10
30.601
 20
272.2598183049
 30
0.0
 11
58.601
 21
272.2598183049
 31
0.0
  0
LINE
  5
343
330
1F
100
AcDbEntity
  8
0
  6
Continuous
 62
     7
370
    15
100
AcDbLine
 10
58.601
 20
280.2598183049
 30
0.0
 11
30.601
 21
280.2598183049
 31
0.0
  0
LINE
  5
344
330
1F
100
AcDbEntity
  8
0
  6
Continuous
 62
     7
370
    15
100
AcDbLine
 10
-149.399
 20
272.2598183049
 30
0.0
 11
-121.399
 21
272.2598183049
 31
0.0
  0
LINE
  5
345
330
1F
100
AcDbEntity
  8
0
  6
Continuous
 62
     7
370
    15
100
AcDbLine
 10
-121.399
 20
280.2598183049
 30
0.0
 11
-149.399
 21
280.2598183049
 31
0.0
  0
LINE
  5
346
330
1F
100
AcDbEntity
  8
0
  6
Continuous
 62
     7
370
    15
100
AcDbLine
 10
-29.399
 20
272.2598183049
 30
0.0
 11
-1.399
 21
272.2598183049
 31
0.0
  0
LINE
  5
347
330
1F
100
AcDbEntity
  8
0
  6
Continuous
 62
     7
370
    15
100
AcDbLine
 10
-1.399
 20
280.2598183049
 30
0.0
 11
-29.399
 21
280.2598183049
 31
0.0
  0
LINE
  5
348
330
1F
100
AcDbEntity
  8
0
  6
Continuous
 62
     7
370
    15
100
AcDbLine
 10
90.601
 20
272.2598183049
 30
0.0
 11
118.601
 21
272.2598183049
 31
0.0
  0
LINE
  5
349
330
1F
100
AcDbEntity
  8
0
  6
Continuous
 62
     7
370
    15
100
AcDbLine
 10
118.601
 20
280.2598183049
 30
0.0
 11
90.601
 21
280.2598183049
 31
0.0
  0
LINE
  5
34A
330
1F
100
AcDbEntity
  8
0
  6
Continuous
 62
     7
370
    15
100
AcDbLine
 10
150.601
 20
272.2598183049
 30
0.0
 11
178.601
 21
272.2598183049
 31
0.0
  0
LINE
  5
34B
330
1F
100
AcDbEntity
  8
0
  6
Continuous
 62
     7
370
    15
100
AcDbLine
 10
178.601
 20
280.2598183049
 30
0.0
 11
150.601
 21
280.2598183049
 31
0.0
  0
LINE
  5
34C
330
1F
100
AcDbEntity
  8
0
  6
Continuous
 62
     7
370
    15
100
AcDbLine
 10
-217.699
 20
-79.2401816951
 30
0.0
 11
-218.199
 21
-79.7401816951
 31
0.0
  0
LINE
  5
34D
330
1F
100
AcDbEntity
  8
0
  6
Continuous
 62
     7
370
    15
100
AcDbLine
 10
-218.199
 20
-83.7401816951
 30
0.0
 11
-217.699
 21
-84.2401816951
 31
0.0
  0
LINE
  5
34E
330
1F
100
AcDbEntity
  8
0
  6
Continuous
 62
     7
370
    15
100
AcDbLine
 10
-217.699
 20
278.7598183049
 30
0.0
 11
-218.199
 21
278.2598183049
 31
0.0
  0
LINE
  5
34F
330
1F
100
AcDbEntity
  8
0
  6
Continuous
 62
     7
370
    15
100
AcDbLine
 10
-218.199
 20
274.2598183049
 30
0.0
 11
-217.699
 21
273.7598183049
 31
0.0
  0
LINE
  5
350
330
1F
100
AcDbEntity
  8
0
  6
Continuous
 62
     7
370
    15
100
AcDbLine
 10
216.6464482672
 20
-77.3401816951
 30
0.0
 11
212.4555517328
 21
-77.3401816951
 31
0.0
  0
LINE
  5
351
330
1F
100
AcDbEntity
  8
0
  6
Continuous
 62
     7
370
    15
100
AcDbLine
 10
212.4555517328
 20
271.8598183049
 30
0.0
 11
216.6464482672
 21
271.8598183049
 31
0.0
  0
LINE
  5
352
330
1F
100
AcDbEntity
  8
0
  6
Continuous
 62
     7
370
    15
100
AcDbLine
 10
-217.4444482672
 20
271.8598183049
 30
0.0
 11
-213.2535517328
 21
271.8598183049
 31
0.0
  0
LINE
  5
353
330
1F
100
AcDbEntity
  8
0
  6
Continuous
 62
     7
370
    15
100
AcDbLine
 10
-217.4444482672
 20
-86.1401816951
 30
0.0
 11
-213.2535517328
 21
-86.1401816951
 31
0.0
  0
LINE
  5
354
330
1F
100
AcDbEntity
  8
0
  6
Continuous
 62
     7
370
    15
100
AcDbLine
 10
-213.2535517328
 20
280.6598183049
 30
0.0
 11
-217.4444482672
 21
280.6598183049
 31
0.0
  0
LINE
  5
355
330
1F
100
AcDbEntity
  8
0
  6
Continuous
 62
     7
370
    15
100
AcDbLine
 10
-213.2535517328
 20
-77.3401816951
 30
0.0
 11
-217.4444482672
 21
-77.3401816951
 31
0.0
  0
LINE
  5
356
330
1F
100
AcDbEntity
  8
0
  6
Continuous
 62
     7
370
    15
100
AcDbLine
 10
216.6464482672
 20
280.6598183049
 30
0.0
 11
212.4555517328
 21
280.6598183049
 31
0.0
  0
LINE
  5
357
330
1F
100
AcDbEntity
  8
0
  6
Continuous
 62
     7
370
    15
100
AcDbLine
 10
212.4555517328
 20
-86.1401816951
 30
0.0
 11
216.6464482672
 21
-86.1401816951
 31
0.0
  0
LINE
  5
358
330
1F
100
AcDbEntity
  8
0
  6
Continuous
 62
     7
370
    15
100
AcDbLine
 10
233.5
 20
285.7598183049
 30
0.0
 11
233.5
 21
287.2598183049
 31
0.0
  0
LINE
  5
359
330
1F
100
AcDbEntity
  8
0
  6
Continuous
 62
     7
370
    15
100
AcDbLine
 10
231.5
 20
287.7598183049
 30
0.0
 11
233.0
 21
287.7598183049
 31
0.0
  0
LINE
  5
35A
330
1F
100
AcDbEntity
  8
0
  6
Continuous
 62
     7
370
    15
100
AcDbLine
 10
214.0
 20
287.7598183049
 30
0.0
 11
214.0
 21
286.2598183049
 31
0.0
  0
LINE
  5
35B
330
1F
100
AcDbEntity
  8
0
  6
Continuous
 62
     7
370
    15
100
AcDbLine
 10
214.0
 20
287.7598183049
 30
0.0
 11
-214.0
 21
287.7598183049
 31
0.0
  0
LINE
  5
35C
330
1F
100
AcDbEntity
  8
0
  6
Continuous
 62
     7
370
    15
100
AcDbLine
 10
-214.0
 20
286.2598183049
 30
0.0
 11
-214.0
 21
287.7598183049
 31
0.0
  0
LINE
  5
35D
330
1F
100
AcDbEntity
  8
0
  6
Continuous
 62
     7
370
    15
100
AcDbLine
 10
-214.0
 20
286.2598183049
 30
0.0
 11
-231.5
 21
286.2598183049
 31
0.0
  0
LINE
  5
35E
330
1F
100
AcDbEntity
  8
0
  6
Continuous
 62
     7
370
    15
100
AcDbLine
 10
-232.0000000665
 20
-94.2401816951
 30
0.0
 11
-232.0
 21
285.7598183049
 31
0.0
  0
LINE
  5
35F
330
1F
100
AcDbEntity
  8
0
  6
Continuous
 62
     7
370
    15
100
AcDbLine
 10
-233.5
 20
280.7598183049
 30
0.0
 11
-232.0
 21
280.7598183049
 31
0.0
  0
LINE
  5
360
330
1F
100
AcDbEntity
  8
0
  6
Continuous
 62
     7
370
    15
100
AcDbLine
 10
-233.5000000665
 20
-94.2401816951
 30
0.0
 11
-233.5
 21
280.7598183049
 31
0.0
  0
LINE
  5
361
330
1F
100
AcDbEntity
  8
0
  6
Continuous
 62
     7
370
    15
100
AcDbLine
 10
-235.0
 20
276.7598183049
 30
0.0
 11
-233.5
 21
276.7598183049
 31
0.0
  0
LINE
  5
362
330
1F
100
AcDbEntity
  8
0
  6
Continuous
 62
     7
370
    15
100
AcDbLine
 10
-235.0
 20
287.2598183049
 30
0.0
 11
-235.0
 21
276.7598183049
 31
0.0
  0
LINE
  5
363
330
1F
100
AcDbEntity
  8
0
  6
Continuous
 62
     7
370
    15
100
AcDbLine
 10
-233.0
 20
289.2598183049
 30
0.0
 11
233.0
 21
289.2598183049
 31
0.0
  0
LINE
  5
364
330
1F
100
AcDbEntity
  8
0
  6
Continuous
 62
     7
370
    15
100
AcDbLine
 10
235.0
 20
276.7598183049
 30
0.0
 11
235.0
 21
287.2598183049
 31
0.0
  0
LINE
  5
365
330
1F
100
AcDbEntity
  8
0
  6
Continuous
 62
     7
370
    15
100
AcDbLine
 10
235.0
 20
276.7598183049
 30
0.0
 11
233.5
 21
276.7598183049
 31
0.0
  0
LINE
  5
366
330
1F
100
AcDbEntity
  8
0
  6
Continuous
 62
     7
370
    15
100
AcDbLine
 10
233.5000000665
 20
-94.2401816951
 30
0.0
 11
233.5
 21
280.7598183049
 31
0.0
  0
LINE
  5
367
330
1F
100
AcDbEntity
  8
0
  6
Continuous
 62
     7
370
    15
100
AcDbLine
 10
232.0000000665
 20
280.7598183049
 30
0.0
 11
233.5
 21
280.7598183049
 31
0.0
  0
LINE
  5
368
330
1F
100
AcDbEntity
  8
0
  6
Continuous
 62
     7
370
    15
100
AcDbLine
 10
232.0000000665
 20
-94.2401816951
 30
0.0
 11
232.0
 21
285.7598183049
 31
0.0
  0
LINE
  5
369
330
1F
100
AcDbEntity
  8
0
  6
Continuous
 62
     7
370
    15
100
AcDbLine
 10
231.5
 20
286.2598183049
 30
0.0
 11
214.0
 21
286.2598183049
 31
0.0
  0
LINE
  5
36A
330
1F
100
AcDbEntity
  8
0
  6
Continuous
 62
     7
370
    15
100
AcDbLine
 10
-233.0
 20
287.7598183049
 30
0.0
 11
-231.5
 21
287.7598183049
 31
0.0
  0
LINE
  5
36B
330
1F
100
AcDbEntity
  8
0
  6
Continuous
 62
     7
370
    15
100
AcDbLine
 10
-233.5
 20
287.2598183049
 30
0.0
 11
-233.5
 21
285.7598183049
 31
0.0
  0
LINE
  5
36C
330
1F
100
AcDbEntity
  8
0
  6
Continuous
 62
     7
370
    15
100
AcDbLine
 10
232.0000000665
 20
-94.2401816951
 30
0.0
 11
233.5000000665
 21
-94.2401816951
 31
0.0
  0
LINE
  5
36D
330
1F
100
AcDbEntity
  8
0
  6
Continuous
 62
     7
370
    15
100
AcDbLine
 10
-232.0000000665
 20
-94.2401816951
 30
0.0
 11
-233.5000000665
 21
-94.2401816951
 31
0.0
  0
LINE
  5
36E
330
1F
100
AcDbEntity
  8
0
  6
Continuous
 62
     7
370
    15
100
AcDbLine
 10
-231.5
 20
-96.2401817616
 30
0.0
 11
-231.5
 21
-94.7401817616
 31
0.0
  0
LINE
  5
36F
330
1F
100
AcDbEntity
  8
0
  6
Continuous
 62
     7
370
    15
100
AcDbLine
 10
231.5
 20
-96.2401817616
 30
0.0
 11
231.5
 21
-94.7401817616
 31
0.0
  0
LINE
  5
370
330
1F
100
AcDbEntity
  8
0
  6
Continuous
 62
     7
370
    15
100
AcDbLine
 10
-214.0
 20
-94.7401816951
 30
0.0
 11
-214.0
 21
-96.2401816951
 31
0.0
  0
LINE
  5
371
330
1F
100
AcDbEntity
  8
0
  6
Continuous
 62
     7
370
    15
100
AcDbLine
 10
-214.0
 20
-94.7401816951
 30
0.0
 11
-231.5
 21
-94.7401817616
 31
0.0
  0
LINE
  5
372
330
1F
100
AcDbEntity
  8
0
  6
Continuous
 62
     7
370
    15
100
AcDbLine
 10
-214.0
 20
-96.2401816951
 30
0.0
 11
-231.5
 21
-96.2401817616
 31
0.0
  0
LINE
  5
373
330
1F
100
AcDbEntity
  8
0
  6
Continuous
 62
     7
370
    15
100
AcDbLine
 10
213.5
 20
-96.2401816951
 30
0.0
 11
213.5
 21
-94.7401816951
 31
0.0
  0
LINE
  5
374
330
1F
100
AcDbEntity
  8
0
  6
Continuous
 62
     7
370
    15
100
AcDbLine
 10
213.5
 20
-94.7401816951
 30
0.0
 11
231.5
 21
-94.7401817616
 31
0.0
  0
LINE
  5
375
330
1F
100
AcDbEntity
  8
0
  6
Continuous
 62
     7
370
    15
100
AcDbLine
 10
213.5
 20
-96.2401816951
 30
0.0
 11
231.5
 21
-96.2401817616
 31
0.0
  0
LINE
  5
376
330
1F
100
AcDbEntity
  8
0
  6
Continuous
 62
     7
370
    15
100
AcDbLine
 10
-206.5
 20
289.7598183049
 30
0.0
 11
-186.5
 21
289.7598183049
 31
0.0
  0
LINE
  5
377
330
1F
100
AcDbEntity
  8
0
  6
Continuous
 62
     7
370
    15
100
AcDbLine
 10
-186.5
 20
289.9598183049
 30
0.0
 11
-186.5
 21
289.2598183049
 31
0.0
  0
LINE
  5
378
330
1F
100
AcDbEntity
  8
0
  6
Continuous
 62
     7
370
    15
100
AcDbLine
 10
-206.5
 20
289.9598183049
 30
0.0
 11
-206.5
 21
289.2598183049
 31
0.0
  0
LINE
  5
379
330
1F
100
AcDbEntity
  8
0
  6
Continuous
 62
     7
370
    15
100
AcDbLine
 10
186.5
 20
289.7598183049
 30
0.0
 11
206.5
 21
289.7598183049
 31
0.0
  0
LINE
  5
37A
330
1F
100
AcDbEntity
  8
0
  6
Continuous
 62
     7
370
    15
100
AcDbLine
 10
186.5
 20
289.9598183049
 30
0.0
 11
186.5
 21
289.2598183049
 31
0.0
  0
LINE
  5
37B
330
1F
100
AcDbEntity
  8
0
  6
Continuous
 62
     7
370
    15
100
AcDbLine
 10
206.5
 20
289.9598183049
 30
0.0
 11
206.5
 21
289.2598183049
 31
0.0
  0
LINE
  5
37C
330
1F
100
AcDbEntity
  8
0
  6
Continuous
 62
     7
370
    15
100
AcDbLine
 10
251.1444988398
 20
-282.4692227879
 30
0.0
 11
251.9142882717
 21
-239.976256088
 31
0.0
  0
LINE
  5
37D
330
1F
100
AcDbEntity
  8
0
  6
Continuous
 62
     7
370
    15
100
AcDbLine
 10
251.1444988398
 20
-282.4692227879
 30
0.0
 11
251.1720538938
 21
-90.5659199914
 31
0.0
  0
LINE
  5
37E
330
1F
100
AcDbEntity
  8
0
  6
Continuous
 62
     7
370
    15
100
AcDbLine
 10
251.9389025144
 20
-68.5538206311
 30
0.0
 11
251.9142882717
 21
-239.976256088
 31
0.0
  0
LINE
  5
37F
330
1F
100
AcDbEntity
  8
0
  6
Continuous
 62
     7
370
    15
100
AcDbLine
 10
245.1725440147
 20
-90.5370388314
 30
0.0
 11
251.1720538938
 21
-90.5659199914
 31
0.0
  0
LINE
  5
380
330
1F
100
AcDbEntity
  8
0
  6
Continuous
 62
     7
370
    15
100
AcDbLine
 10
-251.1720538938
 20
-90.5659199914
 30
0.0
 11
-245.1725440147
 21
-90.5370388314
 31
0.0
  0
LINE
  5
381
330
1F
100
AcDbEntity
  8
0
  6
Continuous
 62
     7
370
    15
100
AcDbLine
 10
-251.1720538938
 20
-90.5659199914
 30
0.0
 11
-251.1444988398
 21
-282.4692227879
 31
0.0
  0
LINE
  5
382
330
1F
100
AcDbEntity
  8
0
  6
Continuous
 62
     7
370
    15
100
AcDbLine
 10
-251.9142882717
 20
-239.976256088
 30
0.0
 11
-251.1444988398
 21
-282.4692227879
 31
0.0
  0
LINE
  5
383
330
1F
100
AcDbEntity
  8
0
  6
Continuous
 62
     7
370
    15
100
AcDbLine
 10
-251.9142882717
 20
-239.976256088
 30
0.0
 11
-251.9389025144
 21
-68.5538206311
 31
0.0
  0
LINE
  5
384
330
1F
100
AcDbEntity
  8
0
  6
Continuous
 62
     7
370
    15
100
AcDbLine
 10
245.1449889607
 20
-282.4403416279
 30
0.0
 11
251.1444988398
 21
-282.4692227879
 31
0.0
  0
LINE
  5
385
330
1F
100
AcDbEntity
  8
0
  6
Continuous
 62
     7
370
    15
100
AcDbLine
 10
245.1707940773
 20
-102.7242320674
 30
0.0
 11
245.1449889607
 21
-282.4403416279
 31
0.0
  0
LINE
  5
386
330
1F
100
AcDbEntity
  8
0
  6
Continuous
 62
     7
370
    15
100
AcDbLine
 10
245.1709364497
 20
-101.7326992938
 30
0.0
 11
245.1708554992
 21
-102.2964680182
 31
0.0
  0
LINE
  5
387
330
1F
100
AcDbEntity
  8
0
  6
Continuous
 62
     7
370
    15
100
AcDbLine
 10
245.1725440147
 20
-90.5370388314
 30
0.0
 11
245.1712463351
 21
-99.5745457703
 31
0.0
  0
LINE
  5
388
330
1F
100
AcDbEntity
  8
0
  6
Continuous
 62
     7
370
    15
100
AcDbLine
 10
-245.1449889607
 20
-282.4403416279
 30
0.0
 11
-245.1707940773
 21
-102.7242320674
 31
0.0
  0
LINE
  5
389
330
1F
100
AcDbEntity
  8
0
  6
Continuous
 62
     7
370
    15
100
AcDbLine
 10
-251.1444988398
 20
-282.4692227879
 30
0.0
 11
-245.1449889607
 21
-282.4403416279
 31
0.0
  0
LINE
  5
38A
330
1F
100
AcDbEntity
  8
0
  6
Continuous
 62
     7
370
    15
100
AcDbLine
 10
-245.1708554992
 20
-102.2964680182
 30
0.0
 11
-245.1709331551
 21
-101.7556438789
 31
0.0
  0
LINE
  5
38B
330
1F
100
AcDbEntity
  8
0
  6
Continuous
 62
     7
370
    15
100
AcDbLine
 10
-245.1712463351
 20
-99.5745457703
 30
0.0
 11
-245.1725440147
 21
-90.5370388314
 31
0.0
  0
LINE
  5
38C
330
1F
100
AcDbEntity
  8
0
  6
Continuous
 62
     7
370
    15
100
AcDbLine
 10
235.501
 20
-103.0901816951
 30
0.0
 11
242.001
 21
-103.0901816951
 31
0.0
  0
LINE
  5
38D
330
1F
100
AcDbEntity
  8
0
  6
Continuous
 62
     7
370
    15
100
AcDbLine
 10
242.001
 20
-36.3901816951
 30
0.0
 11
235.501
 21
-36.3901816951
 31
0.0
  0
LINE
  5
38E
330
1F
100
AcDbEntity
  8
0
  6
Continuous
 62
     7
370
    15
100
AcDbLine
 10
242.001
 20
-36.3901816951
 30
0.0
 11
242.001
 21
-103.0901816951
 31
0.0
  0
LINE
  5
38F
330
1F
100
AcDbEntity
  8
0
  6
Continuous
 62
     7
370
    15
100
AcDbLine
 10
-235.501
 20
-36.3901816951
 30
0.0
 11
-242.001
 21
-36.3901816951
 31
0.0
  0
LINE
  5
390
330
1F
100
AcDbEntity
  8
0
  6
Continuous
 62
     7
370
    15
100
AcDbLine
 10
-242.001
 20
-103.0901816951
 30
0.0
 11
-235.501
 21
-103.0901816951
 31
0.0
  0
LINE
  5
391
330
1F
100
AcDbEntity
  8
0
  6
Continuous
 62
     7
370
    15
100
AcDbLine
 10
-242.001
 20
-103.0901816951
 30
0.0
 11
-242.001
 21
-36.3901816951
 31
0.0
  0
LINE
  5
392
330
1F
100
AcDbEntity
  8
0
  6
Continuous
 62
     7
370
    15
100
AcDbLine
 10
245.501
 20
-38.2401816951
 30
0.0
 11
245.501
 21
-60.1010491014
 31
0.0
  0
LINE
  5
393
330
1F
100
AcDbEntity
  8
0
  6
Continuous
 62
     7
370
    15
100
AcDbLine
 10
-245.501
 20
-60.1010491014
 30
0.0
 11
-245.501
 21
-38.2401816951
 31
0.0
  0
LINE
  5
394
330
1F
100
AcDbEntity
  8
0
  6
Continuous
 62
     7
370
    15
100
AcDbLine
 10
-242.001
 20
-103.2401816951
 30
0.0
 11
-242.001
 21
-104.7401816951
 31
0.0
  0
LINE
  5
395
330
1F
100
AcDbEntity
  8
0
  6
Continuous
 62
     7
370
    15
100
AcDbLine
 10
242.001
 20
-36.2401816951
 30
0.0
 11
242.001
 21
-34.7401816951
 31
0.0
  0
LINE
  5
396
330
1F
100
AcDbEntity
  8
0
  6
Continuous
 62
     7
370
    15
100
AcDbLine
 10
242.001
 20
-104.7401816951
 30
0.0
 11
242.001
 21
-103.2401816951
 31
0.0
  0
LINE
  5
397
330
1F
100
AcDbEntity
  8
0
  6
Continuous
 62
     7
370
    15
100
AcDbLine
 10
-242.001
 20
-34.7401816951
 30
0.0
 11
-242.001
 21
-36.2401816951
 31
0.0
  0
LINE
  5
398
330
1F
100
AcDbEntity
  8
0
  6
Continuous
 62
     7
370
    15
100
AcDbLine
 10
-242.001
 20
-36.2401816951
 30
0.0
 11
-235.501
 21
-36.2401816951
 31
0.0
  0
LINE
  5
399
330
1F
100
AcDbEntity
  8
0
  6
Continuous
 62
     7
370
    15
100
AcDbLine
 10
-235.501
 20
-34.7401816951
 30
0.0
 11
-242.001
 21
-34.7401816951
 31
0.0
  0
LINE
  5
39A
330
1F
100
AcDbEntity
  8
0
  6
Continuous
 62
     7
370
    15
100
AcDbLine
 10
242.001
 20
-103.2401816951
 30
0.0
 11
235.501
 21
-103.2401816951
 31
0.0
  0
LINE
  5
39B
330
1F
100
AcDbEntity
  8
0
  6
Continuous
 62
     7
370
    15
100
AcDbLine
 10
235.501
 20
-104.7401816951
 30
0.0
 11
242.001
 21
-104.7401816951
 31
0.0
  0
LINE
  5
39C
330
1F
100
AcDbEntity
  8
0
  6
Continuous
 62
     7
370
    15
100
AcDbLine
 10
-242.001
 20
-104.7401816951
 30
0.0
 11
-235.501
 21
-104.7401816951
 31
0.0
  0
LINE
  5
39D
330
1F
100
AcDbEntity
  8
0
  6
Continuous
 62
     7
370
    15
100
AcDbLine
 10
-235.501
 20
-103.2401816951
 30
0.0
 11
-242.001
 21
-103.2401816951
 31
0.0
  0
LINE
  5
39E
330
1F
100
AcDbEntity
  8
0
  6
Continuous
 62
     7
370
    15
100
AcDbLine
 10
242.001
 20
-34.7401816951
 30
0.0
 11
235.501
 21
-34.7401816951
 31
0.0
  0
LINE
  5
39F
330
1F
100
AcDbEntity
  8
0
  6
Continuous
 62
     7
370
    15
100
AcDbLine
 10
235.501
 20
-36.2401816951
 30
0.0
 11
242.001
 21
-36.2401816951
 31
0.0
  0
LINE
  5
3A0
330
1F
100
AcDbEntity
  8
0
  6
Continuous
 62
     7
370
    15
100
AcDbLine
 10
-251.9142882717
 20
-239.976256088
 30
0.0
 11
-251.8881590566
 21
-240.1365576642
 31
0.0
  0
LINE
  5
3A1
330
1F
100
AcDbEntity
  8
0
  6
Continuous
 62
     7
370
    15
100
AcDbLine
 10
-244.1228265105
 20
-285.6625084592
 30
0.0
 11
-248.6228265105
 21
-288.6625084592
 31
0.0
  0
LINE
  5
3A2
330
1F
100
AcDbEntity
  8
0
  6
Continuous
 62
     7
370
    15
100
AcDbLine
 10
251.907493332
 20
-240.1394661121
 30
0.0
 11
251.9142882717
 21
-239.976256088
 31
0.0
  0
LINE
  5
3A3
330
1F
100
AcDbEntity
  8
0
  6
Continuous
 62
     7
370
    15
100
AcDbLine
 10
248.6228265105
 20
-288.6625084592
 30
0.0
 11
244.1228265105
 21
-285.6625084592
 31
0.0
  0
LINE
  5
3A4
330
1F
100
AcDbEntity
  8
0
  6
Continuous
 62
     7
370
    15
100
AcDbLine
 10
-245.1506999593
 20
-242.6668937163
 30
0.0
 11
-244.8926159424
 21
-243.1695417592
 31
0.0
  0
LINE
  5
3A5
330
1F
100
AcDbEntity
  8
0
  6
Continuous
 62
     7
370
    15
100
AcDbLine
 10
-244.8926159424
 20
-243.1695417592
 30
0.0
 11
-244.1228265105
 21
-285.6625084592
 31
0.0
  0
LINE
  5
3A6
330
1F
100
AcDbEntity
  8
0
  6
Continuous
 62
     7
370
    15
100
AcDbLine
 10
244.8926159424
 20
-243.1695417592
 30
0.0
 11
245.1506930415
 21
-242.7150716304
 31
0.0
  0
LINE
  5
3A7
330
1F
100
AcDbEntity
  8
0
  6
Continuous
 62
     7
370
    15
100
AcDbLine
 10
244.1228265105
 20
-285.6625084592
 30
0.0
 11
244.8926159424
 21
-243.1695417592
 31
0.0
  0
LINE
  5
3A8
330
1F
100
AcDbEntity
  8
0
  6
Continuous
 62
     7
370
    15
100
AcDbLine
 10
-238.3088176348
 20
-288.5
 30
0.0
 11
-238.3088176348
 21
-294.5
 31
0.0
  0
LINE
  5
3A9
330
1F
100
AcDbEntity
  8
0
  6
Continuous
 62
     7
370
    15
100
AcDbLine
 10
-247.9249168931
 20
-289.5
 30
0.0
 11
-243.4249168931
 21
-286.5
 31
0.0
  0
LINE
  5
3AA
330
1F
100
AcDbEntity
  8
0
  6
Continuous
 62
     7
370
    15
100
AcDbLine
 10
-208.7839007417
 20
-286.5
 30
0.0
 11
-243.4249168931
 21
-286.5
 31
0.0
  0
LINE
  5
3AB
330
1F
100
AcDbEntity
  8
0
  6
Continuous
 62
     7
370
    15
100
AcDbLine
 10
243.4249168931
 20
-286.5
 30
0.0
 11
208.7839007417
 21
-286.5
 31
0.0
  0
LINE
  5
3AC
330
1F
100
AcDbEntity
  8
0
  6
Continuous
 62
     7
370
    15
100
AcDbLine
 10
243.4249168931
 20
-286.5
 30
0.0
 11
247.9249168931
 21
-289.5
 31
0.0
  0
LINE
  5
3AD
330
1F
100
AcDbEntity
  8
0
  6
Continuous
 62
     7
370
    15
100
AcDbLine
 10
238.3088176348
 20
-294.5
 30
0.0
 11
238.3088176348
 21
-288.5
 31
0.0
  0
LINE
  5
3AE
330
1F
100
AcDbEntity
  8
0
  6
Continuous
 62
     7
370
    15
100
AcDbLine
 10
-244.8926159424
 20
-243.1695417592
 30
0.0
 11
-208.7839007417
 21
-286.5
 31
0.0
  0
LINE
  5
3AF
330
1F
100
AcDbEntity
  8
0
  6
Continuous
 62
     7
370
    15
100
AcDbLine
 10
-243.4249168931
 20
-286.5
 30
0.0
 11
-244.1228265105
 21
-285.6625084592
 31
0.0
  0
LINE
  5
3B0
330
1F
100
AcDbEntity
  8
0
  6
Continuous
 62
     7
370
    15
100
AcDbLine
 10
-248.6228265105
 20
-288.6625084592
 30
0.0
 11
-247.9249168931
 21
-289.5
 31
0.0
  0
LINE
  5
3B1
330
1F
100
AcDbEntity
  8
0
  6
Continuous
 62
     7
370
    15
100
AcDbLine
 10
244.1228265105
 20
-285.6625084592
 30
0.0
 11
243.4249168931
 21
-286.5
 31
0.0
  0
LINE
  5
3B2
330
1F
100
AcDbEntity
  8
0
  6
Continuous
 62
     7
370
    15
100
AcDbLine
 10
247.9249168931
 20
-289.5
 30
0.0
 11
248.6228265105
 21
-288.6625084592
 31
0.0
  0
LINE
  5
3B3
330
1F
100
AcDbEntity
  8
0
  6
Continuous
 62
     7
370
    15
100
AcDbLine
 10
208.7839007417
 20
-286.5
 30
0.0
 11
244.8926159424
 21
-243.1695417592
 31
0.0
  0
LINE
  5
3B4
330
1F
100
AcDbEntity
  8
0
  6
Continuous
 62
     7
370
    15
100
AcDbLine
 10
238.3088176348
 20
-288.5
 30
0.0
 11
-238.3088176348
 21
-288.5
 31
0.0
  0
LINE
  5
3B5
330
1F
100
AcDbEntity
  8
0
  6
Continuous
 62
     7
370
    15
100
AcDbLine
 10
-238.3088176348
 20
-294.5
 30
0.0
 11
238.3088176348
 21
-294.5
 31
0.0
  0
LINE
  5
3B6
330
1F
100
AcDbEntity
  8
0
  6
Continuous
 62
     7
370
    15
100
AcDbLine
 10
-211.299
 20
-86.7401816951
 30
0.0
 11
-211.299
 21
-76.7401816951
 31
0.0
  0
LINE
  5
3B7
330
1F
100
AcDbEntity
  8
0
  6
Continuous
 62
     7
370
    15
100
AcDbLine
 10
-222.399
 20
-76.7401816951
 30
0.0
 11
-209.499
 21
-76.7401816951
 31
0.0
  0
LINE
  5
3B8
330
1F
100
AcDbEntity
  8
0
  6
Continuous
 62
     7
370
    15
100
AcDbLine
 10
-209.499
 20
-86.7401816951
 30
0.0
 11
-222.399
 21
-86.7401816951
 31
0.0
  0
LINE
  5
3B9
330
1F
100
AcDbEntity
  8
0
  6
Continuous
 62
     7
370
    15
100
AcDbLine
 10
-209.499
 20
-76.7401816951
 30
0.0
 11
-209.499
 21
-86.7401816951
 31
0.0
  0
LINE
  5
3BA
330
1F
100
AcDbEntity
  8
0
  6
Continuous
 62
     7
370
    15
100
AcDbLine
 10
210.501
 20
281.2598183049
 30
0.0
 11
210.501
 21
271.2598183049
 31
0.0
  0
LINE
  5
3BB
330
1F
100
AcDbEntity
  8
0
  6
Continuous
 62
     7
370
    15
100
AcDbLine
 10
221.601
 20
271.2598183049
 30
0.0
 11
208.701
 21
271.2598183049
 31
0.0
  0
LINE
  5
3BC
330
1F
100
AcDbEntity
  8
0
  6
Continuous
 62
     7
370
    15
100
AcDbLine
 10
208.701
 20
271.2598183049
 30
0.0
 11
208.701
 21
281.2598183049
 31
0.0
  0
LINE
  5
3BD
330
1F
100
AcDbEntity
  8
0
  6
Continuous
 62
     7
370
    15
100
AcDbLine
 10
208.701
 20
281.2598183049
 30
0.0
 11
221.601
 21
281.2598183049
 31
0.0
  0
LINE
  5
3BE
330
1F
100
AcDbEntity
  8
0
  6
Continuous
 62
     7
370
    15
100
AcDbLine
 10
210.501
 20
-76.7401816951
 30
0.0
 11
210.501
 21
-86.7401816951
 31
0.0
  0
LINE
  5
3BF
330
1F
100
AcDbEntity
  8
0
  6
Continuous
 62
     7
370
    15
100
AcDbLine
 10
221.601
 20
-86.7401816951
 30
0.0
 11
208.701
 21
-86.7401816951
 31
0.0
  0
LINE
  5
3C0
330
1F
100
AcDbEntity
  8
0
  6
Continuous
 62
     7
370
    15
100
AcDbLine
 10
208.701
 20
-86.7401816951
 30
0.0
 11
208.701
 21
-76.7401816951
 31
0.0
  0
LINE
  5
3C1
330
1F
100
AcDbEntity
  8
0
  6
Continuous
 62
     7
370
    15
100
AcDbLine
 10
208.701
 20
-76.7401816951
 30
0.0
 11
221.601
 21
-76.7401816951
 31
0.0
  0
LINE
  5
3C2
330
1F
100
AcDbEntity
  8
0
  6
Continuous
 62
     7
370
    15
100
AcDbLine
 10
-211.299
 20
271.2598183049
 30
0.0
 11
-211.299
 21
281.2598183049
 31
0.0
  0
LINE
  5
3C3
330
1F
100
AcDbEntity
  8
0
  6
Continuous
 62
     7
370
    15
100
AcDbLine
 10
-222.399
 20
281.2598183049
 30
0.0
 11
-209.499
 21
281.2598183049
 31
0.0
  0
LINE
  5
3C4
330
1F
100
AcDbEntity
  8
0
  6
Continuous
 62
     7
370
    15
100
AcDbLine
 10
-209.499
 20
281.2598183049
 30
0.0
 11
-209.499
 21
271.2598183049
 31
0.0
  0
LINE
  5
3C5
330
1F
100
AcDbEntity
  8
0
  6
Continuous
 62
     7
370
    15
100
AcDbLine
 10
-209.499
 20
271.2598183049
 30
0.0
 11
-222.399
 21
271.2598183049
 31
0.0
  0
LINE
  5
3C6
330
1F
100
AcDbEntity
  8
0
  6
Continuous
 62
     7
370
    15
100
AcDbLine
 10
-211.999
 20
-86.7401816951
 30
0.0
 11
-211.999
 21
-76.7401816951
 31
0.0
  0
LINE
  5
3C7
330
1F
100
AcDbEntity
  8
0
  6
Continuous
 62
     7
370
    15
100
AcDbLine
 10
211.201
 20
281.2598183049
 30
0.0
 11
211.201
 21
271.2598183049
 31
0.0
  0
LINE
  5
3C8
330
1F
100
AcDbEntity
  8
0
  6
Continuous
 62
     7
370
    15
100
AcDbLine
 10
211.201
 20
-76.7401816951
 30
0.0
 11
211.201
 21
-86.7401816951
 31
0.0
  0
LINE
  5
3C9
330
1F
100
AcDbEntity
  8
0
  6
Continuous
 62
     7
370
    15
100
AcDbLine
 10
-211.999
 20
271.2598183049
 30
0.0
 11
-211.999
 21
281.2598183049
 31
0.0
  0
LINE
  5
3CA
330
1F
100
AcDbEntity
  8
0
  6
Continuous
 62
     7
370
    15
100
AcDbLine
 10
-211.599
 20
281.2598183049
 30
0.0
 11
-211.599
 21
285.2598183049
 31
0.0
  0
LINE
  5
3CB
330
1F
100
AcDbEntity
  8
0
  6
Continuous
 62
     7
370
    15
100
AcDbLine
 10
-211.599
 20
285.2598183049
 30
0.0
 11
-209.399
 21
285.2598183049
 31
0.0
  0
LINE
  5
3CC
330
1F
100
AcDbEntity
  8
0
  6
Continuous
 62
     7
370
    15
100
AcDbLine
 10
-209.399
 20
-90.7401816951
 30
0.0
 11
-209.399
 21
285.2598183049
 31
0.0
  0
LINE
  5
3CD
330
1F
100
AcDbEntity
  8
0
  6
Continuous
 62
     7
370
    15
100
AcDbLine
 10
-209.399
 20
-90.7401816951
 30
0.0
 11
-211.599
 21
-90.7401816951
 31
0.0
  0
LINE
  5
3CE
330
1F
100
AcDbEntity
  8
0
  6
Continuous
 62
     7
370
    15
100
AcDbLine
 10
-211.599
 20
-90.7401816951
 30
0.0
 11
-211.599
 21
-86.7401816951
 31
0.0
  0
LINE
  5
3CF
330
1F
100
AcDbEntity
  8
0
  6
Continuous
 62
     7
370
    15
100
AcDbLine
 10
-211.599
 20
-76.7401816951
 30
0.0
 11
-211.599
 21
271.2598183049
 31
0.0
  0
LINE
  5
3D0
330
1F
100
AcDbEntity
  8
0
  6
Continuous
 62
     7
370
    15
100
AcDbLine
 10
210.801
 20
271.2598183049
 30
0.0
 11
210.801
 21
-76.7401816951
 31
0.0
  0
LINE
  5
3D1
330
1F
100
AcDbEntity
  8
0
  6
Continuous
 62
     7
370
    15
100
AcDbLine
 10
210.801
 20
-86.7401816951
 30
0.0
 11
210.801
 21
-90.7401816951
 31
0.0
  0
LINE
  5
3D2
330
1F
100
AcDbEntity
  8
0
  6
Continuous
 62
     7
370
    15
100
AcDbLine
 10
208.601
 20
-90.7401816951
 30
0.0
 11
210.801
 21
-90.7401816951
 31
0.0
  0
LINE
  5
3D3
330
1F
100
AcDbEntity
  8
0
  6
Continuous
 62
     7
370
    15
100
AcDbLine
 10
208.601
 20
-90.7401816951
 30
0.0
 11
208.601
 21
285.2598183049
 31
0.0
  0
LINE
  5
3D4
330
1F
100
AcDbEntity
  8
0
  6
Continuous
 62
     7
370
    15
100
AcDbLine
 10
210.801
 20
285.2598183049
 30
0.0
 11
208.601
 21
285.2598183049
 31
0.0
  0
LINE
  5
3D5
330
1F
100
AcDbEntity
  8
0
  6
Continuous
 62
     7
370
    15
100
AcDbLine
 10
210.801
 20
285.2598183049
 30
0.0
 11
210.801
 21
281.2598183049
 31
0.0
  0
LINE
  5
3D6
330
1F
100
AcDbEntity
  8
0
  6
Continuous
 62
     7
370
    15
100
AcDbLine
 10
-119.399
 20
285.2598183049
 30
0.0
 11
-119.399
 21
-90.7401816951
 31
0.0
  0
LINE
  5
3D7
330
1F
100
AcDbEntity
  8
0
  6
Continuous
 62
     7
370
    15
100
AcDbLine
 10
-121.399
 20
-90.7401816951
 30
0.0
 11
-119.399
 21
-90.7401816951
 31
0.0
  0
LINE
  5
3D8
330
1F
100
AcDbEntity
  8
0
  6
Continuous
 62
     7
370
    15
100
AcDbLine
 10
-121.399
 20
-90.7401816951
 30
0.0
 11
-121.399
 21
285.2598183049
 31
0.0
  0
LINE
  5
3D9
330
1F
100
AcDbEntity
  8
0
  6
Continuous
 62
     7
370
    15
100
AcDbLine
 10
-119.399
 20
285.2598183049
 30
0.0
 11
-121.399
 21
285.2598183049
 31
0.0
  0
LINE
  5
3DA
330
1F
100
AcDbEntity
  8
0
  6
Continuous
 62
     7
370
    15
100
AcDbLine
 10
0.601
 20
285.2598183049
 30
0.0
 11
0.601
 21
-90.7401816951
 31
0.0
  0
LINE
  5
3DB
330
1F
100
AcDbEntity
  8
0
  6
Continuous
 62
     7
370
    15
100
AcDbLine
 10
-1.399
 20
-90.7401816951
 30
0.0
 11
0.601
 21
-90.7401816951
 31
0.0
  0
LINE
  5
3DC
330
1F
100
AcDbEntity
  8
0
  6
Continuous
 62
     7
370
    15
100
AcDbLine
 10
-1.399
 20
-90.7401816951
 30
0.0
 11
-1.399
 21
285.2598183049
 31
0.0
  0
LINE
  5
3DD
330
1F
100
AcDbEntity
  8
0
  6
Continuous
 62
     7
370
    15
100
AcDbLine
 10
0.601
 20
285.2598183049
 30
0.0
 11
-1.399
 21
285.2598183049
 31
0.0
  0
LINE
  5
3DE
330
1F
100
AcDbEntity
  8
0
  6
Continuous
 62
     7
370
    15
100
AcDbLine
 10
-149.399
 20
285.2598183049
 30
0.0
 11
-149.399
 21
-90.7401816951
 31
0.0
  0
LINE
  5
3DF
330
1F
100
AcDbEntity
  8
0
  6
Continuous
 62
     7
370
    15
100
AcDbLine
 10
-151.399
 20
-90.7401816951
 30
0.0
 11
-151.399
 21
285.2598183049
 31
0.0
  0
LINE
  5
3E0
330
1F
100
AcDbEntity
  8
0
  6
Continuous
 62
     7
370
    15
100
AcDbLine
 10
-149.399
 20
285.2598183049
 30
0.0
 11
-151.399
 21
285.2598183049
 31
0.0
  0
LINE
  5
3E1
330
1F
100
AcDbEntity
  8
0
  6
Continuous
 62
     7
370
    15
100
AcDbLine
 10
-151.399
 20
-90.7401816951
 30
0.0
 11
-149.399
 21
-90.7401816951
 31
0.0
  0
LINE
  5
3E2
330
1F
100
AcDbEntity
  8
0
  6
Continuous
 62
     7
370
    15
100
AcDbLine
 10
30.601
 20
285.2598183049
 30
0.0
 11
30.601
 21
-90.7401816951
 31
0.0
  0
LINE
  5
3E3
330
1F
100
AcDbEntity
  8
0
  6
Continuous
 62
     7
370
    15
100
AcDbLine
 10
30.601
 20
285.2598183049
 30
0.0
 11
28.601
 21
285.2598183049
 31
0.0
  0
LINE
  5
3E4
330
1F
100
AcDbEntity
  8
0
  6
Continuous
 62
     7
370
    15
100
AcDbLine
 10
28.601
 20
-90.7401816951
 30
0.0
 11
30.601
 21
-90.7401816951
 31
0.0
  0
LINE
  5
3E5
330
1F
100
AcDbEntity
  8
0
  6
Continuous
 62
     7
370
    15
100
AcDbLine
 10
28.601
 20
-90.7401816951
 30
0.0
 11
28.601
 21
285.2598183049
 31
0.0
  0
LINE
  5
3E6
330
1F
100
AcDbEntity
  8
0
  6
Continuous
 62
     7
370
    15
100
AcDbLine
 10
88.601
 20
-90.7401816951
 30
0.0
 11
90.601
 21
-90.7401816951
 31
0.0
  0
LINE
  5
3E7
330
1F
100
AcDbEntity
  8
0
  6
Continuous
 62
     7
370
    15
100
AcDbLine
 10
88.601
 20
-90.7401816951
 30
0.0
 11
88.601
 21
285.2598183049
 31
0.0
  0
LINE
  5
3E8
330
1F
100
AcDbEntity
  8
0
  6
Continuous
 62
     7
370
    15
100
AcDbLine
 10
90.601
 20
285.2598183049
 30
0.0
 11
88.601
 21
285.2598183049
 31
0.0
  0
LINE
  5
3E9
330
1F
100
AcDbEntity
  8
0
  6
Continuous
 62
     7
370
    15
100
AcDbLine
 10
90.601
 20
285.2598183049
 30
0.0
 11
90.601
 21
-90.7401816951
 31
0.0
  0
LINE
  5
3EA
330
1F
100
AcDbEntity
  8
0
  6
Continuous
 62
     7
370
    15
100
AcDbLine
 10
148.601
 20
-90.7401816951
 30
0.0
 11
150.601
 21
-90.7401816951
 31
0.0
  0
LINE
  5
3EB
330
1F
100
AcDbEntity
  8
0
  6
Continuous
 62
     7
370
    15
100
AcDbLine
 10
148.601
 20
-90.7401816951
 30
0.0
 11
148.601
 21
285.2598183049
 31
0.0
  0
LINE
  5
3EC
330
1F
100
AcDbEntity
  8
0
  6
Continuous
 62
     7
370
    15
100
AcDbLine
 10
150.601
 20
285.2598183049
 30
0.0
 11
148.601
 21
285.2598183049
 31
0.0
  0
LINE
  5
3ED
330
1F
100
AcDbEntity
  8
0
  6
Continuous
 62
     7
370
    15
100
AcDbLine
 10
150.601
 20
285.2598183049
 30
0.0
 11
150.601
 21
-90.7401816951
 31
0.0
  0
LINE
  5
3EE
330
1F
100
AcDbEntity
  8
0
  6
Continuous
 62
     7
370
    15
100
AcDbLine
 10
-179.399
 20
285.2598183049
 30
0.0
 11
-181.399
 21
285.2598183049
 31
0.0
  0
LINE
  5
3EF
330
1F
100
AcDbEntity
  8
0
  6
Continuous
 62
     7
370
    15
100
AcDbLine
 10
-181.399
 20
-90.7401816951
 30
0.0
 11
-181.399
 21
285.2598183049
 31
0.0
  0
LINE
  5
3F0
330
1F
100
AcDbEntity
  8
0
  6
Continuous
 62
     7
370
    15
100
AcDbLine
 10
-179.399
 20
285.2598183049
 30
0.0
 11
-179.399
 21
-90.7401816951
 31
0.0
  0
LINE
  5
3F1
330
1F
100
AcDbEntity
  8
0
  6
Continuous
 62
     7
370
    15
100
AcDbLine
 10
-181.399
 20
-90.7401816951
 30
0.0
 11
-179.399
 21
-90.7401816951
 31
0.0
  0
LINE
  5
3F2
330
1F
100
AcDbEntity
  8
0
  6
Continuous
 62
     7
370
    15
100
AcDbLine
 10
-61.399
 20
-90.7401816951
 30
0.0
 11
-59.399
 21
-90.7401816951
 31
0.0
  0
LINE
  5
3F3
330
1F
100
AcDbEntity
  8
0
  6
Continuous
 62
     7
370
    15
100
AcDbLine
 10
-59.399
 20
285.2598183049
 30
0.0
 11
-61.399
 21
285.2598183049
 31
0.0
  0
LINE
  5
3F4
330
1F
100
AcDbEntity
  8
0
  6
Continuous
 62
     7
370
    15
100
AcDbLine
 10
-59.399
 20
285.2598183049
 30
0.0
 11
-59.399
 21
-90.7401816951
 31
0.0
  0
LINE
  5
3F5
330
1F
100
AcDbEntity
  8
0
  6
Continuous
 62
     7
370
    15
100
AcDbLine
 10
-61.399
 20
-90.7401816951
 30
0.0
 11
-61.399
 21
285.2598183049
 31
0.0
  0
LINE
  5
3F6
330
1F
100
AcDbEntity
  8
0
  6
Continuous
 62
     7
370
    15
100
AcDbLine
 10
-89.399
 20
285.2598183049
 30
0.0
 11
-89.399
 21
-90.7401816951
 31
0.0
  0
LINE
  5
3F7
330
1F
100
AcDbEntity
  8
0
  6
Continuous
 62
     7
370
    15
100
AcDbLine
 10
-89.399
 20
285.2598183049
 30
0.0
 11
-91.399
 21
285.2598183049
 31
0.0
  0
LINE
  5
3F8
330
1F
100
AcDbEntity
  8
0
  6
Continuous
 62
     7
370
    15
100
AcDbLine
 10
-91.399
 20
-90.7401816951
 30
0.0
 11
-89.399
 21
-90.7401816951
 31
0.0
  0
LINE
  5
3F9
330
1F
100
AcDbEntity
  8
0
  6
Continuous
 62
     7
370
    15
100
AcDbLine
 10
-91.399
 20
-90.7401816951
 30
0.0
 11
-91.399
 21
285.2598183049
 31
0.0
  0
LINE
  5
3FA
330
1F
100
AcDbEntity
  8
0
  6
Continuous
 62
     7
370
    15
100
AcDbLine
 10
120.601
 20
285.2598183049
 30
0.0
 11
120.601
 21
-90.7401816951
 31
0.0
  0
LINE
  5
3FB
330
1F
100
AcDbEntity
  8
0
  6
Continuous
 62
     7
370
    15
100
AcDbLine
 10
118.601
 20
-90.7401816951
 30
0.0
 11
120.601
 21
-90.7401816951
 31
0.0
  0
LINE
  5
3FC
330
1F
100
AcDbEntity
  8
0
  6
Continuous
 62
     7
370
    15
100
AcDbLine
 10
120.601
 20
285.2598183049
 30
0.0
 11
118.601
 21
285.2598183049
 31
0.0
  0
LINE
  5
3FD
330
1F
100
AcDbEntity
  8
0
  6
Continuous
 62
     7
370
    15
100
AcDbLine
 10
118.601
 20
-90.7401816951
 30
0.0
 11
118.601
 21
285.2598183049
 31
0.0
  0
LINE
  5
3FE
330
1F
100
AcDbEntity
  8
0
  6
Continuous
 62
     7
370
    15
100
AcDbLine
 10
180.601
 20
285.2598183049
 30
0.0
 11
180.601
 21
-90.7401816951
 31
0.0
  0
LINE
  5
3FF
330
1F
100
AcDbEntity
  8
0
  6
Continuous
 62
     7
370
    15
100
AcDbLine
 10
180.601
 20
285.2598183049
 30
0.0
 11
178.601
 21
285.2598183049
 31
0.0
  0
LINE
  5
400
330
1F
100
AcDbEntity
  8
0
  6
Continuous
 62
     7
370
    15
100
AcDbLine
 10
178.601
 20
-90.7401816951
 30
0.0
 11
178.601
 21
285.2598183049
 31
0.0
  0
LINE
  5
401
330
1F
100
AcDbEntity
  8
0
  6
Continuous
 62
     7
370
    15
100
AcDbLine
 10
178.601
 20
-90.7401816951
 30
0.0
 11
180.601
 21
-90.7401816951
 31
0.0
  0
LINE
  5
402
330
1F
100
AcDbEntity
  8
0
  6
Continuous
 62
     7
370
    15
100
AcDbLine
 10
60.601
 20
285.2598183049
 30
0.0
 11
60.601
 21
-90.7401816951
 31
0.0
  0
LINE
  5
403
330
1F
100
AcDbEntity
  8
0
  6
Continuous
 62
     7
370
    15
100
AcDbLine
 10
60.601
 20
285.2598183049
 30
0.0
 11
58.601
 21
285.2598183049
 31
0.0
  0
LINE
  5
404
330
1F
100
AcDbEntity
  8
0
  6
Continuous
 62
     7
370
    15
100
AcDbLine
 10
58.601
 20
-90.7401816951
 30
0.0
 11
60.601
 21
-90.7401816951
 31
0.0
  0
LINE
  5
405
330
1F
100
AcDbEntity
  8
0
  6
Continuous
 62
     7
370
    15
100
AcDbLine
 10
58.601
 20
-90.7401816951
 30
0.0
 11
58.601
 21
285.2598183049
 31
0.0
  0
LINE
  5
406
330
1F
100
AcDbEntity
  8
0
  6
Continuous
 62
     7
370
    15
100
AcDbLine
 10
-29.399
 20
285.2598183049
 30
0.0
 11
-31.399
 21
285.2598183049
 31
0.0
  0
LINE
  5
407
330
1F
100
AcDbEntity
  8
0
  6
Continuous
 62
     7
370
    15
100
AcDbLine
 10
-31.399
 20
-90.7401816951
 30
0.0
 11
-31.399
 21
285.2598183049
 31
0.0
  0
LINE
  5
408
330
1F
100
AcDbEntity
  8
0
  6
Continuous
 62
     7
370
    15
100
AcDbLine
 10
-31.399
 20
-90.7401816951
 30
0.0
 11
-29.399
 21
-90.7401816951
 31
0.0
  0
LINE
  5
409
330
1F
100
AcDbEntity
  8
0
  6
Continuous
 62
     7
370
    15
100
AcDbLine
 10
-29.399
 20
285.2598183049
 30
0.0
 11
-29.399
 21
-90.7401816951
 31
0.0
  0
LINE
  5
40A
330
1F
100
AcDbEntity
  8
0
  6
Continuous
 62
     7
370
    15
100
AcDbLine
 10
-212.999
 20
-77.1401816951
 30
0.0
 11
-212.999
 21
-86.3343249692
 31
0.0
  0
LINE
  5
40B
330
1F
100
AcDbEntity
  8
0
  6
Continuous
 62
     7
370
    15
100
AcDbLine
 10
212.201
 20
-86.3401816951
 30
0.0
 11
212.201
 21
-77.140350898
 31
0.0
  0
LINE
  5
40C
330
1F
100
AcDbEntity
  8
0
  6
Continuous
 62
     7
370
    15
100
AcDbLine
 10
-212.999
 20
280.8598183049
 30
0.0
 11
-212.999
 21
271.6656750308
 31
0.0
  0
LINE
  5
40D
330
1F
100
AcDbEntity
  8
0
  6
Continuous
 62
     7
370
    15
100
AcDbLine
 10
212.201
 20
271.6870729588
 30
0.0
 11
212.201
 21
280.8598183049
 31
0.0
  0
LINE
  5
40E
330
1F
100
AcDbEntity
  8
0
  6
Continuous
 62
     7
370
    15
100
AcDbLine
 10
216.6464482672
 20
-83.7248239977
 30
0.0
 11
212.4555517328
 21
-83.7248239977
 31
0.0
  0
LINE
  5
40F
330
1F
100
AcDbEntity
  8
0
  6
Continuous
 62
     7
370
    15
100
AcDbLine
 10
212.4555517328
 20
-80.0614445987
 30
0.0
 11
216.6464482672
 21
-80.0614445987
 31
0.0
  0
LINE
  5
410
330
1F
100
AcDbEntity
  8
0
  6
Continuous
 62
     7
370
    15
100
AcDbLine
 10
212.4555517328
 20
-77.3401816951
 30
0.0
 11
212.4555517328
 21
-77.3785438044
 31
0.0
  0
LINE
  5
411
330
1F
100
AcDbEntity
  8
0
  6
Continuous
 62
     7
370
    15
100
AcDbLine
 10
212.4555517328
 20
-79.331635869
 30
0.0
 11
212.4555517328
 21
-80.0614445987
 31
0.0
  0
LINE
  5
412
330
1F
100
AcDbEntity
  8
0
  6
Continuous
 62
     7
370
    15
100
AcDbLine
 10
212.4555517328
 20
-83.7248239977
 30
0.0
 11
212.4555517328
 21
-84.4230824894
 31
0.0
  0
LINE
  5
413
330
1F
100
AcDbEntity
  8
0
  6
Continuous
 62
     7
370
    15
100
AcDbLine
 10
212.4555517328
 20
-86.1333698238
 30
0.0
 11
212.4555517328
 21
-86.1401816952
 31
0.0
  0
LINE
  5
414
330
1F
100
AcDbEntity
  8
0
  6
Continuous
 62
     7
370
    15
100
AcDbLine
 10
216.6464482672
 20
-86.1333698238
 30
0.0
 11
216.6464482672
 21
-86.1401816951
 31
0.0
  0
LINE
  5
415
330
1F
100
AcDbEntity
  8
0
  6
Continuous
 62
     7
370
    15
100
AcDbLine
 10
216.6464482672
 20
-83.7248239977
 30
0.0
 11
216.6464482672
 21
-84.4230824894
 31
0.0
  0
LINE
  5
416
330
1F
100
AcDbEntity
  8
0
  6
Continuous
 62
     7
370
    15
100
AcDbLine
 10
216.6464482672
 20
-79.331635869
 30
0.0
 11
216.6464482672
 21
-80.0614445987
 31
0.0
  0
LINE
  5
417
330
1F
100
AcDbEntity
  8
0
  6
Continuous
 62
     7
370
    15
100
AcDbLine
 10
216.6464482672
 20
-77.3401816951
 30
0.0
 11
216.6464482672
 21
-77.3785438044
 31
0.0
  0
LINE
  5
418
330
1F
100
AcDbEntity
  8
0
  6
Continuous
 62
     7
370
    15
100
AcDbLine
 10
216.901
 20
-85.1901816951
 30
0.0
 11
216.901
 21
-78.2901816951
 31
0.0
  0
LINE
  5
419
330
1F
100
AcDbEntity
  8
0
  6
Continuous
 62
     7
370
    15
100
AcDbLine
 10
212.4555517328
 20
271.8876814265
 30
0.0
 11
212.4555517328
 21
271.8598183049
 31
0.0
  0
LINE
  5
41A
330
1F
100
AcDbEntity
  8
0
  6
Continuous
 62
     7
370
    15
100
AcDbLine
 10
212.4555517328
 20
280.6598183049
 30
0.0
 11
212.4555517328
 21
280.6473832049
 31
0.0
  0
LINE
  5
41B
330
1F
100
AcDbEntity
  8
0
  6
Continuous
 62
     7
370
    15
100
AcDbLine
 10
212.4555517328
 20
278.8740389807
 30
0.0
 11
212.4555517328
 21
278.1673217195
 31
0.0
  0
LINE
  5
41C
330
1F
100
AcDbEntity
  8
0
  6
Continuous
 62
     7
370
    15
100
AcDbLine
 10
212.4555517328
 20
274.5019021023
 30
0.0
 11
212.4555517328
 21
273.7797568194
 31
0.0
  0
LINE
  5
41D
330
1F
100
AcDbEntity
  8
0
  6
Continuous
 62
     7
370
    15
100
AcDbLine
 10
216.6464482672
 20
274.5019021023
 30
0.0
 11
212.4555517328
 21
274.5019021023
 31
0.0
  0
LINE
  5
41E
330
1F
100
AcDbEntity
  8
0
  6
Continuous
 62
     7
370
    15
100
AcDbLine
 10
212.4555517328
 20
278.1673217195
 30
0.0
 11
216.6464482672
 21
278.1673217195
 31
0.0
  0
LINE
  5
41F
330
1F
100
AcDbEntity
  8
0
  6
Continuous
 62
     7
370
    15
100
AcDbLine
 10
216.6464482672
 20
280.6598183049
 30
0.0
 11
216.6464482672
 21
280.6473832049
 31
0.0
  0
LINE
  5
420
330
1F
100
AcDbEntity
  8
0
  6
Continuous
 62
     7
370
    15
100
AcDbLine
 10
216.6464482672
 20
271.8876814265
 30
0.0
 11
216.6464482672
 21
271.8598183049
 31
0.0
  0
LINE
  5
421
330
1F
100
AcDbEntity
  8
0
  6
Continuous
 62
     7
370
    15
100
AcDbLine
 10
216.6464482672
 20
273.7797568194
 30
0.0
 11
216.6464482672
 21
274.5019021023
 31
0.0
  0
LINE
  5
422
330
1F
100
AcDbEntity
  8
0
  6
Continuous
 62
     7
370
    15
100
AcDbLine
 10
216.6464482672
 20
278.8740389807
 30
0.0
 11
216.6464482672
 21
278.1673217195
 31
0.0
  0
LINE
  5
423
330
1F
100
AcDbEntity
  8
0
  6
Continuous
 62
     7
370
    15
100
AcDbLine
 10
216.901
 20
272.8098183049
 30
0.0
 11
216.901
 21
279.7098183049
 31
0.0
  0
LINE
  5
424
330
1F
100
AcDbEntity
  8
0
  6
Continuous
 62
     7
370
    15
100
AcDbLine
 10
216.6464482672
 20
-79.331635869
 30
0.0
 11
212.4555517328
 21
-79.331635869
 31
0.0
  0
LINE
  5
425
330
1F
100
AcDbEntity
  8
0
  6
Continuous
 62
     7
370
    15
100
AcDbLine
 10
212.4555517328
 20
273.7797568194
 30
0.0
 11
216.6464482672
 21
273.7797568194
 31
0.0
  0
LINE
  5
426
330
1F
100
AcDbEntity
  8
0
  6
Continuous
 62
     7
370
    15
100
AcDbLine
 10
-213.2535517328
 20
-77.359564941
 30
0.0
 11
-213.2535517328
 21
-77.3401816951
 31
0.0
  0
LINE
  5
427
330
1F
100
AcDbEntity
  8
0
  6
Continuous
 62
     7
370
    15
100
AcDbLine
 10
-213.2535517328
 20
-86.1401816951
 30
0.0
 11
-213.2535517328
 21
-86.1207984492
 31
0.0
  0
LINE
  5
428
330
1F
100
AcDbEntity
  8
0
  6
Continuous
 62
     7
370
    15
100
AcDbLine
 10
-213.2535517328
 20
-84.2877681713
 30
0.0
 11
-213.2535517328
 21
-83.5732119731
 31
0.0
  0
LINE
  5
429
330
1F
100
AcDbEntity
  8
0
  6
Continuous
 62
     7
370
    15
100
AcDbLine
 10
-213.2535517328
 20
-79.9071514171
 30
0.0
 11
-213.2535517328
 21
-79.192595219
 31
0.0
  0
LINE
  5
42A
330
1F
100
AcDbEntity
  8
0
  6
Continuous
 62
     7
370
    15
100
AcDbLine
 10
-213.2535517328
 20
-83.5732119731
 30
0.0
 11
-217.4444482672
 21
-83.573211973
 31
0.0
  0
LINE
  5
42B
330
1F
100
AcDbEntity
  8
0
  6
Continuous
 62
     7
370
    15
100
AcDbLine
 10
-217.4444482672
 20
-84.2877681713
 30
0.0
 11
-213.2535517328
 21
-84.2877681713
 31
0.0
  0
LINE
  5
42C
330
1F
100
AcDbEntity
  8
0
  6
Continuous
 62
     7
370
    15
100
AcDbLine
 10
-217.4444482672
 20
-84.2877681713
 30
0.0
 11
-217.4444482672
 21
-83.573211973
 31
0.0
  0
LINE
  5
42D
330
1F
100
AcDbEntity
  8
0
  6
Continuous
 62
     7
370
    15
100
AcDbLine
 10
-217.4444482672
 20
-79.9071514171
 30
0.0
 11
-213.2535517328
 21
-79.9071514171
 31
0.0
  0
LINE
  5
42E
330
1F
100
AcDbEntity
  8
0
  6
Continuous
 62
     7
370
    15
100
AcDbLine
 10
-213.2535517328
 20
-79.192595219
 30
0.0
 11
-217.4444482672
 21
-79.192595219
 31
0.0
  0
LINE
  5
42F
330
1F
100
AcDbEntity
  8
0
  6
Continuous
 62
     7
370
    15
100
AcDbLine
 10
-217.4444482672
 20
-79.192595219
 30
0.0
 11
-217.4444482672
 21
-79.9071514171
 31
0.0
  0
LINE
  5
430
330
1F
100
AcDbEntity
  8
0
  6
Continuous
 62
     7
370
    15
100
AcDbLine
 10
-217.699
 20
-78.2901816951
 30
0.0
 11
-217.699
 21
-85.1901816951
 31
0.0
  0
LINE
  5
431
330
1F
100
AcDbEntity
  8
0
  6
Continuous
 62
     7
370
    15
100
AcDbLine
 10
-217.4444482672
 20
-86.1401816951
 30
0.0
 11
-217.4444482672
 21
-86.1207984492
 31
0.0
  0
LINE
  5
432
330
1F
100
AcDbEntity
  8
0
  6
Continuous
 62
     7
370
    15
100
AcDbLine
 10
-217.4444482672
 20
-77.359564941
 30
0.0
 11
-217.4444482672
 21
-77.3401816951
 31
0.0
  0
LINE
  5
433
330
1F
100
AcDbEntity
  8
0
  6
Continuous
 62
     7
370
    15
100
AcDbLine
 10
-217.699
 20
279.7098183049
 30
0.0
 11
-217.699
 21
272.8098183049
 31
0.0
  0
LINE
  5
434
330
1F
100
AcDbEntity
  8
0
  6
Continuous
 62
     7
370
    15
100
AcDbLine
 10
-217.4444482672
 20
271.8598183049
 30
0.0
 11
-217.4444482672
 21
271.8792015508
 31
0.0
  0
LINE
  5
435
330
1F
100
AcDbEntity
  8
0
  6
Continuous
 62
     7
370
    15
100
AcDbLine
 10
-217.4444482672
 20
280.640435059
 30
0.0
 11
-217.4444482672
 21
280.6598183049
 31
0.0
  0
LINE
  5
436
330
1F
100
AcDbEntity
  8
0
  6
Continuous
 62
     7
370
    15
100
AcDbLine
 10
-217.4444482672
 20
278.807404781
 30
0.0
 11
-217.4444482672
 21
278.0928485829
 31
0.0
  0
LINE
  5
437
330
1F
100
AcDbEntity
  8
0
  6
Continuous
 62
     7
370
    15
100
AcDbLine
 10
-217.4444482672
 20
273.7122318287
 30
0.0
 11
-217.4444482672
 21
274.426788027
 31
0.0
  0
LINE
  5
438
330
1F
100
AcDbEntity
  8
0
  6
Continuous
 62
     7
370
    15
100
AcDbLine
 10
-213.2535517328
 20
274.4267880269
 30
0.0
 11
-217.4444482672
 21
274.426788027
 31
0.0
  0
LINE
  5
439
330
1F
100
AcDbEntity
  8
0
  6
Continuous
 62
     7
370
    15
100
AcDbLine
 10
-217.4444482672
 20
278.0928485829
 30
0.0
 11
-213.2535517328
 21
278.0928485829
 31
0.0
  0
LINE
  5
43A
330
1F
100
AcDbEntity
  8
0
  6
Continuous
 62
     7
370
    15
100
AcDbLine
 10
-213.2535517328
 20
280.640435059
 30
0.0
 11
-213.2535517328
 21
280.6598183049
 31
0.0
  0
LINE
  5
43B
330
1F
100
AcDbEntity
  8
0
  6
Continuous
 62
     7
370
    15
100
AcDbLine
 10
-213.2535517328
 20
271.8598183049
 30
0.0
 11
-213.2535517328
 21
271.8792015508
 31
0.0
  0
LINE
  5
43C
330
1F
100
AcDbEntity
  8
0
  6
Continuous
 62
     7
370
    15
100
AcDbLine
 10
-213.2535517328
 20
273.7122318287
 30
0.0
 11
-213.2535517328
 21
274.4267880269
 31
0.0
  0
LINE
  5
43D
330
1F
100
AcDbEntity
  8
0
  6
Continuous
 62
     7
370
    15
100
AcDbLine
 10
-213.2535517328
 20
278.0928485829
 30
0.0
 11
-213.2535517328
 21
278.807404781
 31
0.0
  0
LINE
  5
43E
330
1F
100
AcDbEntity
  8
0
  6
Continuous
 62
     7
370
    15
100
AcDbLine
 10
-217.4444482672
 20
273.7122318287
 30
0.0
 11
-213.2535517328
 21
273.7122318287
 31
0.0
  0
LINE
  5
43F
330
1F
100
AcDbEntity
  8
0
  6
Continuous
 62
     7
370
    15
100
AcDbLine
 10
-213.2535517328
 20
278.807404781
 30
0.0
 11
-217.4444482672
 21
278.807404781
 31
0.0
  0
LINE
  5
440
330
1F
100
AcDbEntity
  8
0
  6
Continuous
 62
     7
370
    15
100
AcDbLine
 10
216.6464482672
 20
278.8740389807
 30
0.0
 11
212.4555517328
 21
278.8740389807
 31
0.0
  0
LINE
  5
441
330
1F
100
AcDbEntity
  8
0
  6
Continuous
 62
     7
370
    15
100
AcDbLine
 10
212.4555517328
 20
-84.4230824894
 30
0.0
 11
216.6464482672
 21
-84.4230824894
 31
0.0
  0
LINE
  5
442
330
1F
100
AcDbEntity
  8
0
  6
Continuous
 62
     7
370
    15
100
AcDbLine
 10
212.4555517328
 20
-77.3785438044
 30
0.0
 11
216.6464482672
 21
-77.3785438044
 31
0.0
  0
LINE
  5
443
330
1F
100
AcDbEntity
  8
0
  6
Continuous
 62
     7
370
    15
100
AcDbLine
 10
216.6464482672
 20
271.8876814265
 30
0.0
 11
212.4555517328
 21
271.8876814265
 31
0.0
  0
LINE
  5
444
330
1F
100
AcDbEntity
  8
0
  6
Continuous
 62
     7
370
    15
100
AcDbLine
 10
-217.4444482672
 20
-77.359564941
 30
0.0
 11
-213.2535517328
 21
-77.359564941
 31
0.0
  0
LINE
  5
445
330
1F
100
AcDbEntity
  8
0
  6
Continuous
 62
     7
370
    15
100
AcDbLine
 10
-217.4444482672
 20
280.640435059
 30
0.0
 11
-213.2535517328
 21
280.640435059
 31
0.0
  0
LINE
  5
446
330
1F
100
AcDbEntity
  8
0
  6
Continuous
 62
     7
370
    15
100
AcDbLine
 10
-213.2535517328
 20
-86.1207984492
 30
0.0
 11
-217.4444482672
 21
-86.1207984492
 31
0.0
  0
LINE
  5
447
330
1F
100
AcDbEntity
  8
0
  6
Continuous
 62
     7
370
    15
100
AcDbLine
 10
-213.2535517328
 20
271.8792015508
 30
0.0
 11
-217.4444482672
 21
271.8792015508
 31
0.0
  0
LINE
  5
448
330
1F
100
AcDbEntity
  8
0
  6
Continuous
 62
     7
370
    15
100
AcDbLine
 10
212.4555517328
 20
280.6473832049
 30
0.0
 11
216.6464482672
 21
280.6473832049
 31
0.0
  0
LINE
  5
449
330
1F
100
AcDbEntity
  8
0
  6
Continuous
 62
     7
370
    15
100
AcDbLine
 10
216.6464482672
 20
-86.1333698238
 30
0.0
 11
212.4555517328
 21
-86.1333698238
 31
0.0
  0
LINE
  5
44A
330
1F
100
AcDbEntity
  8
0
  6
Continuous
 62
     7
370
    15
100
AcDbLine
 10
-218.199
 20
-79.7401816951
 30
0.0
 11
-218.199
 21
-83.7401816951
 31
0.0
  0
LINE
  5
44B
330
1F
100
AcDbEntity
  8
0
  6
Continuous
 62
     7
370
    15
100
AcDbLine
 10
-218.199
 20
278.2598183049
 30
0.0
 11
-218.199
 21
274.2598183049
 31
0.0
  0
LINE
  5
44C
330
1F
100
AcDbEntity
  8
0
  6
Continuous
 62
     7
370
    15
100
AcDbLine
 10
-221.699
 20
-86.7401816951
 30
0.0
 11
-221.699
 21
-76.7401816951
 31
0.0
  0
LINE
  5
44D
330
1F
100
AcDbEntity
  8
0
  6
Continuous
 62
     7
370
    15
100
AcDbLine
 10
-222.399
 20
-76.7401816951
 30
0.0
 11
-222.399
 21
-86.7401816951
 31
0.0
  0
LINE
  5
44E
330
1F
100
AcDbEntity
  8
0
  6
Continuous
 62
     7
370
    15
100
AcDbLine
 10
220.901
 20
281.2598183049
 30
0.0
 11
220.901
 21
271.2598183049
 31
0.0
  0
LINE
  5
44F
330
1F
100
AcDbEntity
  8
0
  6
Continuous
 62
     7
370
    15
100
AcDbLine
 10
220.901
 20
-76.7401816951
 30
0.0
 11
220.901
 21
-86.7401816951
 31
0.0
  0
LINE
  5
450
330
1F
100
AcDbEntity
  8
0
  6
Continuous
 62
     7
370
    15
100
AcDbLine
 10
221.601
 20
271.2598183049
 30
0.0
 11
221.601
 21
281.2598183049
 31
0.0
  0
LINE
  5
451
330
1F
100
AcDbEntity
  8
0
  6
Continuous
 62
     7
370
    15
100
AcDbLine
 10
221.601
 20
-86.7401816951
 30
0.0
 11
221.601
 21
-76.7401816951
 31
0.0
  0
LINE
  5
452
330
1F
100
AcDbEntity
  8
0
  6
Continuous
 62
     7
370
    15
100
AcDbLine
 10
-221.699
 20
271.2598183049
 30
0.0
 11
-221.699
 21
281.2598183049
 31
0.0
  0
LINE
  5
453
330
1F
100
AcDbEntity
  8
0
  6
Continuous
 62
     7
370
    15
100
AcDbLine
 10
-222.399
 20
281.2598183049
 30
0.0
 11
-222.399
 21
271.2598183049
 31
0.0
  0
LINE
  5
454
330
1F
100
AcDbEntity
  8
0
  6
Continuous
 62
     7
370
    15
100
AcDbLine
 10
233.001
 20
-95.5619227938
 30
0.0
 11
233.001
 21
-212.2401816951
 31
0.0
  0
LINE
  5
455
330
1F
100
AcDbEntity
  8
0
  6
Continuous
 62
     7
370
    15
100
AcDbLine
 10
233.001
 20
-209.7401816951
 30
0.0
 11
-233.001
 21
-209.7401816951
 31
0.0
  0
LINE
  5
456
330
1F
100
AcDbEntity
  8
0
  6
Continuous
 62
     7
370
    15
100
AcDbLine
 10
-233.001
 20
-212.2401816951
 30
0.0
 11
-233.001
 21
-95.5619227938
 31
0.0
  0
LINE
  5
457
330
1F
100
AcDbEntity
  8
0
  6
Continuous
 62
     7
370
    15
100
AcDbLine
 10
-221.901
 20
-94.7401816951
 30
0.0
 11
-221.901
 21
-86.7401816951
 31
0.0
  0
LINE
  5
458
330
1F
100
AcDbEntity
  8
0
  6
Continuous
 62
     7
370
    15
100
AcDbLine
 10
-221.901
 20
-76.7401816951
 30
0.0
 11
-221.901
 21
-74.2401816951
 31
0.0
  0
LINE
  5
459
330
1F
100
AcDbEntity
  8
0
  6
Continuous
 62
     7
370
    15
100
AcDbLine
 10
-221.901
 20
-74.2401816951
 30
0.0
 11
-224.101
 21
-74.2401816951
 31
0.0
  0
LINE
  5
45A
330
1F
100
AcDbEntity
  8
0
  6
Continuous
 62
     7
370
    15
100
AcDbLine
 10
-224.101
 20
-74.2401816951
 30
0.0
 11
-224.101
 21
-93.5401816951
 31
0.0
  0
LINE
  5
45B
330
1F
100
AcDbEntity
  8
0
  6
Continuous
 62
     7
370
    15
100
AcDbLine
 10
-224.101
 20
-93.5401816951
 30
0.0
 11
-231.801
 21
-93.5401816951
 31
0.0
  0
LINE
  5
45C
330
1F
100
AcDbEntity
  8
0
  6
Continuous
 62
     7
370
    15
100
AcDbLine
 10
-231.801
 20
-94.6394299049
 30
0.0
 11
-231.801
 21
-93.5401816951
 31
0.0
  0
LINE
  5
45D
330
1F
100
AcDbEntity
  8
0
  6
Continuous
 62
     7
370
    15
100
AcDbLine
 10
231.801
 20
-93.5401816951
 30
0.0
 11
231.801
 21
-94.6394299049
 31
0.0
  0
LINE
  5
45E
330
1F
100
AcDbEntity
  8
0
  6
Continuous
 62
     7
370
    15
100
AcDbLine
 10
231.801
 20
-93.5401816951
 30
0.0
 11
224.101
 21
-93.5401816951
 31
0.0
  0
LINE
  5
45F
330
1F
100
AcDbEntity
  8
0
  6
Continuous
 62
     7
370
    15
100
AcDbLine
 10
224.101
 20
-93.5401816951
 30
0.0
 11
224.101
 21
-74.2401816951
 31
0.0
  0
LINE
  5
460
330
1F
100
AcDbEntity
  8
0
  6
Continuous
 62
     7
370
    15
100
AcDbLine
 10
224.101
 20
-74.2401816951
 30
0.0
 11
221.901
 21
-74.2401816951
 31
0.0
  0
LINE
  5
461
330
1F
100
AcDbEntity
  8
0
  6
Continuous
 62
     7
370
    15
100
AcDbLine
 10
221.901
 20
-74.2401816951
 30
0.0
 11
221.901
 21
-94.7401816951
 31
0.0
  0
LINE
  5
462
330
1F
100
AcDbEntity
  8
0
  6
Continuous
 62
     7
370
    15
100
AcDbLine
 10
221.901
 20
283.7598183049
 30
0.0
 11
221.901
 21
267.7598183049
 31
0.0
  0
LINE
  5
463
330
1F
100
AcDbEntity
  8
0
  6
Continuous
 62
     7
370
    15
100
AcDbLine
 10
221.901
 20
267.7598183049
 30
0.0
 11
224.101
 21
267.7598183049
 31
0.0
  0
LINE
  5
464
330
1F
100
AcDbEntity
  8
0
  6
Continuous
 62
     7
370
    15
100
AcDbLine
 10
224.101
 20
267.7598183049
 30
0.0
 11
224.101
 21
283.7598183049
 31
0.0
  0
LINE
  5
465
330
1F
100
AcDbEntity
  8
0
  6
Continuous
 62
     7
370
    15
100
AcDbLine
 10
224.101
 20
283.7598183049
 30
0.0
 11
221.901
 21
283.7598183049
 31
0.0
  0
LINE
  5
466
330
1F
100
AcDbEntity
  8
0
  6
Continuous
 62
     7
370
    15
100
AcDbLine
 10
-221.901
 20
267.7598183049
 30
0.0
 11
-221.901
 21
271.2598183049
 31
0.0
  0
LINE
  5
467
330
1F
100
AcDbEntity
  8
0
  6
Continuous
 62
     7
370
    15
100
AcDbLine
 10
-221.901
 20
281.2598183049
 30
0.0
 11
-221.901
 21
283.7598183049
 31
0.0
  0
LINE
  5
468
330
1F
100
AcDbEntity
  8
0
  6
Continuous
 62
     7
370
    15
100
AcDbLine
 10
-221.901
 20
283.7598183049
 30
0.0
 11
-224.101
 21
283.7598183049
 31
0.0
  0
LINE
  5
469
330
1F
100
AcDbEntity
  8
0
  6
Continuous
 62
     7
370
    15
100
AcDbLine
 10
-224.101
 20
283.7598183049
 30
0.0
 11
-224.101
 21
267.7598183049
 31
0.0
  0
LINE
  5
46A
330
1F
100
AcDbEntity
  8
0
  6
Continuous
 62
     7
370
    15
100
AcDbLine
 10
-224.101
 20
267.7598183049
 30
0.0
 11
-221.901
 21
267.7598183049
 31
0.0
  0
LINE
  5
46B
330
1F
100
AcDbEntity
  8
0
  6
Continuous
 62
     7
370
    15
100
AcDbLine
 10
189.0
 20
-67.7401816951
 30
0.0
 11
189.0
 21
251.2598183049
 31
0.0
  0
LINE
  5
46C
330
1F
100
AcDbEntity
  8
0
  6
Continuous
 62
     7
370
    15
100
AcDbLine
 10
189.0
 20
251.2598183049
 30
0.0
 11
180.601
 21
251.2598183049
 31
0.0
  0
LINE
  5
46D
330
1F
100
AcDbEntity
  8
0
  6
Continuous
 62
     7
370
    15
100
AcDbLine
 10
178.601
 20
251.2598183049
 30
0.0
 11
150.601
 21
251.2598183049
 31
0.0
  0
LINE
  5
46E
330
1F
100
AcDbEntity
  8
0
  6
Continuous
 62
     7
370
    15
100
AcDbLine
 10
148.601
 20
251.2598183049
 30
0.0
 11
120.601
 21
251.2598183049
 31
0.0
  0
LINE
  5
46F
330
1F
100
AcDbEntity
  8
0
  6
Continuous
 62
     7
370
    15
100
AcDbLine
 10
118.601
 20
251.2598183049
 30
0.0
 11
90.601
 21
251.2598183049
 31
0.0
  0
LINE
  5
470
330
1F
100
AcDbEntity
  8
0
  6
Continuous
 62
     7
370
    15
100
AcDbLine
 10
88.601
 20
251.2598183049
 30
0.0
 11
60.601
 21
251.2598183049
 31
0.0
  0
LINE
  5
471
330
1F
100
AcDbEntity
  8
0
  6
Continuous
 62
     7
370
    15
100
AcDbLine
 10
58.601
 20
251.2598183049
 30
0.0
 11
30.601
 21
251.2598183049
 31
0.0
  0
LINE
  5
472
330
1F
100
AcDbEntity
  8
0
  6
Continuous
 62
     7
370
    15
100
AcDbLine
 10
28.601
 20
251.2598183049
 30
0.0
 11
0.601
 21
251.2598183049
 31
0.0
  0
LINE
  5
473
330
1F
100
AcDbEntity
  8
0
  6
Continuous
 62
     7
370
    15
100
AcDbLine
 10
-1.399
 20
251.2598183049
 30
0.0
 11
-29.399
 21
251.2598183049
 31
0.0
  0
LINE
  5
474
330
1F
100
AcDbEntity
  8
0
  6
Continuous
 62
     7
370
    15
100
AcDbLine
 10
-31.399
 20
251.2598183049
 30
0.0
 11
-59.399
 21
251.2598183049
 31
0.0
  0
LINE
  5
475
330
1F
100
AcDbEntity
  8
0
  6
Continuous
 62
     7
370
    15
100
AcDbLine
 10
-61.399
 20
251.2598183049
 30
0.0
 11
-89.399
 21
251.2598183049
 31
0.0
  0
LINE
  5
476
330
1F
100
AcDbEntity
  8
0
  6
Continuous
 62
     7
370
    15
100
AcDbLine
 10
-91.399
 20
251.2598183049
 30
0.0
 11
-119.399
 21
251.2598183049
 31
0.0
  0
LINE
  5
477
330
1F
100
AcDbEntity
  8
0
  6
Continuous
 62
     7
370
    15
100
AcDbLine
 10
-121.399
 20
251.2598183049
 30
0.0
 11
-149.399
 21
251.2598183049
 31
0.0
  0
LINE
  5
478
330
1F
100
AcDbEntity
  8
0
  6
Continuous
 62
     7
370
    15
100
AcDbLine
 10
-151.399
 20
251.2598183049
 30
0.0
 11
-179.399
 21
251.2598183049
 31
0.0
  0
LINE
  5
479
330
1F
100
AcDbEntity
  8
0
  6
Continuous
 62
     7
370
    15
100
AcDbLine
 10
-181.399
 20
251.2598183049
 30
0.0
 11
-189.0
 21
251.2598183049
 31
0.0
  0
LINE
  5
47A
330
1F
100
AcDbEntity
  8
0
  6
Continuous
 62
     7
370
    15
100
AcDbLine
 10
-189.0
 20
251.2598183049
 30
0.0
 11
-189.0
 21
-67.7401816951
 31
0.0
  0
LINE
  5
47B
330
1F
100
AcDbEntity
  8
0
  6
Continuous
 62
     7
370
    15
100
AcDbLine
 10
-189.0
 20
-67.7401816951
 30
0.0
 11
-181.399
 21
-67.7401816951
 31
0.0
  0
LINE
  5
47C
330
1F
100
AcDbEntity
  8
0
  6
Continuous
 62
     7
370
    15
100
AcDbLine
 10
-179.399
 20
-67.7401816951
 30
0.0
 11
-151.399
 21
-67.7401816951
 31
0.0
  0
LINE
  5
47D
330
1F
100
AcDbEntity
  8
0
  6
Continuous
 62
     7
370
    15
100
AcDbLine
 10
-149.399
 20
-67.7401816951
 30
0.0
 11
-121.399
 21
-67.7401816951
 31
0.0
  0
LINE
  5
47E
330
1F
100
AcDbEntity
  8
0
  6
Continuous
 62
     7
370
    15
100
AcDbLine
 10
-119.399
 20
-67.7401816951
 30
0.0
 11
-91.399
 21
-67.7401816951
 31
0.0
  0
LINE
  5
47F
330
1F
100
AcDbEntity
  8
0
  6
Continuous
 62
     7
370
    15
100
AcDbLine
 10
-89.399
 20
-67.7401816951
 30
0.0
 11
-61.399
 21
-67.7401816951
 31
0.0
  0
LINE
  5
480
330
1F
100
AcDbEntity
  8
0
  6
Continuous
 62
     7
370
    15
100
AcDbLine
 10
-59.399
 20
-67.7401816951
 30
0.0
 11
-31.399
 21
-67.7401816951
 31
0.0
  0
LINE
  5
481
330
1F
100
AcDbEntity
  8
0
  6
Continuous
 62
     7
370
    15
100
AcDbLine
 10
-29.399
 20
-67.7401816951
 30
0.0
 11
-1.399
 21
-67.7401816951
 31
0.0
  0
LINE
  5
482
330
1F
100
AcDbEntity
  8
0
  6
Continuous
 62
     7
370
    15
100
AcDbLine
 10
0.601
 20
-67.7401816951
 30
0.0
 11
28.601
 21
-67.7401816951
 31
0.0
  0
LINE
  5
483
330
1F
100
AcDbEntity
  8
0
  6
Continuous
 62
     7
370
    15
100
AcDbLine
 10
30.601
 20
-67.7401816951
 30
0.0
 11
58.601
 21
-67.7401816951
 31
0.0
  0
LINE
  5
484
330
1F
100
AcDbEntity
  8
0
  6
Continuous
 62
     7
370
    15
100
AcDbLine
 10
60.601
 20
-67.7401816951
 30
0.0
 11
88.601
 21
-67.7401816951
 31
0.0
  0
LINE
  5
485
330
1F
100
AcDbEntity
  8
0
  6
Continuous
 62
     7
370
    15
100
AcDbLine
 10
90.601
 20
-67.7401816951
 30
0.0
 11
118.601
 21
-67.7401816951
 31
0.0
  0
LINE
  5
486
330
1F
100
AcDbEntity
  8
0
  6
Continuous
 62
     7
370
    15
100
AcDbLine
 10
120.601
 20
-67.7401816951
 30
0.0
 11
148.601
 21
-67.7401816951
 31
0.0
  0
LINE
  5
487
330
1F
100
AcDbEntity
  8
0
  6
Continuous
 62
     7
370
    15
100
AcDbLine
 10
150.601
 20
-67.7401816951
 30
0.0
 11
178.601
 21
-67.7401816951
 31
0.0
  0
LINE
  5
488
330
1F
100
AcDbEntity
  8
0
  6
Continuous
 62
     7
370
    15
100
AcDbLine
 10
180.601
 20
-67.7401816951
 30
0.0
 11
189.0
 21
-67.7401816951
 31
0.0
  0
LINE
  5
489
330
1F
100
AcDbEntity
  8
0
  6
Continuous
 62
     7
370
    15
100
AcDbLine
 10
207.5
 20
289.2598183049
 30
0.0
 11
207.5
 21
289.9598183049
 31
0.0
  0
LINE
  5
48A
330
1F
100
AcDbEntity
  8
0
  6
Continuous
 62
     7
370
    15
100
AcDbLine
 10
207.5
 20
289.9598183049
 30
0.0
 11
185.5
 21
289.9598183049
 31
0.0
  0
LINE
  5
48B
330
1F
100
AcDbEntity
  8
0
  6
Continuous
 62
     7
370
    15
100
AcDbLine
 10
185.5
 20
289.9598183049
 30
0.0
 11
185.5
 21
289.2598183049
 31
0.0
  0
LINE
  5
48C
330
1F
100
AcDbEntity
  8
0
  6
Continuous
 62
     7
370
    15
100
AcDbLine
 10
-185.5
 20
289.2598183049
 30
0.0
 11
-185.5
 21
289.9598183049
 31
0.0
  0
LINE
  5
48D
330
1F
100
AcDbEntity
  8
0
  6
Continuous
 62
     7
370
    15
100
AcDbLine
 10
-185.5
 20
289.9598183049
 30
0.0
 11
-207.5
 21
289.9598183049
 31
0.0
  0
LINE
  5
48E
330
1F
100
AcDbEntity
  8
0
  6
Continuous
 62
     7
370
    15
100
AcDbLine
 10
-207.5
 20
289.9598183049
 30
0.0
 11
-207.5
 21
289.2598183049
 31
0.0
  0
LINE
  5
48F
330
1F
100
AcDbEntity
  8
0
  6
Continuous
 62
     7
370
    15
100
AcDbLine
 10
-233.001
 20
289.2598180549
 30
0.0
 11
-233.001
 21
296.7598183049
 31
0.0
  0
LINE
  5
490
330
1F
100
AcDbEntity
  8
0
  6
Continuous
 62
     7
370
    15
100
AcDbLine
 10
-233.001
 20
294.2598183049
 30
0.0
 11
233.001
 21
294.2598183049
 31
0.0
  0
LINE
  5
491
330
1F
100
AcDbEntity
  8
0
  6
Continuous
 62
     7
370
    15
100
AcDbLine
 10
233.001
 20
296.7598183049
 30
0.0
 11
233.001
 21
289.2598180549
 31
0.0
  0
LINE
  5
492
330
1F
100
AcDbEntity
  8
0
  6
Continuous
 62
     7
370
    15
100
AcDbLine
 10
234.001
 20
-212.2401816951
 30
0.0
 11
235.501
 21
-212.2401816951
 31
0.0
  0
LINE
  5
493
330
1F
100
AcDbEntity
  8
0
  6
Continuous
 62
     7
370
    15
100
AcDbLine
 10
233.001
 20
287.7598173049
 30
0.0
 11
233.001
 21
287.0815592024
 31
0.0
  0
LINE
  5
494
330
1F
100
AcDbEntity
  8
0
  6
Continuous
 62
     7
370
    15
100
AcDbLine
 10
235.501
 20
-212.2401816951
 30
0.0
 11
235.501
 21
296.7598183049
 31
0.0
  0
LINE
  5
495
330
1F
100
AcDbEntity
  8
0
  6
Continuous
 62
     7
370
    15
100
AcDbLine
 10
-234.0
 20
-212.2401816951
 30
0.0
 11
234.0
 21
-212.2401816951
 31
0.0
  0
LINE
  5
496
330
1F
100
AcDbEntity
  8
0
  6
Continuous
 62
     7
370
    15
100
AcDbLine
 10
234.0
 20
296.7598183049
 30
0.0
 11
-234.0
 21
296.7598183049
 31
0.0
  0
LINE
  5
497
330
1F
100
AcDbEntity
  8
0
  6
Continuous
 62
     7
370
    15
100
AcDbLine
 10
235.501
 20
296.7598183049
 30
0.0
 11
234.001
 21
296.7598183049
 31
0.0
  0
LINE
  5
498
330
1F
100
AcDbEntity
  8
0
  6
Continuous
 62
     7
370
    15
100
AcDbLine
 10
-235.501
 20
-212.2401816951
 30
0.0
 11
-234.001
 21
-212.2401816951
 31
0.0
  0
LINE
  5
499
330
1F
100
AcDbEntity
  8
0
  6
Continuous
 62
     7
370
    15
100
AcDbLine
 10
-235.501
 20
296.7598183049
 30
0.0
 11
-235.501
 21
-212.2401816951
 31
0.0
  0
LINE
  5
49A
330
1F
100
AcDbEntity
  8
0
  6
Continuous
 62
     7
370
    15
100
AcDbLine
 10
-233.001
 20
287.0815592023
 30
0.0
 11
-233.001
 21
287.7598173049
 31
0.0
  0
LINE
  5
49B
330
1F
100
AcDbEntity
  8
0
  6
Continuous
 62
     7
370
    15
100
AcDbLine
 10
-235.501
 20
296.7598183049
 30
0.0
 11
-234.001
 21
296.7598183049
 31
0.0
  0
LINE
  5
49C
330
1F
100
AcDbEntity
  8
0
  6
Continuous
 62
     7
370
    15
100
AcDbLine
 10
233.5591439268
 20
295.2598183049
 30
0.0
 11
233.001
 21
295.2598183049
 31
0.0
  0
LINE
  5
49D
330
1F
100
AcDbEntity
  8
0
  6
Continuous
 62
     7
370
    15
100
AcDbLine
 10
233.5717551976
 20
-210.7401816951
 30
0.0
 11
233.001
 21
-210.7401816951
 31
0.0
  0
LINE
  5
49E
330
1F
100
AcDbEntity
  8
0
  6
Continuous
 62
     7
370
    15
100
AcDbLine
 10
-233.001
 20
-210.7401816951
 30
0.0
 11
-233.5717551976
 21
-210.7401816951
 31
0.0
  0
LINE
  5
49F
330
1F
100
AcDbEntity
  8
0
  6
Continuous
 62
     7
370
    15
100
AcDbLine
 10
-233.001
 20
295.2598183049
 30
0.0
 11
-233.5591439269
 21
295.2598183049
 31
0.0
  0
LINE
  5
4A0
330
1F
100
AcDbEntity
  8
0
  6
Continuous
 62
     8
370
    15
100
AcDbLine
 10
230.001
 20
-93.5401816951
 30
0.0
 11
230.001
 21
-94.7401817561
 31
0.0
  0
LINE
  5
4A1
330
1F
100
AcDbEntity
  8
0
  6
Continuous
 62
     8
370
    15
100
AcDbLine
 10
-230.001
 20
-94.7401817559
 30
0.0
 11
-230.001
 21
-93.5401816951
 31
0.0
  0
LINE
  5
4A2
330
1F
100
AcDbEntity
  8
0
  6
Continuous
 62
     8
370
    15
100
AcDbLine
 10
-189.0
 20
174.5288568297
 30
0.0
 11
-181.399
 21
174.5288568297
 31
0.0
  0
LINE
  5
4A3
330
1F
100
AcDbEntity
  8
0
  6
Continuous
 62
     8
370
    15
100
AcDbLine
 10
-179.399
 20
174.5288568297
 30
0.0
 11
-151.399
 21
174.5288568297
 31
0.0
  0
LINE
  5
4A4
330
1F
100
AcDbEntity
  8
0
  6
Continuous
 62
     8
370
    15
100
AcDbLine
 10
-149.399
 20
174.5288568297
 30
0.0
 11
-121.399
 21
174.5288568297
 31
0.0
  0
LINE
  5
4A5
330
1F
100
AcDbEntity
  8
0
  6
Continuous
 62
     8
370
    15
100
AcDbLine
 10
-119.399
 20
174.5288568297
 30
0.0
 11
-91.399
 21
174.5288568297
 31
0.0
  0
LINE
  5
4A6
330
1F
100
AcDbEntity
  8
0
  6
Continuous
 62
     8
370
    15
100
AcDbLine
 10
-89.399
 20
174.5288568297
 30
0.0
 11
-61.399
 21
174.5288568297
 31
0.0
  0
LINE
  5
4A7
330
1F
100
AcDbEntity
  8
0
  6
Continuous
 62
     8
370
    15
100
AcDbLine
 10
-59.399
 20
174.5288568297
 30
0.0
 11
-31.399
 21
174.5288568297
 31
0.0
  0
LINE
  5
4A8
330
1F
100
AcDbEntity
  8
0
  6
Continuous
 62
     8
370
    15
100
AcDbLine
 10
-29.399
 20
174.5288568297
 30
0.0
 11
-1.399
 21
174.5288568297
 31
0.0
  0
LINE
  5
4A9
330
1F
100
AcDbEntity
  8
0
  6
Continuous
 62
     8
370
    15
100
AcDbLine
 10
0.601
 20
174.5288568297
 30
0.0
 11
28.601
 21
174.5288568297
 31
0.0
  0
LINE
  5
4AA
330
1F
100
AcDbEntity
  8
0
  6
Continuous
 62
     8
370
    15
100
AcDbLine
 10
30.601
 20
174.5288568297
 30
0.0
 11
58.601
 21
174.5288568297
 31
0.0
  0
LINE
  5
4AB
330
1F
100
AcDbEntity
  8
0
  6
Continuous
 62
     8
370
    15
100
AcDbLine
 10
60.601
 20
174.5288568297
 30
0.0
 11
88.601
 21
174.5288568297
 31
0.0
  0
LINE
  5
4AC
330
1F
100
AcDbEntity
  8
0
  6
Continuous
 62
     8
370
    15
100
AcDbLine
 10
90.601
 20
174.5288568297
 30
0.0
 11
118.601
 21
174.5288568297
 31
0.0
  0
LINE
  5
4AD
330
1F
100
AcDbEntity
  8
0
  6
Continuous
 62
     8
370
    15
100
AcDbLine
 10
120.601
 20
174.5288568297
 30
0.0
 11
148.601
 21
174.5288568297
 31
0.0
  0
LINE
  5
4AE
330
1F
100
AcDbEntity
  8
0
  6
Continuous
 62
     8
370
    15
100
AcDbLine
 10
150.601
 20
174.5288568297
 30
0.0
 11
178.601
 21
174.5288568297
 31
0.0
  0
LINE
  5
4AF
330
1F
100
AcDbEntity
  8
0
  6
Continuous
 62
     8
370
    15
100
AcDbLine
 10
180.601
 20
174.5288568297
 30
0.0
 11
189.0
 21
174.5288568297
 31
0.0
  0
LINE
  5
4B0
330
1F
100
AcDbEntity
  8
0
  6
Continuous
 62
     8
370
    15
100
AcDbLine
 10
-251.3719424723
 20
-79.5004006265
 30
0.0
 11
-251.2645221709
 21
-79.4998835137
 31
0.0
  0
LINE
  5
4B1
330
1F
100
AcDbEntity
  8
0
  6
Continuous
 62
     8
370
    15
100
AcDbLine
 10
-251.7381849541
 20
-79.498849639
 30
0.0
 11
-251.8456052555
 21
-79.4993667517
 31
0.0
  0
LINE
  5
4B2
330
1F
100
AcDbEntity
  8
0
  6
Continuous
 62
     8
370
    15
100
AcDbLine
 10
-77.0
 20
-198.9901816951
 30
0.0
 11
-83.0
 21
-198.9901816951
 31
0.0
  0
LINE
  5
4B3
330
1F
100
AcDbEntity
  8
0
  6
Continuous
 62
     8
370
    15
100
AcDbLine
 10
-76.7956643508
 20
-199.6972884763
 30
0.0
 11
-83.2043356492
 21
-199.6972884763
 31
0.0
  0
LINE
  5
4B4
330
1F
100
AcDbEntity
  8
0
  6
Continuous
 62
     8
370
    15
100
AcDbLine
 10
-79.4737243174
 20
-203.4472884763
 30
0.0
 11
-80.5262756826
 21
-203.4472884763
 31
0.0
  0
LINE
  5
4B5
330
1F
100
AcDbEntity
  8
0
  6
Continuous
 62
     8
370
    15
100
AcDbLine
 10
-189.0
 20
173.6628314259
 30
0.0
 11
-181.399
 21
173.6628314259
 31
0.0
  0
LINE
  5
4B6
330
1F
100
AcDbEntity
  8
0
  6
Continuous
 62
     8
370
    15
100
AcDbLine
 10
-179.399
 20
173.6628314259
 30
0.0
 11
-151.399
 21
173.6628314259
 31
0.0
  0
LINE
  5
4B7
330
1F
100
AcDbEntity
  8
0
  6
Continuous
 62
     8
370
    15
100
AcDbLine
 10
-149.399
 20
173.6628314259
 30
0.0
 11
-121.399
 21
173.6628314259
 31
0.0
  0
LINE
  5
4B8
330
1F
100
AcDbEntity
  8
0
  6
Continuous
 62
     8
370
    15
100
AcDbLine
 10
-119.399
 20
173.6628314259
 30
0.0
 11
-91.399
 21
173.6628314259
 31
0.0
  0
LINE
  5
4B9
330
1F
100
AcDbEntity
  8
0
  6
Continuous
 62
     8
370
    15
100
AcDbLine
 10
-89.399
 20
173.6628314259
 30
0.0
 11
-61.399
 21
173.6628314259
 31
0.0
  0
LINE
  5
4BA
330
1F
100
AcDbEntity
  8
0
  6
Continuous
 62
     8
370
    15
100
AcDbLine
 10
-59.399
 20
173.6628314259
 30
0.0
 11
-31.399
 21
173.6628314259
 31
0.0
  0
LINE
  5
4BB
330
1F
100
AcDbEntity
  8
0
  6
Continuous
 62
     8
370
    15
100
AcDbLine
 10
-29.399
 20
173.6628314259
 30
0.0
 11
-1.399
 21
173.6628314259
 31
0.0
  0
LINE
  5
4BC
330
1F
100
AcDbEntity
  8
0
  6
Continuous
 62
     8
370
    15
100
AcDbLine
 10
0.601
 20
173.6628314259
 30
0.0
 11
28.601
 21
173.6628314259
 31
0.0
  0
LINE
  5
4BD
330
1F
100
AcDbEntity
  8
0
  6
Continuous
 62
     8
370
    15
100
AcDbLine
 10
30.601
 20
173.6628314259
 30
0.0
 11
58.601
 21
173.6628314259
 31
0.0
  0
LINE
  5
4BE
330
1F
100
AcDbEntity
  8
0
  6
Continuous
 62
     8
370
    15
100
AcDbLine
 10
60.601
 20
173.6628314259
 30
0.0
 11
88.601
 21
173.6628314259
 31
0.0
  0
LINE
  5
4BF
330
1F
100
AcDbEntity
  8
0
  6
Continuous
 62
     8
370
    15
100
AcDbLine
 10
90.601
 20
173.6628314259
 30
0.0
 11
118.601
 21
173.6628314259
 31
0.0
  0
LINE
  5
4C0
330
1F
100
AcDbEntity
  8
0
  6
Continuous
 62
     8
370
    15
100
AcDbLine
 10
120.601
 20
173.6628314259
 30
0.0
 11
148.601
 21
173.6628314259
 31
0.0
  0
LINE
  5
4C1
330
1F
100
AcDbEntity
  8
0
  6
Continuous
 62
     8
370
    15
100
AcDbLine
 10
150.601
 20
173.6628314259
 30
0.0
 11
178.601
 21
173.6628314259
 31
0.0
  0
LINE
  5
4C2
330
1F
100
AcDbEntity
  8
0
  6
Continuous
 62
     8
370
    15
100
AcDbLine
 10
180.601
 20
173.6628314259
 30
0.0
 11
189.0
 21
173.6628314259
 31
0.0
  0
LINE
  5
4C3
330
1F
100
AcDbEntity
  8
0
  6
Continuous
 62
     8
370
    15
100
AcDbLine
 10
-212.699
 20
-76.7401816951
 30
0.0
 11
-212.699
 21
-77.1401816951
 31
0.0
  0
LINE
  5
4C4
330
1F
100
AcDbEntity
  8
0
  6
Continuous
 62
     8
370
    15
100
AcDbLine
 10
-212.699
 20
-86.3295589968
 30
0.0
 11
-212.699
 21
-86.7401816951
 31
0.0
  0
LINE
  5
4C5
330
1F
100
AcDbEntity
  8
0
  6
Continuous
 62
     8
370
    15
100
AcDbLine
 10
211.901
 20
-86.7401816951
 30
0.0
 11
211.901
 21
-86.3401816951
 31
0.0
  0
LINE
  5
4C6
330
1F
100
AcDbEntity
  8
0
  6
Continuous
 62
     8
370
    15
100
AcDbLine
 10
211.901
 20
-77.1417572919
 30
0.0
 11
211.901
 21
-76.7401816951
 31
0.0
  0
LINE
  5
4C7
330
1F
100
AcDbEntity
  8
0
  6
Continuous
 62
     8
370
    15
100
AcDbLine
 10
211.901
 20
271.2598183049
 30
0.0
 11
211.901
 21
271.678997085
 31
0.0
  0
LINE
  5
4C8
330
1F
100
AcDbEntity
  8
0
  6
Continuous
 62
     8
370
    15
100
AcDbLine
 10
211.901
 20
280.8598183049
 30
0.0
 11
211.901
 21
281.2598183049
 31
0.0
  0
LINE
  5
4C9
330
1F
100
AcDbEntity
  8
0
  6
Continuous
 62
     8
370
    15
100
AcDbLine
 10
-212.699
 20
281.2598183049
 30
0.0
 11
-212.699
 21
280.8598183049
 31
0.0
  0
LINE
  5
4CA
330
1F
100
AcDbEntity
  8
0
  6
Continuous
 62
     8
370
    15
100
AcDbLine
 10
-212.699
 20
271.6704410032
 30
0.0
 11
-212.699
 21
271.2598183049
 31
0.0
  0
ARC
  5
4CB
330
1F
100
AcDbEntity
  8
0
  6
Continuous
 62
     7
370
    15
100
AcDbCircle
 10
231.5
 20
285.7598183049
 30
0.0
 40
2.0
100
AcDbArc
 50
360.0
 51
90.0
  0
ARC
  5
4CC
330
1F
100
AcDbEntity
  8
0
  6
Continuous
 62
     7
370
    15
100
AcDbCircle
 10
233.0
 20
287.2598183049
 30
0.0
 40
0.5
100
AcDbArc
 50
360.0
 51
90.0
  0
ARC
  5
4CD
330
1F
100
AcDbEntity
  8
0
  6
Continuous
 62
     7
370
    15
100
AcDbCircle
 10
-231.5
 20
285.7598183049
 30
0.0
 40
0.5
100
AcDbArc
 50
90.0
 51
180.0
  0
ARC
  5
4CE
330
1F
100
AcDbEntity
  8
0
  6
Continuous
 62
     7
370
    15
100
AcDbCircle
 10
-233.0
 20
287.2598183049
 30
0.0
 40
2.000000000000455
100
AcDbArc
 50
90.0
 51
180.0
  0
ARC
  5
4CF
330
1F
100
AcDbEntity
  8
0
  6
Continuous
 62
     7
370
    15
100
AcDbCircle
 10
233.0
 20
287.2598183049
 30
0.0
 40
2.000000000000114
100
AcDbArc
 50
0.0
 51
90.0
  0
ARC
  5
4D0
330
1F
100
AcDbEntity
  8
0
  6
Continuous
 62
     7
370
    15
100
AcDbCircle
 10
231.5
 20
285.7598183049
 30
0.0
 40
0.5
100
AcDbArc
 50
0.0
 51
90.0
  0
ARC
  5
4D1
330
1F
100
AcDbEntity
  8
0
  6
Continuous
 62
     7
370
    15
100
AcDbCircle
 10
-233.0
 20
287.2598183049
 30
0.0
 40
0.5000000000003411
100
AcDbArc
 50
90.0
 51
180.0
  0
ARC
  5
4D2
330
1F
100
AcDbEntity
  8
0
  6
Continuous
 62
     7
370
    15
100
AcDbCircle
 10
-231.5
 20
285.7598183049
 30
0.0
 40
2.000000000000114
100
AcDbArc
 50
90.0
 51
180.0
  0
ARC
  5
4D3
330
1F
100
AcDbEntity
  8
0
  6
Continuous
 62
     7
370
    15
100
AcDbCircle
 10
2518.0445364948
 20
-90.6151645526
 30
0.0
 40
2272.871993822847
100
AcDbArc
 50
179.2613981243
 51
179.9980305648
  0
ARC
  5
4D4
330
1F
100
AcDbEntity
  8
0
  6
Continuous
 62
     7
370
    15
100
AcDbCircle
 10
282.0303088475
 20
-53.3539557658
 30
0.0
 40
36.53047819929348
100
AcDbArc
 50
173.9934641359
 51
180.458441259
  0
ARC
  5
4D5
330
1F
100
AcDbEntity
  8
0
  6
Continuous
 62
     7
370
    15
100
AcDbCircle
 10
-275.8544179389
 20
-53.0547083699
 30
0.0
 40
30.35918140092058
100
AcDbArc
 50
358.8835450798
 51
6.6645495253
  0
ARC
  5
4D6
330
1F
100
AcDbEntity
  8
0
  6
Continuous
 62
     7
370
    15
100
AcDbCircle
 10
-2505.0001342924
 20
-90.5308612704
 30
0.0
 40
2259.827590286166
100
AcDbArc
 50
359.9998433738
 51
0.740727937
  0
ARC
  5
4D7
330
1F
100
AcDbEntity
  8
0
  6
Continuous
 62
     7
370
    15
100
AcDbCircle
 10
225.6119712856
 20
-103.127715781
 30
0.0
 40
19.87939278721451
100
AcDbArc
 50
4.7305798824
 51
10.2961641372
  0
ARC
  5
4D8
330
1F
100
AcDbEntity
  8
0
  6
Continuous
 62
     7
370
    15
100
AcDbCircle
 10
-225.6119710713
 20
-103.1277158127
 30
0.0
 40
19.87939300372539
100
AcDbArc
 50
169.703835883
 51
175.2694208196
  0
ARC
  5
4D9
330
1F
100
AcDbEntity
  8
0
  6
Continuous
 62
     7
370
    15
100
AcDbCircle
 10
0.0
 20
71.6
 30
0.0
 40
1.490000000000005
100
AcDbArc
 50
293.7881281046
 51
66.2118718954
  0
ARC
  5
4DA
330
1F
100
AcDbEntity
  8
0
  6
Continuous
 62
     7
370
    15
100
AcDbCircle
 10
0.0
 20
46.6
 30
0.0
 40
1.49
100
AcDbArc
 50
293.7881281046
 51
66.2118718954
  0
ARC
  5
4DB
330
1F
100
AcDbEntity
  8
0
  6
Continuous
 62
     7
370
    15
100
AcDbCircle
 10
0.0
 20
46.6
 30
0.0
 40
0.8499999999433372
100
AcDbArc
 50
314.9961142039
 51
45.0038857961
  0
ARC
  5
4DC
330
1F
100
AcDbEntity
  8
0
  6
Continuous
 62
     7
370
    15
100
AcDbCircle
 10
-0.0000000001
 20
71.6
 30
0.0
 40
0.8500000001441463
100
AcDbArc
 50
314.9961141975
 51
45.0038858025
  0
ARC
  5
4DD
330
1F
100
AcDbEntity
  8
0
  6
Continuous
 62
     7
370
    15
100
AcDbCircle
 10
-213.8572281584
 20
-22.8488747036
 30
0.0
 40
63.49125097994394
100
AcDbArc
 50
270.7745059067
 51
271.6771418891
  0
ARC
  5
4DE
330
1F
100
AcDbEntity
  8
0
  6
Continuous
 62
     7
370
    15
100
AcDbCircle
 10
-210.1743193155
 20
-23.9723222607
 30
0.0
 40
62.36730284370108
100
AcDbArc
 50
267.4041259431
 51
268.3234576776
  0
ARC
  5
4DF
330
1F
100
AcDbEntity
  8
0
  6
Continuous
 62
     7
370
    15
100
AcDbCircle
 10
212.3437246457
 20
-139.7020119901
 30
0.0
 40
62.56182389382962
100
AcDbArc
 50
90.1307111337
 51
91.0465957745
  0
ARC
  5
4E0
330
1F
100
AcDbEntity
  8
0
  6
Continuous
 62
     7
370
    15
100
AcDbCircle
 10
208.6248404556
 20
-141.1305835199
 30
0.0
 40
63.99007422189951
100
AcDbArc
 50
86.796289733
 51
87.6927207568
  0
ARC
  5
4E1
330
1F
100
AcDbEntity
  8
0
  6
Continuous
 62
     7
370
    15
100
AcDbCircle
 10
-213.8572281584
 20
335.1511252954
 30
0.0
 40
63.49125097891301
100
AcDbArc
 50
270.7745059067
 51
271.6771418891
  0
ARC
  5
4E2
330
1F
100
AcDbEntity
  8
0
  6
Continuous
 62
     7
370
    15
100
AcDbCircle
 10
-210.1743193155
 20
334.0276777393
 30
0.0
 40
62.36730284368736
100
AcDbArc
 50
267.4041259431
 51
268.3234576776
  0
ARC
  5
4E3
330
1F
100
AcDbEntity
  8
0
  6
Continuous
 62
     7
370
    15
100
AcDbCircle
 10
214.0256806845
 20
334.0276777393
 30
0.0
 40
62.36730284371833
100
AcDbArc
 50
267.4041259431
 51
268.3234576776
  0
ARC
  5
4E4
330
1F
100
AcDbEntity
  8
0
  6
Continuous
 62
     7
370
    15
100
AcDbCircle
 10
210.3427718416
 20
335.1511252964
 30
0.0
 40
63.49125097995759
100
AcDbArc
 50
270.7745059067
 51
271.6771418891
  0
ARC
  5
4E5
330
1F
100
AcDbEntity
  8
0
  6
Continuous
 62
     7
370
    15
100
AcDbCircle
 10
80.0
 20
282.7598183049
 30
0.0
 40
3.250000000000043
100
AcDbArc
 50
309.7151372318
 51
230.2848627682
  0
ARC
  5
4E6
330
1F
100
AcDbEntity
  8
0
  6
Continuous
 62
     7
370
    15
100
AcDbCircle
 10
-80.0
 20
282.7598183049
 30
0.0
 40
3.250000000000052
100
AcDbArc
 50
309.7151372318
 51
230.2848627682
  0
ENDSEC
  0
SECTION
  2
OBJECTS
  0
DICTIONARY
  5
C
330
0
100
AcDbDictionary
281
     1
  3
ACAD_GROUP
350
D
  3
ACAD_LAYOUT
350
1A
  3
ACAD_MLINESTYLE
350
17
  3
ACAD_PLOTSETTINGS
350
19
  3
ACAD_PLOTSTYLENAME
350
E
  3
ACAD_SCALELIST
350
47
  0
DICTIONARY
  5
D
102
{ACAD_REACTORS
330
C
102
}
330
C
100
AcDbDictionary
281
     1
  0
DICTIONARY
  5
1A
102
{ACAD_REACTORS
330
C
102
}
330
C
100
AcDbDictionary
281
     1
  3
Layout1
350
1E
  3
Layout2
350
26
  3
Model
350
22
  0
DICTIONARY
  5
17
102
{ACAD_REACTORS
330
C
102
}
330
C
100
AcDbDictionary
281
     1
  3
Standard
350
18
  0
DICTIONARY
  5
19
102
{ACAD_REACTORS
330
C
102
}
330
C
100
AcDbDictionary
281
     1
  0
ACDBDICTIONARYWDFLT
  5
E
102
{ACAD_REACTORS
330
C
102
}
330
C
100
AcDbDictionary
281
     1
  3
Normal
350
F
100
AcDbDictionaryWithDefault
340
F
  0
DICTIONARY
  5
47
102
{ACAD_REACTORS
330
C
102
}
330
C
100
AcDbDictionary
281
     1
  3
A0
350
48
  3
A1
350
49
  3
A2
350
4A
  3
A3
350
4B
  3
A4
350
4C
  3
A5
350
4D
  3
A6
350
4E
  3
A7
350
4F
  3
A8
350
50
  3
A9
350
51
  3
B0
350
52
  3
B1
350
53
  3
B2
350
54
  3
B3
350
55
  3
B4
350
56
  3
B5
350
57
  3
B6
350
58
  3
B7
350
59
  3
B8
350
5A
  3
B9
350
5B
  3
C0
350
5C
  3
C1
350
5D
  3
C2
350
5E
  3
C3
350
5F
  3
C4
350
60
  3
C5
350
61
  3
C6
350
62
  3
C7
350
63
  3
C8
350
64
  3
C9
350
65
  3
D0
350
66
  3
D1
350
67
  3
D2
350
68
  0
LAYOUT
  5
1E
102
{ACAD_REACTORS
330
1A
102
}
330
1A
100
AcDbPlotSettings
  1

  2
none_device
  4

  6

 40
0.0
 41
0.0
 42
0.0
 43
0.0
 44
0.0
 45
0.0
 46
0.0
 47
0.0
 48
0.0
 49
0.0
140
0.0
141
0.0
142
1.0
143
1.0
 70
   688
 72
     1
 73
     0
 74
     5
  7

 75
    16
147
1.0
148
0.0
149
0.0
100
AcDbLayout
  1
Layout1
 70
     1
 71
     1
 10
0.0
 20
0.0
 11
420.0
 21
297.0
 12
0.0
 22
0.0
 32
0.0
 14
1.0000000000E+20
 24
1.0000000000E+20
 34
1.0000000000E+20
 15
-1.0000000000E+20
 25
-1.0000000000E+20
 35
-1.0000000000E+20
146
0.0
 13
0.0
 23
0.0
 33
0.0
 16
1.0
 26
0.0
 36
0.0
 17
0.0
 27
1.0
 37
0.0
 76
     0
330
1B
  0
LAYOUT
  5
26
102
{ACAD_REACTORS
330
1A
102
}
330
1A
100
AcDbPlotSettings
  1

  2
none_device
  4

  6

 40
0.0
 41
0.0
 42
0.0
 43
0.0
 44
0.0
 45
0.0
 46
0.0
 47
0.0
 48
0.0
 49
0.0
140
0.0
141
0.0
142
1.0
143
1.0
 70
   688
 72
     1
 73
     0
 74
     5
  7

 75
    16
147
1.0
148
0.0
149
0.0
100
AcDbLayout
  1
Layout2
 70
     1
 71
     2
 10
0.0
 20
0.0
 11
0.0
 21
0.0
 12
0.0
 22
0.0
 32
0.0
 14
0.0
 24
0.0
 34
0.0
 15
0.0
 25
0.0
 35
0.0
146
0.0
 13
0.0
 23
0.0
 33
0.0
 16
1.0
 26
0.0
 36
0.0
 17
0.0
 27
1.0
 37
0.0
 76
     0
330
23
  0
LAYOUT
  5
22
102
{ACAD_REACTORS
330
1A
102
}
330
1A
100
AcDbPlotSettings
  1

  2
none_device
  4
ANSI_A_(11.00_x_8.50_Inches)
  6

 40
6.35
 41
19.05
 42
6.35000508
 43
19.05000254
 44
279.4
 45
215.9
 46
133.34999746
 47
88.4915354712
 48
0.0
 49
0.0
140
0.0
141
0.0
142
0.0142323218
143
1.0
 70
  1696
 72
     0
 73
     0
 74
     0
  7

 75
     0
147
0.0179189148
148
-1300.4909072572
149
0.0
100
AcDbLayout
  1
Model
 70
     1
 71
     0
 10
0.0
 20
0.0
 11
420.0
 21
297.0
 12
0.0
 22
0.0
 32
0.0
 14
-251.9389025144
 24
-294.5
 34
0.0
 15
251.9389025144
 25
296.7598183049
 35
0.0
146
0.0
 13
0.0
 23
0.0
 33
0.0
 16
1.0
 26
0.0
 36
0.0
 17
0.0
 27
1.0
 37
0.0
 76
     0
330
1F
331
29
  0
MLINESTYLE
  5
18
102
{ACAD_REACTORS
330
17
102
}
330
17
100
AcDbMlineStyle
  2
Standard
 70
     0
  3

 62
   256
 51
90.0
 52
90.0
 71
     2
 49
0.5
 62
   256
  6
BYLAYER
 49
-0.5
 62
   256
  6
BYLAYER
  0
ACDBPLACEHOLDER
  5
F
102
{ACAD_REACTORS
330
E
102
}
330
E
  0
SCALE
  5
48
102
{ACAD_REACTORS
330
47
102
}
330
47
100
AcDbScale
 70
     0
300
1:1
140
1.0
141
1.0
290
     1
  0
SCALE
  5
49
102
{ACAD_REACTORS
330
47
102
}
330
47
100
AcDbScale
 70
     0
300
1:2
140
1.0
141
2.0
290
     0
  0
SCALE
  5
4A
102
{ACAD_REACTORS
330
47
102
}
330
47
100
AcDbScale
 70
     0
300
1:4
140
1.0
141
4.0
290
     0
  0
SCALE
  5
4B
102
{ACAD_REACTORS
330
47
102
}
330
47
100
AcDbScale
 70
     0
300
1:5
140
1.0
141
5.0
290
     0
  0
SCALE
  5
4C
102
{ACAD_REACTORS
330
47
102
}
330
47
100
AcDbScale
 70
     0
300
1:8
140
1.0
141
8.0
290
     0
  0
SCALE
  5
4D
102
{ACAD_REACTORS
330
47
102
}
330
47
100
AcDbScale
 70
     0
300
1:10
140
1.0
141
10.0
290
     0
  0
SCALE
  5
4E
102
{ACAD_REACTORS
330
47
102
}
330
47
100
AcDbScale
 70
     0
300
1:16
140
1.0
141
16.0
290
     0
  0
SCALE
  5
4F
102
{ACAD_REACTORS
330
47
102
}
330
47
100
AcDbScale
 70
     0
300
1:20
140
1.0
141
20.0
290
     0
  0
SCALE
  5
50
102
{ACAD_REACTORS
330
47
102
}
330
47
100
AcDbScale
 70
     0
300
1:30
140
1.0
141
30.0
290
     0
  0
SCALE
  5
51
102
{ACAD_REACTORS
330
47
102
}
330
47
100
AcDbScale
 70
     0
300
1:40
140
1.0
141
40.0
290
     0
  0
SCALE
  5
52
102
{ACAD_REACTORS
330
47
102
}
330
47
100
AcDbScale
 70
     0
300
1:50
140
1.0
141
50.0
290
     0
  0
SCALE
  5
53
102
{ACAD_REACTORS
330
47
102
}
330
47
100
AcDbScale
 70
     0
300
1:100
140
1.0
141
100.0
290
     0
  0
SCALE
  5
54
102
{ACAD_REACTORS
330
47
102
}
330
47
100
AcDbScale
 70
     0
300
2:1
140
2.0
141
1.0
290
     0
  0
SCALE
  5
55
102
{ACAD_REACTORS
330
47
102
}
330
47
100
AcDbScale
 70
     0
300
4:1
140
4.0
141
1.0
290
     0
  0
SCALE
  5
56
102
{ACAD_REACTORS
330
47
102
}
330
47
100
AcDbScale
 70
     0
300
8:1
140
8.0
141
1.0
290
     0
  0
SCALE
  5
57
102
{ACAD_REACTORS
330
47
102
}
330
47
100
AcDbScale
 70
     0
300
10:1
140
10.0
141
1.0
290
     0
  0
SCALE
  5
58
102
{ACAD_REACTORS
330
47
102
}
330
47
100
AcDbScale
 70
     0
300
100:1
140
100.0
141
1.0
290
     0
  0
SCALE
  5
59
102
{ACAD_REACTORS
330
47
102
}
330
47
100
AcDbScale
 70
     0
300
1/128" = 1'-0"
140
0.0078125
141
12.0
290
     0
  0
SCALE
  5
5A
102
{ACAD_REACTORS
330
47
102
}
330
47
100
AcDbScale
 70
     0
300
1/64" = 1'-0"
140
0.015625
141
12.0
290
     0
  0
SCALE
  5
5B
102
{ACAD_REACTORS
330
47
102
}
330
47
100
AcDbScale
 70
     0
300
1/32" = 1'-0"
140
0.03125
141
12.0
290
     0
  0
SCALE
  5
5C
102
{ACAD_REACTORS
330
47
102
}
330
47
100
AcDbScale
 70
     0
300
1/16" = 1'-0"
140
0.0625
141
12.0
290
     0
  0
SCALE
  5
5D
102
{ACAD_REACTORS
330
47
102
}
330
47
100
AcDbScale
 70
     0
300
3/32" = 1'-0"
140
0.09375
141
12.0
290
     0
  0
SCALE
  5
5E
102
{ACAD_REACTORS
330
47
102
}
330
47
100
AcDbScale
 70
     0
300
1/8" = 1'-0"
140
0.125
141
12.0
290
     0
  0
SCALE
  5
5F
102
{ACAD_REACTORS
330
47
102
}
330
47
100
AcDbScale
 70
     0
300
3/16" = 1'-0"
140
0.1875
141
12.0
290
     0
  0
SCALE
  5
60
102
{ACAD_REACTORS
330
47
102
}
330
47
100
AcDbScale
 70
     0
300
1/4" = 1'-0"
140
0.25
141
12.0
290
     0
  0
SCALE
  5
61
102
{ACAD_REACTORS
330
47
102
}
330
47
100
AcDbScale
 70
     0
300
3/8" = 1'-0"
140
0.375
141
12.0
290
     0
  0
SCALE
  5
62
102
{ACAD_REACTORS
330
47
102
}
330
47
100
AcDbScale
 70
     0
300
1/2" = 1'-0"
140
0.5
141
12.0
290
     0
  0
SCALE
  5
63
102
{ACAD_REACTORS
330
47
102
}
330
47
100
AcDbScale
 70
     0
300
3/4" = 1'-0"
140
0.75
141
12.0
290
     0
  0
SCALE
  5
64
102
{ACAD_REACTORS
330
47
102
}
330
47
100
AcDbScale
 70
     0
300
1" = 1'-0"
140
1.0
141
12.0
290
     0
  0
SCALE
  5
65
102
{ACAD_REACTORS
330
47
102
}
330
47
100
AcDbScale
 70
     0
300
1-1/2" = 1'-0"
140
1.5
141
12.0
290
     0
  0
SCALE
  5
66
102
{ACAD_REACTORS
330
47
102
}
330
47
100
AcDbScale
 70
     0
300
3" = 1'-0"
140
3.0
141
12.0
290
     0
  0
SCALE
  5
67
102
{ACAD_REACTORS
330
47
102
}
330
47
100
AcDbScale
 70
     0
300
6" = 1'-0"
140
6.0
141
12.0
290
     0
  0
SCALE
  5
68
102
{ACAD_REACTORS
330
47
102
}
330
47
100
AcDbScale
 70
     0
300
1'-0" = 1'-0"
140
12.0
141
12.0
290
     0
  0
ENDSEC
  0
EOF
