  0
SECTION
  2
HEADER
  9
$ACADVER
  1
AC1015
  9
$ACADMAINTVER
 70
     6
  9
$DWGCODEPAGE
  3
ANSI_1252
  9
$INSBASE
 10
0.0
 20
0.0
 30
0.0
  9
$EXTMIN
 10
-666.0
 20
0.0
 30
0.0
  9
$EXTMAX
 10
666.0
 20
127.0
 30
0.0
  9
$LIMMIN
 10
0.0
 20
0.0
  9
$LIMMAX
 10
420.0
 20
297.0
  9
$ORTHOMODE
 70
     0
  9
$REGENMODE
 70
     1
  9
$FILLMODE
 70
     1
  9
$QTEXTMODE
 70
     0
  9
$MIRRTEXT
 70
     1
  9
$LTSCALE
 40
1.0
  9
$ATTMODE
 70
     1
  9
$TEXTSIZE
 40
3.5
  9
$TRACEWID
 40
1.0
  9
$TEXTSTYLE
  7
Standard
  9
$CLAYER
  8
0
  9
$CELTYPE
  6
ByLayer
  9
$CECOLOR
 62
   256
  9
$CELTSCALE
 40
1.0
  9
$DISPSILH
 70
     0
  9
$DIMSCALE
 40
1.0
  9
$DIMASZ
 40
3.556
  9
$DIMEXO
 40
1.0
  9
$DIMDLI
 40
3.75
  9
$DIMRND
 40
0.0
  9
$DIMDLE
 40
0.0
  9
$DIMEXE
 40
1.0
  9
$DIMTP
 40
0.0
  9
$DIMTM
 40
0.0
  9
$DIMTXT
 40
3.5
  9
$DIMCEN
 40
2.5
  9
$DIMTSZ
 40
0.0
  9
$DIMTOL
 70
     0
  9
$DIMLIM
 70
     0
  9
$DIMTIH
 70
     1
  9
$DIMTOH
 70
     1
  9
$DIMSE1
 70
     0
  9
$DIMSE2
 70
     0
  9
$DIMTAD
 70
     1
  9
$DIMZIN
 70
     0
  9
$DIMBLK
  1

  9
$DIMASO
 70
     1
  9
$DIMSHO
 70
     1
  9
$DIMPOST
  1

  9
$DIMAPOST
  1

  9
$DIMALT
 70
     0
  9
$DIMALTD
 70
     3
  9
$DIMALTF
 40
0.0393700787
  9
$DIMLFAC
 40
1.0
  9
$DIMTOFL
 70
     1
  9
$DIMTVP
 40
0.0
  9
$DIMTIX
 70
     0
  9
$DIMSOXD
 70
     0
  9
$DIMSAH
 70
     0
  9
$DIMBLK1
  1

  9
$DIMBLK2
  1

  9
$DIMSTYLE
  2
ISO-25
  9
$DIMCLRD
 70
     0
  9
$DIMCLRE
 70
     0
  9
$DIMCLRT
 70
     0
  9
$DIMTFAC
 40
1.0
  9
$DIMGAP
 40
1.524
  9
$DIMJUST
 70
     0
  9
$DIMSD1
 70
     0
  9
$DIMSD2
 70
     0
  9
$DIMTOLJ
 70
     0
  9
$DIMTZIN
 70
     0
  9
$DIMALTZ
 70
     0
  9
$DIMALTTZ
 70
     0
  9
$DIMUPT
 70
     0
  9
$DIMDEC
 70
     2
  9
$DIMTDEC
 70
     2
  9
$DIMALTU
 70
     2
  9
$DIMALTTD
 70
     3
  9
$DIMTXSTY
  7
Standard
  9
$DIMAUNIT
 70
     0
  9
$DIMADEC
 70
     2
  9
$DIMALTRND
 40
0.0
  9
$DIMAZIN
 70
     0
  9
$DIMDSEP
 70
    44
  9
$DIMATFIT
 70
     3
  9
$DIMFRAC
 70
     0
  9
$DIMLDRBLK
  1

  9
$DIMLUNIT
 70
     2
  9
$DIMLWD
 70
    -2
  9
$DIMLWE
 70
    -2
  9
$DIMTMOVE
 70
     0
  9
$LUNITS
 70
     2
  9
$LUPREC
 70
     2
  9
$SKETCHINC
 40
1.0
  9
$FILLETRAD
 40
10.0
  9
$AUNITS
 70
     0
  9
$AUPREC
 70
     2
  9
$MENU
  1
.
  9
$ELEVATION
 40
0.0
  9
$PELEVATION
 40
0.0
  9
$THICKNESS
 40
0.0
  9
$LIMCHECK
 70
     0
  9
$CHAMFERA
 40
0.0
  9
$CHAMFERB
 40
0.0
  9
$CHAMFERC
 40
0.0
  9
$CHAMFERD
 40
0.0
  9
$SKPOLY
 70
     0
  9
$TDCREATE
 40
2457294.308818195
  9
$TDUCREATE
 40
2457294.225484861
  9
$TDUPDATE
 40
2457294.308844062
  9
$TDUUPDATE
 40
2457294.225510729
  9
$TDINDWG
 40
0.0000000116
  9
$TDUSRTIMER
 40
0.0000000116
  9
$USRTIMER
 70
     1
  9
$ANGBASE
 50
0.0
  9
$ANGDIR
 70
     0
  9
$PDMODE
 70
     0
  9
$PDSIZE
 40
-1.0
  9
$PLINEWID
 40
0.0
  9
$SPLFRAME
 70
     0
  9
$SPLINETYPE
 70
     6
  9
$SPLINESEGS
 70
     8
  9
$HANDSEED
  5
147
  9
$SURFTAB1
 70
     6
  9
$SURFTAB2
 70
     6
  9
$SURFTYPE
 70
     6
  9
$SURFU
 70
     6
  9
$SURFV
 70
     6
  9
$UCSBASE
  2

  9
$UCSNAME
  2

  9
$UCSORG
 10
0.0
 20
0.0
 30
0.0
  9
$UCSXDIR
 10
1.0
 20
0.0
 30
0.0
  9
$UCSYDIR
 10
0.0
 20
1.0
 30
0.0
  9
$UCSORTHOREF
  2

  9
$UCSORTHOVIEW
 70
     0
  9
$UCSORGTOP
 10
0.0
 20
0.0
 30
0.0
  9
$UCSORGBOTTOM
 10
0.0
 20
0.0
 30
0.0
  9
$UCSORGLEFT
 10
0.0
 20
0.0
 30
0.0
  9
$UCSORGRIGHT
 10
0.0
 20
0.0
 30
0.0
  9
$UCSORGFRONT
 10
0.0
 20
0.0
 30
0.0
  9
$UCSORGBACK
 10
0.0
 20
0.0
 30
0.0
  9
$PUCSBASE
  2

  9
$PUCSNAME
  2

  9
$PUCSORG
 10
0.0
 20
0.0
 30
0.0
  9
$PUCSXDIR
 10
1.0
 20
0.0
 30
0.0
  9
$PUCSYDIR
 10
0.0
 20
1.0
 30
0.0
  9
$PUCSORTHOREF
  2

  9
$PUCSORTHOVIEW
 70
     0
  9
$PUCSORGTOP
 10
0.0
 20
0.0
 30
0.0
  9
$PUCSORGBOTTOM
 10
0.0
 20
0.0
 30
0.0
  9
$PUCSORGLEFT
 10
0.0
 20
0.0
 30
0.0
  9
$PUCSORGRIGHT
 10
0.0
 20
0.0
 30
0.0
  9
$PUCSORGFRONT
 10
0.0
 20
0.0
 30
0.0
  9
$PUCSORGBACK
 10
0.0
 20
0.0
 30
0.0
  9
$USERI1
 70
     0
  9
$USERI2
 70
     0
  9
$USERI3
 70
     0
  9
$USERI4
 70
     0
  9
$USERI5
 70
     0
  9
$USERR1
 40
0.0
  9
$USERR2
 40
0.0
  9
$USERR3
 40
0.0
  9
$USERR4
 40
0.0
  9
$USERR5
 40
0.0
  9
$WORLDVIEW
 70
     1
  9
$SHADEDGE
 70
     3
  9
$SHADEDIF
 70
    70
  9
$TILEMODE
 70
     1
  9
$MAXACTVP
 70
    64
  9
$PINSBASE
 10
0.0
 20
0.0
 30
0.0
  9
$PLIMCHECK
 70
     0
  9
$PEXTMIN
 10
1.0000000000E+20
 20
1.0000000000E+20
 30
1.0000000000E+20
  9
$PEXTMAX
 10
-1.0000000000E+20
 20
-1.0000000000E+20
 30
-1.0000000000E+20
  9
$PLIMMIN
 10
0.0
 20
0.0
  9
$PLIMMAX
 10
420.0
 20
297.0
  9
$UNITMODE
 70
     0
  9
$VISRETAIN
 70
     1
  9
$PLINEGEN
 70
     0
  9
$PSLTSCALE
 70
     1
  9
$TREEDEPTH
 70
  3020
  9
$CMLSTYLE
  2
Standard
  9
$CMLJUST
 70
     0
  9
$CMLSCALE
 40
20.0
  9
$PROXYGRAPHICS
 70
     1
  9
$MEASUREMENT
 70
     1
  9
$CELWEIGHT
370
    -1
  9
$ENDCAPS
280
     0
  9
$JOINSTYLE
280
     0
  9
$LWDISPLAY
290
     1
  9
$INSUNITS
 70
     4
  9
$HYPERLINKBASE
  1

  9
$STYLESHEET
  1

  9
$XEDIT
290
     1
  9
$CEPSNTYPE
380
     0
  9
$PSTYLEMODE
290
     1
  9
$FINGERPRINTGUID
  2
{5C49E67E-69B9-43C4-84E6-4554B0E4483B}
  9
$VERSIONGUID
  2
{FAEB1C32-E019-11D5-929B-00C0DF256EC4}
  9
$EXTNAMES
290
     1
  9
$PSVPSCALE
 40
0.0
  9
$OLESTARTUP
290
     0
  0
ENDSEC
  0
SECTION
  2
CLASSES
  0
CLASS
  1
ACDBDICTIONARYWDFLT
  2
AcDbDictionaryWithDefault
  3
ObjectDBX Classes
 90
        0
280
     0
281
     0
  0
CLASS
  1
VISUALSTYLE
  2
AcDbVisualStyle
  3
ObjectDBX Classes
 90
     4095
280
     0
281
     0
  0
CLASS
  1
MATERIAL
  2
AcDbMaterial
  3
ObjectDBX Classes
 90
     1153
280
     0
281
     0
  0
CLASS
  1
SCALE
  2
AcDbScale
  3
ObjectDBX Classes
 90
     1153
280
     0
281
     0
  0
CLASS
  1
TABLESTYLE
  2
AcDbTableStyle
  3
ObjectDBX Classes
 90
     4095
280
     0
281
     0
  0
CLASS
  1
MLEADERSTYLE
  2
AcDbMLeaderStyle
  3
ACDB_MLEADERSTYLE_CLASS
 90
     4095
280
     0
281
     0
  0
CLASS
  1
SUN
  2
AcDbSun
  3
SCENEOE
 90
     1153
280
     0
281
     0
  0
CLASS
  1
ACDBPLACEHOLDER
  2
AcDbPlaceHolder
  3
ObjectDBX Classes
 90
        0
280
     0
281
     0
  0
CLASS
  1
LAYOUT
  2
AcDbLayout
  3
ObjectDBX Classes
 90
        0
280
     0
281
     0
  0
ENDSEC
  0
SECTION
  2
TABLES
  0
TABLE
  2
VPORT
  5
8
330
0
100
AcDbSymbolTable
 70
     1
  0
VPORT
  5
29
330
8
100
AcDbSymbolTableRecord
100
AcDbViewportTableRecord
  2
*Active
 70
     0
 10
0.0
 20
0.0
 11
1.0
 21
1.0
 12
0.0
 22
63.5
 13
0.0
 23
0.0
 14
10.0
 24
10.0
 15
10.0
 25
10.0
 16
0.0
 26
0.0
 36
1.0
 17
0.0
 27
0.0
 37
0.0
 40
129.54
 41
10.4881889764
 42
50.0
 43
0.0
 44
0.0
 50
0.0
 51
0.0
 71
     0
 72
   100
 73
     1
 74
     3
 75
     0
 76
     0
 77
     0
 78
     0
281
     0
 65
     1
110
0.0
120
0.0
130
0.0
111
1.0
121
0.0
131
0.0
112
0.0
122
1.0
132
0.0
 79
     0
146
0.0
  0
ENDTAB
  0
TABLE
  2
LTYPE
  5
5
330
0
100
AcDbSymbolTable
 70
     6
  0
LTYPE
  5
14
330
5
100
AcDbSymbolTableRecord
100
AcDbLinetypeTableRecord
  2
ByBlock
 70
     0
  3

 72
    65
 73
     0
 40
0.0
  0
LTYPE
  5
15
330
5
100
AcDbSymbolTableRecord
100
AcDbLinetypeTableRecord
  2
ByLayer
 70
     0
  3

 72
    65
 73
     0
 40
0.0
  0
LTYPE
  5
16
330
5
100
AcDbSymbolTableRecord
100
AcDbLinetypeTableRecord
  2
Continuous
 70
     0
  3
Solid line
 72
    65
 73
     0
 40
0.0
  0
LTYPE
  5
6E
330
5
100
AcDbSymbolTableRecord
100
AcDbLinetypeTableRecord
  2
HIDDEN
 70
     0
  3
Hidden __ __ __ __ __ __ __ __ __ __ __ __ __ __
 72
    65
 73
     2
 40
1.905
 49
1.27
 74
     0
 49
-0.635
 74
     0
  0
LTYPE
  5
6F
330
5
100
AcDbSymbolTableRecord
100
AcDbLinetypeTableRecord
  2
PHANTOM
 70
     0
  3
Phantom ______  __  __  ______  __  __  ______
 72
    65
 73
     6
 40
12.7
 49
6.35
 74
     0
 49
-1.27
 74
     0
 49
1.27
 74
     0
 49
-1.27
 74
     0
 49
1.27
 74
     0
 49
-1.27
 74
     0
  0
LTYPE
  5
70
330
5
100
AcDbSymbolTableRecord
100
AcDbLinetypeTableRecord
  2
CENTER
 70
     0
  3
Center ____ _ ____ _ ____ _ ____ _ ____ _ ____
 72
    65
 73
     4
 40
10.16
 49
6.35
 74
     0
 49
-1.27
 74
     0
 49
1.27
 74
     0
 49
-1.27
 74
     0
  0
LTYPE
  5
71
330
5
100
AcDbSymbolTableRecord
100
AcDbLinetypeTableRecord
  2
CENTERX2
 70
     0
  3
Center (2x) ________  __  ________  __  _____
 72
    65
 73
     4
 40
20.32
 49
12.7
 74
     0
 49
-2.54
 74
     0
 49
2.54
 74
     0
 49
-2.54
 74
     0
  0
LTYPE
  5
72
330
5
100
AcDbSymbolTableRecord
100
AcDbLinetypeTableRecord
  2
DOT2
 70
     0
  3
Dot (.5x) ........................................
 72
    65
 73
     2
 40
0.635
 49
0.0
 74
     0
 49
-0.635
 74
     0
  0
ENDTAB
  0
TABLE
  2
LAYER
  5
2
330
0
100
AcDbSymbolTable
 70
     1
  0
LAYER
  5
10
330
2
100
AcDbSymbolTableRecord
100
AcDbLayerTableRecord
  2
0
 70
     0
 62
     7
  6
Continuous
370
    -3
390
F
  0
ENDTAB
  0
TABLE
  2
STYLE
  5
3
330
0
100
AcDbSymbolTable
 70
     1
  0
STYLE
  5
11
330
3
100
AcDbSymbolTableRecord
100
AcDbTextStyleTableRecord
  2
Standard
 70
     0
 40
0.0
 41
1.0
 50
0.0
 71
     0
 42
3.5
  3
txt
  4

  0
ENDTAB
  0
TABLE
  2
VIEW
  5
6
330
0
100
AcDbSymbolTable
 70
     0
  0
ENDTAB
  0
TABLE
  2
UCS
  5
7
330
0
100
AcDbSymbolTable
 70
     0
  0
ENDTAB
  0
TABLE
  2
APPID
  5
9
330
0
100
AcDbSymbolTable
 70
     1
  0
APPID
  5
12
330
9
100
AcDbSymbolTableRecord
100
AcDbRegAppTableRecord
  2
ACAD
 70
     0
  0
ENDTAB
  0
TABLE
  2
DIMSTYLE
  5
A
330
0
100
AcDbSymbolTable
 70
     1
100
AcDbDimStyleTable
  0
DIMSTYLE
105
27
330
A
100
AcDbSymbolTableRecord
100
AcDbDimStyleTableRecord
  2
ISO-25
 70
     0
 41
2.5
 42
0.625
 43
3.75
 44
1.25
 73
     0
 74
     0
 77
     1
 78
     8
140
2.5
141
2.5
143
0.0393700787
147
0.625
171
     3
172
     1
178
     0
271
     2
272
     2
274
     3
278
    44
283
     0
284
     8
340
11
  0
ENDTAB
  0
TABLE
  2
BLOCK_RECORD
  5
1
330
0
100
AcDbSymbolTable
 70
     1
  0
BLOCK_RECORD
  5
1F
330
1
100
AcDbSymbolTableRecord
100
AcDbBlockTableRecord
  2
*Model_Space
340
22
  0
BLOCK_RECORD
  5
1B
330
1
100
AcDbSymbolTableRecord
100
AcDbBlockTableRecord
  2
*Paper_Space
340
1E
  0
BLOCK_RECORD
  5
23
330
1
100
AcDbSymbolTableRecord
100
AcDbBlockTableRecord
  2
*Paper_Space0
340
26
  0
ENDTAB
  0
ENDSEC
  0
SECTION
  2
BLOCKS
  0
BLOCK
  5
20
330
1F
100
AcDbEntity
  8
0
100
AcDbBlockBegin
  2
*Model_Space
 70
     0
 10
0.0
 20
0.0
 30
0.0
  3
*Model_Space
  1

  0
ENDBLK
  5
21
330
1F
100
AcDbEntity
  8
0
100
AcDbBlockEnd
  0
BLOCK
  5
1C
330
1B
100
AcDbEntity
 67
     1
  8
0
100
AcDbBlockBegin
  2
*Paper_Space
 70
     0
 10
0.0
 20
0.0
 30
0.0
  3
*Paper_Space
  1

  0
ENDBLK
  5
1D
330
1B
100
AcDbEntity
 67
     1
  8
0
100
AcDbBlockEnd
  0
BLOCK
  5
24
330
23
100
AcDbEntity
  8
0
100
AcDbBlockBegin
  2
*Paper_Space0
 70
     0
 10
0.0
 20
0.0
 30
0.0
  3
*Paper_Space0
  1

  0
ENDBLK
  5
25
330
23
100
AcDbEntity
  8
0
100
AcDbBlockEnd
  0
ENDSEC
  0
SECTION
  2
ENTITIES
  0
SPLINE
  5
A6
330
1F
100
AcDbEntity
  8
0
  6
Continuous
 62
     7
370
    15
100
AcDbSpline
210
0.0
220
0.0
230
1.0
 70
     8
 71
     3
 72
    10
 73
     6
 74
     0
 42
0.000000001
 43
0.00000001
 40
0.0
 40
0.0
 40
0.0
 40
0.0
 40
0.5
 40
0.5
 40
1.0
 40
1.0
 40
1.0
 40
1.0
 10
654.957403102272
 20
50.0
 30
0.0
 10
654.9574031022719
 20
46.72179793424812
 30
0.0
 10
654.9466809991396
 20
43.44377124931478
 30
0.0
 10
654.864504464722
 20
36.88871127461445
 30
0.0
 10
654.792420714809
 20
33.61168827857571
 30
0.0
 10
654.6357609920568
 20
30.3360486868154
 30
0.0
  0
LWPOLYLINE
  5
A7
330
1F
100
AcDbEntity
  8
0
  6
Continuous
 62
     7
370
    15
100
AcDbPolyline
 90
       14
 70
   128
 43
0.0
 10
654.6357609921
 20
30.3360486868
 10
653.954201839
 20
29.3655219457
 10
652.9300389364
 20
28.4232500248
 10
651.5753908033
 20
27.5203824594
 10
649.9062864615
 20
26.6676025283
 10
647.9424757701
 20
25.8750008432
 10
645.7071957331
 20
25.1519559497
 10
643.2268955453
 20
24.5070233554
 10
640.530923629
 20
23.9478342956
 10
637.6511803658
 20
23.4810054357
 10
634.6217406318
 20
23.1120605792
 10
631.4784506029
 20
22.8453653062
 10
628.258503601
 20
22.6840753177
 10
625.0
 20
22.630099095
  0
LWPOLYLINE
  5
A8
330
1F
100
AcDbEntity
  8
0
  6
Continuous
 62
     7
370
    15
100
AcDbPolyline
 90
       14
 70
   128
 43
0.0
 10
-625.0
 20
22.630099095
 10
-628.258503601
 20
22.6840753177
 10
-631.4784506029
 20
22.8453653062
 10
-634.6217406318
 20
23.1120605792
 10
-637.6511803658
 20
23.4810054357
 10
-640.530923629
 20
23.9478342956
 10
-643.2268955453
 20
24.5070233554
 10
-645.7071957331
 20
25.1519559497
 10
-647.9424757701
 20
25.8750008432
 10
-649.9062864615
 20
26.6676025283
 10
-651.5753908033
 20
27.5203824594
 10
-652.9300389364
 20
28.4232500248
 10
-653.954201839
 20
29.3655219457
 10
-654.6357609921
 20
30.3360486868
  0
SPLINE
  5
A9
330
1F
100
AcDbEntity
  8
0
  6
Continuous
 62
     7
370
    15
100
AcDbSpline
210
0.0
220
0.0
230
1.0
 70
     8
 71
     3
 72
    10
 73
     6
 74
     0
 42
0.000000001
 43
0.00000001
 40
0.0
 40
0.0
 40
0.0
 40
0.0
 40
0.5
 40
0.5
 40
1.0
 40
1.0
 40
1.0
 40
1.0
 10
-654.6357609920568
 20
30.33604868681543
 30
0.0
 10
-654.7924207148088
 20
33.61168827857574
 30
0.0
 10
-654.8645044647221
 20
36.88871127461448
 30
0.0
 10
-654.9466809991394
 20
43.44377124931479
 30
0.0
 10
-654.9574031022721
 20
46.7217979342481
 30
0.0
 10
-654.957403102272
 20
49.99999999999999
 30
0.0
  0
SPLINE
  5
AE
330
1F
100
AcDbEntity
  8
0
  6
Continuous
 62
     7
370
    15
100
AcDbSpline
210
0.0
220
0.0
230
1.0
 70
     8
 71
     3
 72
    14
 73
    10
 74
     0
 42
0.000000001
 43
0.00000001
 40
0.0
 40
0.0
 40
0.0
 40
0.0
 40
0.499999999999992
 40
0.499999999999992
 40
0.6249999999999921
 40
0.6249999999999921
 40
0.7499999999999922
 40
0.7499999999999922
 40
1.0
 40
1.0
 40
1.0
 40
1.0
 10
-648.9604683567555
 20
13.7681584252889
 30
0.0
 10
-650.1446914735333
 20
15.42125828376724
 30
0.0
 10
-651.1507258933871
 20
17.22485546630913
 30
0.0
 10
-652.2080802263929
 20
19.68047550753661
 30
0.0
 10
-652.4099302101687
 20
20.18340536992229
 30
0.0
 10
-652.7900392446531
 20
21.20273210366107
 30
0.0
 10
-652.967843470412
 20
21.71763651576483
 30
0.0
 10
-653.465425394091
 20
23.2779558348724
 30
0.0
 10
-653.7496014218374
 20
24.33888461393487
 30
0.0
 10
-653.9860477222796
 20
25.42123941330873
 30
0.0
  0
SPLINE
  5
B3
330
1F
100
AcDbEntity
  8
0
  6
Continuous
 62
     7
370
    15
100
AcDbSpline
210
0.0
220
0.0
230
1.0
 70
     8
 71
     3
 72
    16
 73
    12
 74
     0
 42
0.000000001
 43
0.00000001
 40
0.0
 40
0.0
 40
0.0
 40
0.0
 40
0.2500000000000002
 40
0.2500000000000002
 40
0.5000000000000004
 40
0.5000000000000004
 40
0.6250000000000006
 40
0.6250000000000006
 40
0.7500000000000007
 40
0.7500000000000007
 40
1.0
 40
1.0
 40
1.0
 40
1.0
 10
653.9860477222796
 20
25.4212394133087
 30
0.0
 10
653.7494101564123
 20
24.33800907876951
 30
0.0
 10
653.466045887419
 20
23.28112377073425
 30
0.0
 10
652.8084948244865
 20
21.21674140469514
 30
0.0
 10
652.4342725804709
 20
20.20927353084421
 30
0.0
 10
651.8017185307667
 20
18.73508796707399
 30
0.0
 10
651.5782430047957
 20
18.24848001180485
 30
0.0
 10
651.1098756206038
 20
17.29495484409527
 30
0.0
 10
650.8656377286725
 20
16.82915288595381
 30
0.0
 10
650.1024169444638
 20
15.46353385604628
 30
0.0
 10
649.5530729159822
 20
14.59539655221925
 30
0.0
 10
648.9604683567555
 20
13.76815842528887
 30
0.0
  0
SPLINE
  5
BE
330
1F
100
AcDbEntity
  8
0
  6
Continuous
 62
     7
370
    15
100
AcDbSpline
210
0.0
220
0.0
230
1.0
 70
    24
 71
     3
 72
     8
 73
     4
 74
     0
 42
0.000000001
 43
0.00000001
 40
0.0
 40
0.0
 40
0.0
 40
0.0
 40
1.0
 40
1.0
 40
1.0
 40
1.0
 10
651.0
 20
70.00000000000003
 30
0.0
 10
651.0
 20
77.71796255051397
 30
0.0
 10
651.0
 20
85.45417196591764
 30
0.0
 10
651.0
 20
92.9539004330554
 30
0.0
  0
LWPOLYLINE
  5
C0
330
1F
100
AcDbEntity
  8
0
  6
Continuous
 62
     7
370
    15
100
AcDbPolyline
 90
       16
 70
   128
 43
0.0
 10
651.0
 20
92.9539004331
 10
650.8247006518
 20
93.7620463227
 10
650.3007232235
 20
94.5613379968
 10
649.4338085214
 20
95.3430182486
 10
648.2334546446
 20
96.0985228257
 10
646.7128129211
 20
96.8195742618
 10
644.88854382
 20
97.4982725664
 10
642.7806344153
 20
98.1271817791
 10
640.4121794035
 20
98.6994114387
 10
637.8091280734
 20
99.2086920773
 10
635.0
 20
99.6494439099
 10
632.0155725784
 20
100.016837967
 10
628.88854382
 20
100.3068490024
 10
625.6531741062
 20
100.5162995946
 10
622.3449108246
 20
100.6428949591
 10
619.0
 20
100.6852480905
  0
SPLINE
  5
C2
330
1F
100
AcDbEntity
  8
0
  6
Continuous
 62
     7
370
    15
100
AcDbSpline
210
0.0
220
0.0
230
1.0
 70
    24
 71
     3
 72
     8
 73
     4
 74
     0
 42
0.000000001
 43
0.00000001
 40
0.0
 40
0.0
 40
0.0
 40
0.0
 40
1.0
 40
1.0
 40
1.0
 40
1.0
 10
-651.0
 20
92.95390043305548
 30
0.0
 10
-651.0
 20
85.45417196591772
 30
0.0
 10
-651.0
 20
77.71796255051403
 30
0.0
 10
-651.0
 20
70.00000000000006
 30
0.0
  0
LWPOLYLINE
  5
C3
330
1F
100
AcDbEntity
  8
0
  6
Continuous
 62
     7
370
    15
100
AcDbPolyline
 90
       16
 70
   128
 43
0.0
 10
-619.0
 20
100.6852480905
 10
-622.3449108246
 20
100.6428949591
 10
-625.6531741062
 20
100.5162995946
 10
-628.88854382
 20
100.3068490024
 10
-632.0155725784
 20
100.016837967
 10
-635.0
 20
99.6494439099
 10
-637.8091280734
 20
99.2086920773
 10
-640.4121794035
 20
98.6994114387
 10
-642.7806344153
 20
98.1271817791
 10
-644.88854382
 20
97.4982725664
 10
-646.7128129211
 20
96.8195742618
 10
-648.2334546446
 20
96.0985228257
 10
-649.4338085214
 20
95.3430182486
 10
-650.3007232235
 20
94.5613379968
 10
-650.8247006518
 20
93.7620463227
 10
-651.0
 20
92.9539004331
  0
SPLINE
  5
CF
330
1F
100
AcDbEntity
  8
0
  6
Continuous
 62
     7
370
    15
100
AcDbSpline
210
0.0
220
0.0
230
1.0
 70
     8
 71
     3
 72
    33
 73
    29
 74
     0
 42
0.000000001
 43
0.00000001
 40
0.0
 40
0.0
 40
0.0
 40
0.0
 40
0.0202212376949673
 40
0.039134239656624
 40
0.0567389070841536
 40
0.0730351924966168
 40
0.0880230903253657
 40
0.1017026282439559
 40
0.1140738592716707
 40
0.1251368547056363
 40
0.1908331155370034
 40
0.2493813071998752
 40
0.3139862703852822
 40
0.3736266114453163
 40
0.4379001823685308
 40
0.4988241582774448
 40
0.5659383223761234
 40
0.6299577740286161
 40
0.6909095877475245
 40
0.7488254682966883
 40
0.7827490980798241
 40
0.8159309930067203
 40
0.8483802935203059
 40
0.8801067215827626
 40
0.9111206060448976
 40
0.9414329107615322
 40
0.9710552655435143
 40
1.0
 40
1.0
 40
1.0
 40
1.0
 10
625.0
 20
0.4434099087460286
 30
0.0
 10
625.1747407727231
 20
0.4512222355858159
 30
0.0
 10
625.5129172671925
 20
0.4663414619870826
 30
0.0
 10
626.0032056227873
 20
0.4993918594806551
 30
0.0
 10
626.4594424385322
 20
0.5371456082637616
 30
0.0
 10
626.8815927965013
 20
0.5787394090798759
 30
0.0
 10
627.2696502912476
 20
0.6224835342413804
 30
0.0
 10
627.6236423585909
 20
0.6670368127660448
 30
0.0
 10
627.9436125934369
 20
0.7111259666104097
 30
0.0
 10
628.7117464764351
 20
0.8252246923510786
 30
0.0
 10
629.8762410831899
 20
1.039356428989079
 30
0.0
 10
631.4939407549513
 20
1.43099853433859
 30
0.0
 10
633.0510014333669
 20
1.899850729712882
 30
0.0
 10
634.6443136913658
 20
2.47762839159562
 30
0.0
 10
636.1924015235899
 20
3.137605833093582
 30
0.0
 10
637.7840949715312
 20
3.923796914383437
 30
0.0
 10
639.3512176598792
 20
4.812441879407069
 30
0.0
 10
640.8905825173078
 20
5.809164513586013
 30
0.0
 10
642.325968650645
 20
6.857826344499037
 30
0.0
 10
643.4973961543031
 20
7.814721987221884
 30
0.0
 10
644.4357581072603
 20
8.649700121425367
 30
0.0
 10
645.170181842878
 20
9.345134826865351
 30
0.0
 10
645.8750601509394
 20
10.05459671553498
 30
0.0
 10
646.550380334893
 20
10.77654907882454
 30
0.0
 10
647.1963415178922
 20
11.5092735970501
 30
0.0
 10
647.8126524580764
 20
12.25188502694009
 30
0.0
 10
648.4010652813323
 20
13.00069938341236
 30
0.0
 10
648.7754445189631
 20
13.51431960402536
 30
0.0
 10
648.9604683567555
 20
13.76815842528883
 30
0.0
  0
SPLINE
  5
D1
330
1F
100
AcDbEntity
  8
0
  6
Continuous
 62
     7
370
    15
100
AcDbSpline
210
0.0
220
0.0
230
1.0
 70
     8
 71
     3
 72
    33
 73
    29
 74
     0
 42
0.000000001
 43
0.00000001
 40
0.0
 40
0.0
 40
0.0
 40
0.0
 40
0.0202196629785518
 40
0.0391314556351791
 40
0.056735375414138
 40
0.0730314202390139
 40
0.0880195885950934
 40
0.1016998796510909
 40
0.1140722934452327
 40
0.1251368311812963
 40
0.1908218767590812
 40
0.2493812605589407
 40
0.3138785715057733
 40
0.3736265096104598
 40
0.4379289407576658
 40
0.4988239844863844
 40
0.5658038701147451
 40
0.6297837260854492
 40
0.6907832966944059
 40
0.7488253725951762
 40
0.7826115282520876
 40
0.8157002441296796
 40
0.8480983169812774
 40
0.8798129876222128
 40
0.9108519751716074
 40
0.9412235139659023
 40
0.9709363932832162
 40
1.0
 40
1.0
 40
1.0
 40
1.0
 10
-625.0
 20
0.4434099087459731
 30
0.0
 10
-625.1747099992825
 20
0.4512223390819026
 30
0.0
 10
-625.5128292148794
 20
0.4663418676030956
 30
0.0
 10
-626.0029372357619
 20
0.4993965831631975
 30
0.0
 10
-626.4590526041559
 20
0.5371530140366176
 30
0.0
 10
-626.8811682128157
 20
0.578746812576289
 30
0.0
 10
-627.2692866090295
 20
0.6224880541793043
 30
0.0
 10
-627.6234054566661
 20
0.6670372316670004
 30
0.0
 10
-627.9435323187462
 20
0.7111230345897557
 30
0.0
 10
-628.7117206418707
 20
0.8252030838686031
 30
0.0
 10
-629.8759219935672
 20
1.039350532340277
 30
0.0
 10
-631.4929950948094
 20
1.430740290115071
 30
0.0
 10
-633.0500336297736
 20
1.899559602502585
 30
0.0
 10
-634.6440359079972
 20
2.477329879820279
 30
0.0
 10
-636.1926617386014
 20
3.137727560682195
 30
0.0
 10
-637.78329976359
 20
3.923370491618228
 30
0.0
 10
-639.3483357480641
 20
4.811016665552136
 30
0.0
 10
-640.886356323586
 20
5.806874629032468
 30
0.0
 10
-642.3232526667917
 20
6.856028260414891
 30
0.0
 10
-643.4954950662559
 20
7.813005988884202
 30
0.0
 10
-644.4329011393239
 20
8.647234212497635
 30
0.0
 10
-645.165070344833
 20
9.340567945276087
 30
0.0
 10
-645.8687195678979
 20
10.04869342597451
 30
0.0
 10
-646.5438240088322
 20
10.77011821673912
 30
0.0
 10
-647.1905038139666
 20
11.50316009595748
 30
0.0
 10
-647.808318791157
 20
12.24696759026118
 30
0.0
 10
-648.3988620597585
 20
12.99786196427313
 30
0.0
 10
-648.7746499675166
 20
13.51329082784918
 30
0.0
 10
-648.9604683567557
 20
13.76815842528878
 30
0.0
  0
SPLINE
  5
D6
330
1F
100
AcDbEntity
  8
0
  6
Continuous
 62
     7
370
    15
100
AcDbSpline
210
0.0
220
0.0
230
1.0
 70
     8
 71
     3
 72
    18
 73
    14
 74
     0
 42
0.000000001
 43
0.00000001
 40
0.0
 40
0.0
 40
0.0
 40
0.0
 40
0.0458089820353446
 40
0.0937131283536059
 40
0.1437136276413687
 40
0.1958115250571965
 40
0.2500077443821112
 40
0.3690325106077553
 40
0.5000052408383959
 40
0.6178427022693731
 40
0.7499926623721715
 40
0.8521838683558738
 40
1.0
 40
1.0
 40
1.0
 40
1.0
 10
-383.0
 20
0.9980039920159944
 30
0.0
 10
-383.0008136606866
 20
0.9679223662057146
 30
0.0
 10
-383.0024781964383
 20
0.9063832720064974
 30
0.0
 10
-383.0152507069013
 20
0.81766465292335
 30
0.0
 10
-383.0354238296649
 20
0.729617228621679
 30
0.0
 10
-383.0638379293517
 20
0.6432851776163317
 30
0.0
 10
-383.1143076241418
 20
0.5267664035528002
 30
0.0
 10
-383.2012389543618
 20
0.3870099469670957
 30
0.0
 10
-383.3306118173457
 20
0.2486700778959322
 30
0.0
 10
-383.4835825038602
 20
0.136773708291571
 30
0.0
 10
-383.6368960062026
 20
0.063225110540896
 30
0.0
 10
-383.8129617488879
 20
0.0110103861242911
 30
0.0
 10
-383.9305036708882
 20
0.0040910424107948
 30
0.0
 10
-384.0
 20
0.0
 30
0.0
  0
SPLINE
  5
DA
330
1F
100
AcDbEntity
  8
0
  6
Continuous
 62
     7
370
    15
100
AcDbSpline
210
0.0
220
0.0
230
1.0
 70
     8
 71
     3
 72
    19
 73
    15
 74
     0
 42
0.000000001
 43
0.00000001
 40
0.0
 40
0.0
 40
0.0
 40
0.0
 40
0.0645957979282038
 40
0.1218940813208161
 40
0.1718948516793898
 40
0.2145981132191584
 40
0.2500038747871314
 40
0.3821479027533418
 40
0.4999952090589818
 40
0.6309588611927716
 40
0.7499927706996823
 40
0.8391506025384381
 40
0.922484728080239
 40
1.0
 40
1.0
 40
1.0
 40
1.0
 10
-416.0000000000001
 20
0.0
 30
0.0
 10
-416.0304069796759
 20
0.0007935482586735
 30
0.0
 10
-416.0877858026366
 20
0.0022909960660511
 30
0.0
 10
-416.1681759237464
 20
0.0133487790206777
 30
0.0
 10
-416.2378478886706
 20
0.027914907108989
 30
0.0
 10
-416.2968118703845
 20
0.0443969030292229
 30
0.0
 10
-416.3921817090584
 20
0.0768723635026641
 30
0.0
 10
-416.5164040151151
 20
0.1368730312738126
 30
0.0
 10
-416.6693918438966
 20
0.2486292386008615
 30
0.0
 10
-416.7987188439517
 20
0.3870341028438945
 30
0.0
 10
-416.8957967993817
 20
0.542760758582464
 30
0.0
 10
-416.9570419195053
 20
0.6971385276521996
 30
0.0
 10
-416.9928522448444
 20
0.8429393187709966
 30
0.0
 10
-416.9976755775681
 20
0.947577557834603
 30
0.0
 10
-417.0000000000001
 20
0.99800399201605
 30
0.0
  0
SPLINE
  5
DD
330
1F
100
AcDbEntity
  8
0
  6
Continuous
 62
     7
370
    15
100
AcDbSpline
210
0.0
220
0.0
230
1.0
 70
     8
 71
     3
 72
    19
 73
    15
 74
     0
 42
0.000000001
 43
0.00000001
 40
0.0
 40
0.0
 40
0.0
 40
0.0
 40
0.0645976261963684
 40
0.121897229899555
 40
0.1718988126106827
 40
0.2146023785446819
 40
0.2500079365487551
 40
0.3821487652436253
 40
0.499995351888621
 40
0.6309589651260009
 40
0.7499928421205226
 40
0.8391506469039469
 40
0.9224847486399076
 40
1.0
 40
1.0
 40
1.0
 40
1.0
 10
384.0000000000001
 20
0.0
 30
0.0
 10
383.9695921585796
 20
0.0007935928505454
 30
0.0
 10
383.9122118513665
 20
0.0022911211011306
 30
0.0
 10
383.8318198631284
 20
0.0133494537880446
 30
0.0
 10
383.7621467500764
 20
0.0279161711202042
 30
0.0
 10
383.7031823362319
 20
0.0443986352589715
 30
0.0
 10
383.6078139201693
 20
0.076874199200605
 30
0.0
 10
383.4835937088473
 20
0.1368744677468919
 30
0.0
 10
383.3306078178325
 20
0.2486296417310574
 30
0.0
 10
383.2012810403594
 20
0.3870342384898473
 30
0.0
 10
383.1042031502009
 20
0.5427608688613195
 30
0.0
 10
383.0429580572203
 20
0.6971386049593464
 30
0.0
 10
383.0071477514052
 20
0.8429393600448837
 30
0.0
 10
383.0023244212289
 20
0.9475775708964462
 30
0.0
 10
383.0
 20
0.9980039920159944
 30
0.0
  0
SPLINE
  5
DE
330
1F
100
AcDbEntity
  8
0
  6
Continuous
 62
     7
370
    15
100
AcDbSpline
210
0.0
220
0.0
230
1.0
 70
     8
 71
     3
 72
    18
 73
    14
 74
     0
 42
0.000000001
 43
0.00000001
 40
0.0
 40
0.0
 40
0.0
 40
0.0
 40
0.0458089941558045
 40
0.0937131536747475
 40
0.1437136672442624
 40
0.1958115800236953
 40
0.250007815794629
 40
0.3690326141387053
 40
0.5000053836508563
 40
0.6178435585213374
 40
0.7499967241078406
 40
0.8521874773670434
 40
1.0
 40
1.0
 40
1.0
 40
1.0
 10
417.0000000000001
 20
0.99800399201605
 30
0.0
 10
416.9991863388852
 20
0.9679223583548835
 30
0.0
 10
416.9975218022478
 20
0.9063832477494704
 30
0.0
 10
416.9847492851084
 20
0.8176646060800846
 30
0.0
 10
416.9645761519836
 20
0.729617159853535
 30
0.0
 10
416.9361620372092
 20
0.6432850883212743
 30
0.0
 10
416.8856923193227
 20
0.5267662906692783
 30
0.0
 10
416.798760929013
 20
0.3870098115620474
 30
0.0
 10
416.6693878483573
 20
0.2486696769843366
 30
0.0
 10
416.516415217619
 20
0.1367722727447646
 30
0.0
 10
416.3630998578112
 20
0.0632235288706706
 30
0.0
 10
416.1870346374286
 20
0.0110099217879578
 30
0.0
 10
416.0694946296265
 20
0.0040908488790625
 30
0.0
 10
416.0000000000002
 20
0.0
 30
0.0
  0
SPLINE
  5
E3
330
1F
100
AcDbEntity
  8
0
  6
Continuous
 62
     7
370
    15
100
AcDbSpline
210
0.0
220
0.0
230
1.0
 70
     8
 71
     3
 72
    18
 73
    14
 74
     0
 42
0.000000001
 43
0.00000001
 40
0.0
 40
0.0
 40
0.0
 40
0.0
 40
0.0787106326563991
 40
0.1466978550953052
 40
0.2039620659191887
 40
0.2505048006893651
 40
0.3841681521324994
 40
0.499780817119585
 40
0.6322104093172929
 40
0.7496532911485282
 40
0.8376005712918762
 40
0.9206023505105909
 40
1.0
 40
1.0
 40
1.0
 40
1.0
 10
383.0
 20
1.677108812310535
 30
0.0
 10
383.0339392477897
 20
1.673359225950924
 30
0.0
 10
383.0971939147424
 20
1.666370890857111
 30
0.0
 10
383.1847276669578
 20
1.645963190292983
 30
0.0
 10
383.2576942609356
 20
1.623274404028895
 30
0.0
 10
383.357550068197
 20
1.584810274154982
 30
0.0
 10
383.4798697603869
 20
1.521446406456656
 30
0.0
 10
383.6290277443866
 20
1.410949551125029
 30
0.0
 10
383.7603471653606
 20
1.275563247113275
 30
0.0
 10
383.8641912203831
 20
1.121599670074705
 30
0.0
 10
383.9339602525669
 20
0.9703343492263733
 30
0.0
 10
383.9786921462362
 20
0.8269117937972914
 30
0.0
 10
383.9908047861108
 20
0.7285516491523786
 30
0.0
 10
383.9967266981693
 20
0.68046302993513
 30
0.0
  0
SPLINE
  5
E4
330
1F
100
AcDbEntity
  8
0
  6
Continuous
 62
     7
370
    15
100
AcDbSpline
210
0.0
220
0.0
230
1.0
 70
     8
 71
     3
 72
     9
 73
     5
 74
     0
 42
0.000000001
 43
0.00000001
 40
0.0
 40
0.0
 40
0.0
 40
0.0
 40
0.5000024786100244
 40
1.0
 40
1.0
 40
1.0
 40
1.0
 10
384.0
 20
0.5993592314883361
 30
0.0
 10
383.9998636151281
 20
0.6128931120652353
 30
0.0
 10
383.9995908467367
 20
0.6399607390388529
 30
0.0
 10
383.9976814112032
 20
0.6669623109206574
 30
0.0
 10
383.9967266981693
 20
0.6804630299351855
 30
0.0
  0
SPLINE
  5
E5
330
1F
100
AcDbEntity
  8
0
  6
Continuous
 62
     7
370
    15
100
AcDbSpline
210
0.0
220
0.0
230
1.0
 70
     8
 71
     3
 72
    18
 73
    14
 74
     0
 42
0.000000001
 43
0.00000001
 40
0.0
 40
0.0
 40
0.0
 40
0.0
 40
0.0787106354345147
 40
0.1466978587988069
 40
0.2039620686948448
 40
0.2505048006835117
 40
0.3841681530267608
 40
0.4997808171019062
 40
0.6322104077072002
 40
0.749653291123021
 40
0.8376005706793846
 40
0.9206023498963776
 40
1.0
 40
1.0
 40
1.0
 40
1.0
 10
-417.0000000000001
 20
1.67710881231059
 30
0.0
 10
-416.9660607510133
 20
1.673359225785452
 30
0.0
 10
-416.9028060824654
 20
1.666370890453364
 30
0.0
 10
-416.8152723291172
 20
1.645963189232762
 30
0.0
 10
-416.7423057364049
 20
1.623274403037001
 30
0.0
 10
-416.6424499302349
 20
1.584810273412
 30
0.0
 10
-416.5201302389993
 20
1.521446406118128
 30
0.0
 10
-416.3709722559813
 20
1.410949551281987
 30
0.0
 10
-416.2396528351588
 20
1.275563247754206
 30
0.0
 10
-416.1358087801637
 20
1.121599671130832
 30
0.0
 10
-416.0660397477664
 20
0.9703343499826711
 30
0.0
 10
-416.0213078538993
 20
0.8269117945424453
 30
0.0
 10
-416.0091952139495
 20
0.7285516495251082
 30
0.0
 10
-416.0032733018309
 20
0.68046302993513
 30
0.0
  0
SPLINE
  5
E6
330
1F
100
AcDbEntity
  8
0
  6
Continuous
 62
     7
370
    15
100
AcDbSpline
210
0.0
220
0.0
230
1.0
 70
     8
 71
     3
 72
     9
 73
     5
 74
     0
 42
0.000000001
 43
0.00000001
 40
0.0
 40
0.0
 40
0.0
 40
0.0
 40
0.5000024786143139
 40
0.9999999999999999
 40
0.9999999999999999
 40
0.9999999999999999
 40
0.9999999999999999
 10
-416.0000000000001
 20
0.5993592314883778
 30
0.0
 10
-416.0001363848719
 20
0.612893112065388
 30
0.0
 10
-416.0004091532634
 20
0.6399607390389778
 30
0.0
 10
-416.0023185887967
 20
0.6669623109207684
 30
0.0
 10
-416.0032733018308
 20
0.6804630299351855
 30
0.0
  0
SPLINE
  5
E8
330
1F
100
AcDbEntity
  8
0
  6
Continuous
 62
     7
370
    15
100
AcDbSpline
210
0.0
220
0.0
230
1.0
 70
     8
 71
     3
 72
    18
 73
    14
 74
     0
 42
0.000000001
 43
0.00000001
 40
0.0
 40
0.0
 40
0.0
 40
0.0
 40
0.078712099884164
 40
0.1466998371894403
 40
0.2039634861011022
 40
0.250504799079522
 40
0.3841748251001976
 40
0.4997808128738468
 40
0.632222298324093
 40
0.7496532867364257
 40
0.837616026266263
 40
0.92061723507594
 40
0.9999999999999999
 40
0.9999999999999999
 40
0.9999999999999999
 40
0.9999999999999999
 10
417.0000000000001
 20
1.677108812310563
 30
0.0
 10
416.9661185811046
 20
1.67335435468946
 30
0.0
 10
416.902972017323
 20
1.666356976617198
 30
0.0
 10
416.8156349006629
 20
1.645932892942535
 30
0.0
 10
416.7424739666906
 20
1.623260074515652
 30
0.0
 10
416.6422963958102
 20
1.584821098565045
 30
0.0
 10
416.5203863937532
 20
1.521423740278374
 30
0.0
 10
416.3708493754874
 20
1.410953051533263
 30
0.0
 10
416.2398477564118
 20
1.275542179016695
 30
0.0
 10
416.1357286553623
 20
1.121592301735953
 30
0.0
 10
416.0661416401607
 20
0.9703090874077364
 30
0.0
 10
416.0213998512883
 20
0.8268857110323158
 30
0.0
 10
416.0092250535997
 20
0.728540103471495
 30
0.0
 10
416.0032733018308
 20
0.6804630299351855
 30
0.0
  0
SPLINE
  5
EA
330
1F
100
AcDbEntity
  8
0
  6
Continuous
 62
     7
370
    15
100
AcDbSpline
210
0.0
220
0.0
230
1.0
 70
     8
 71
     3
 72
     9
 73
     5
 74
     0
 42
0.000000001
 43
0.00000001
 40
0.0
 40
0.0
 40
0.0
 40
0.0
 40
0.499997521385686
 40
0.9999999999999999
 40
0.9999999999999999
 40
0.9999999999999999
 40
0.9999999999999999
 10
416.0032733018308
 20
0.6804630299351855
 30
0.0
 10
416.0023185887968
 20
0.6669623109207684
 30
0.0
 10
416.0004091532634
 20
0.6399607390389778
 30
0.0
 10
416.0001363848718
 20
0.612893112065388
 30
0.0
 10
416.0000000000001
 20
0.5993592314883778
 30
0.0
  0
SPLINE
  5
EC
330
1F
100
AcDbEntity
  8
0
  6
Continuous
 62
     7
370
    15
100
AcDbSpline
210
0.0
220
0.0
230
1.0
 70
     8
 71
     3
 72
     9
 73
     5
 74
     0
 42
0.000000001
 43
0.00000001
 40
0.0
 40
0.0
 40
0.0
 40
0.0
 40
0.4999975213899756
 40
1.0
 40
1.0
 40
1.0
 40
1.0
 10
-383.9967266981693
 20
0.6804630299351855
 30
0.0
 10
-383.9976814112032
 20
0.6669623109206574
 30
0.0
 10
-383.9995908467366
 20
0.6399607390388529
 30
0.0
 10
-383.9998636151282
 20
0.6128931120652353
 30
0.0
 10
-384.0
 20
0.5993592314883361
 30
0.0
  0
SPLINE
  5
ED
330
1F
100
AcDbEntity
  8
0
  6
Continuous
 62
     7
370
    15
100
AcDbSpline
210
0.0
220
0.0
230
1.0
 70
     8
 71
     3
 72
    18
 73
    14
 74
     0
 42
0.000000001
 43
0.00000001
 40
0.0
 40
0.0
 40
0.0
 40
0.0
 40
0.0787121003587114
 40
0.1466998378223396
 40
0.2039634865761275
 40
0.2505047990804635
 40
0.3841748254192232
 40
0.4997808128749581
 40
0.6322222984739619
 40
0.7496532867398823
 40
0.8376160263552036
 40
0.9206172351652114
 40
0.9999999999999999
 40
0.9999999999999999
 40
0.9999999999999999
 40
0.9999999999999999
 10
-383.0
 20
1.677108812310563
 30
0.0
 10
-383.0338814191003
 20
1.673354354661261
 30
0.0
 10
-383.097027983155
 20
1.666356976548447
 30
0.0
 10
-383.1843651000194
 20
1.645932892762658
 30
0.0
 10
-383.2575260337921
 20
1.623260074348883
 30
0.0
 10
-383.3577036045108
 20
1.584821098409961
 30
0.0
 10
-383.4796136063417
 20
1.521423740181223
 30
0.0
 10
-383.6291506246893
 20
1.41095305137446
 30
0.0
 10
-383.7601522436663
 20
1.275542178969739
 30
0.0
 10
-383.8642713447149
 20
1.121592301626222
 30
0.0
 10
-383.9338583598217
 20
0.9703090872926895
 30
0.0
 10
-383.978600148712
 20
0.826885710922251
 30
0.0
 10
-383.9907749464027
 20
0.7285401034167194
 30
0.0
 10
-383.9967266981693
 20
0.6804630299351855
 30
0.0
  0
SPLINE
  5
F0
330
1F
100
AcDbEntity
  8
0
  6
Continuous
 62
     7
370
    15
100
AcDbSpline
210
0.0
220
0.0
230
1.0
 70
    24
 71
     3
 72
     8
 73
     4
 74
     0
 42
0.000000001
 43
0.00000001
 40
0.0
 40
0.0
 40
0.0
 40
0.0
 40
0.9999999999999999
 40
0.9999999999999999
 40
0.9999999999999999
 40
0.9999999999999999
 10
-651.0
 20
95.00000000000006
 30
0.0
 10
-651.0
 20
95.00000000000006
 30
0.0
 10
-651.0
 20
94.3172000940881
 30
0.0
 10
-651.0
 20
92.95390043305548
 30
0.0
  0
SPLINE
  5
F7
330
1F
100
AcDbEntity
  8
0
  6
Continuous
 62
     7
370
    15
100
AcDbSpline
210
0.0
220
0.0
230
1.0
 70
    24
 71
     3
 72
     8
 73
     4
 74
     0
 42
0.000000001
 43
0.00000001
 40
0.0
 40
0.0
 40
0.0
 40
0.0
 40
0.9999999999999999
 40
0.9999999999999999
 40
0.9999999999999999
 40
0.9999999999999999
 10
651.0
 20
92.95390043305548
 30
0.0
 10
651.0
 20
94.3172000940881
 30
0.0
 10
651.0
 20
95.00000000000011
 30
0.0
 10
651.0
 20
95.00000000000011
 30
0.0
  0
LINE
  5
FA
330
1F
100
AcDbEntity
  8
0
  6
Continuous
 62
     7
370
    15
100
AcDbLine
 10
-655.0
 20
0.0
 30
0.0
 11
655.0
 21
0.0
 31
0.0
  0
LINE
  5
FB
330
1F
100
AcDbEntity
  8
0
  6
Continuous
 62
     7
370
    15
100
AcDbLine
 10
619.0
 20
127.0
 30
0.0
 11
-619.0
 21
127.0
 31
0.0
  0
LINE
  5
FC
330
1F
100
AcDbEntity
  8
0
  6
Continuous
 62
     7
370
    15
100
AcDbLine
 10
-646.0
 20
70.0
 30
0.0
 11
-646.0
 21
53.0
 31
0.0
  0
LINE
  5
FD
330
1F
100
AcDbEntity
  8
0
  6
Continuous
 62
     7
370
    15
100
AcDbLine
 10
-666.0
 20
70.0
 30
0.0
 11
-666.0
 21
53.0
 31
0.0
  0
LINE
  5
FE
330
1F
100
AcDbEntity
  8
0
  6
Continuous
 62
     7
370
    15
100
AcDbLine
 10
666.0
 20
70.0
 30
0.0
 11
-666.0
 21
70.0
 31
0.0
  0
LINE
  5
FF
330
1F
100
AcDbEntity
  8
0
  6
Continuous
 62
     7
370
    15
100
AcDbLine
 10
206.0
 20
5.0
 30
0.0
 11
164.0
 21
5.0
 31
0.0
  0
LINE
  5
100
330
1F
100
AcDbEntity
  8
0
  6
Continuous
 62
     7
370
    15
100
AcDbLine
 10
164.0
 20
53.0
 30
0.0
 11
164.0
 21
5.0
 31
0.0
  0
LINE
  5
101
330
1F
100
AcDbEntity
  8
0
  6
Continuous
 62
     7
370
    15
100
AcDbLine
 10
206.0
 20
53.0
 30
0.0
 11
206.0
 21
5.0
 31
0.0
  0
LINE
  5
102
330
1F
100
AcDbEntity
  8
0
  6
Continuous
 62
     7
370
    15
100
AcDbLine
 10
646.0
 20
53.0
 30
0.0
 11
646.0
 21
70.0
 31
0.0
  0
LINE
  5
103
330
1F
100
AcDbEntity
  8
0
  6
Continuous
 62
     7
370
    15
100
AcDbLine
 10
666.0
 20
53.0
 30
0.0
 11
-666.0
 21
53.0
 31
0.0
  0
LINE
  5
104
330
1F
100
AcDbEntity
  8
0
  6
Continuous
 62
     7
370
    15
100
AcDbLine
 10
576.0
 20
5.0
 30
0.0
 11
534.0
 21
5.0
 31
0.0
  0
LINE
  5
105
330
1F
100
AcDbEntity
  8
0
  6
Continuous
 62
     7
370
    15
100
AcDbLine
 10
534.0
 20
53.0
 30
0.0
 11
534.0
 21
5.0
 31
0.0
  0
LINE
  5
106
330
1F
100
AcDbEntity
  8
0
  6
Continuous
 62
     7
370
    15
100
AcDbLine
 10
576.0
 20
53.0
 30
0.0
 11
576.0
 21
5.0
 31
0.0
  0
LINE
  5
107
330
1F
100
AcDbEntity
  8
0
  6
Continuous
 62
     7
370
    15
100
AcDbLine
 10
666.0
 20
53.0
 30
0.0
 11
666.0
 21
70.0
 31
0.0
  0
LINE
  5
108
330
1F
100
AcDbEntity
  8
0
  6
Continuous
 62
     7
370
    15
100
AcDbLine
 10
-534.0
 20
5.0
 30
0.0
 11
-576.0
 21
5.0
 31
0.0
  0
LINE
  5
109
330
1F
100
AcDbEntity
  8
0
  6
Continuous
 62
     7
370
    15
100
AcDbLine
 10
-576.0
 20
5.0
 30
0.0
 11
-576.0
 21
53.0
 31
0.0
  0
LINE
  5
10A
330
1F
100
AcDbEntity
  8
0
  6
Continuous
 62
     7
370
    15
100
AcDbLine
 10
-534.0
 20
5.0
 30
0.0
 11
-534.0
 21
53.0
 31
0.0
  0
LINE
  5
10B
330
1F
100
AcDbEntity
  8
0
  6
Continuous
 62
     7
370
    15
100
AcDbLine
 10
-164.0
 20
5.0
 30
0.0
 11
-206.0
 21
5.0
 31
0.0
  0
LINE
  5
10C
330
1F
100
AcDbEntity
  8
0
  6
Continuous
 62
     7
370
    15
100
AcDbLine
 10
-206.0
 20
5.0
 30
0.0
 11
-206.0
 21
53.0
 31
0.0
  0
LINE
  5
10D
330
1F
100
AcDbEntity
  8
0
  6
Continuous
 62
     7
370
    15
100
AcDbLine
 10
-164.0
 20
5.0
 30
0.0
 11
-164.0
 21
53.0
 31
0.0
  0
LINE
  5
10E
330
1F
100
AcDbEntity
  8
0
  6
Continuous
 62
     7
370
    15
100
AcDbLine
 10
-206.0
 20
50.0
 30
0.0
 11
-534.0
 21
50.0
 31
0.0
  0
LINE
  5
10F
330
1F
100
AcDbEntity
  8
0
  6
Continuous
 62
     7
370
    15
100
AcDbLine
 10
164.0
 20
50.0
 30
0.0
 11
-164.0
 21
50.0
 31
0.0
  0
LINE
  5
110
330
1F
100
AcDbEntity
  8
0
  6
Continuous
 62
     7
370
    15
100
AcDbLine
 10
534.0
 20
50.0
 30
0.0
 11
206.0
 21
50.0
 31
0.0
  0
LINE
  5
111
330
1F
100
AcDbEntity
  8
0
  6
Continuous
 62
     7
370
    15
100
AcDbLine
 10
625.0
 20
0.4434099087
 30
0.0
 11
625.0
 21
53.0
 31
0.0
  0
LINE
  5
112
330
1F
100
AcDbEntity
  8
0
  6
Continuous
 62
     7
370
    15
100
AcDbLine
 10
625.0
 20
22.630099095
 30
0.0
 11
576.0
 21
22.630099095
 31
0.0
  0
LINE
  5
113
330
1F
100
AcDbEntity
  8
0
  6
Continuous
 62
     7
370
    15
100
AcDbLine
 10
654.9574031023
 20
50.0
 30
0.0
 11
576.0
 21
50.0
 31
0.0
  0
LINE
  5
114
330
1F
100
AcDbEntity
  8
0
  6
Continuous
 62
     7
370
    15
100
AcDbLine
 10
654.9574031023
 20
53.0
 30
0.0
 11
654.9574031023
 21
50.0
 31
0.0
  0
LINE
  5
115
330
1F
100
AcDbEntity
  8
0
  6
Continuous
 62
     7
370
    15
100
AcDbLine
 10
-576.0
 20
50.0
 30
0.0
 11
-654.9574031023
 21
50.0
 31
0.0
  0
LINE
  5
116
330
1F
100
AcDbEntity
  8
0
  6
Continuous
 62
     7
370
    15
100
AcDbLine
 10
-654.9574031023
 20
50.0
 30
0.0
 11
-654.9574031023
 21
53.0
 31
0.0
  0
LINE
  5
117
330
1F
100
AcDbEntity
  8
0
  6
Continuous
 62
     7
370
    15
100
AcDbLine
 10
-625.0
 20
53.0
 30
0.0
 11
-625.0
 21
0.4434099087
 31
0.0
  0
LINE
  5
118
330
1F
100
AcDbEntity
  8
0
  6
Continuous
 62
     7
370
    15
100
AcDbLine
 10
-576.0
 20
22.630099095
 30
0.0
 11
-625.0
 21
22.630099095
 31
0.0
  0
LINE
  5
119
330
1F
100
AcDbEntity
  8
0
  6
Continuous
 62
     7
370
    15
100
AcDbLine
 10
534.0
 20
22.630099095
 30
0.0
 11
206.0
 21
22.630099095
 31
0.0
  0
LINE
  5
11A
330
1F
100
AcDbEntity
  8
0
  6
Continuous
 62
     7
370
    15
100
AcDbLine
 10
164.0
 20
22.630099095
 30
0.0
 11
-164.0
 21
22.630099095
 31
0.0
  0
LINE
  5
11B
330
1F
100
AcDbEntity
  8
0
  6
Continuous
 62
     7
370
    15
100
AcDbLine
 10
-206.0
 20
22.630099095
 30
0.0
 11
-534.0
 21
22.630099095
 31
0.0
  0
LINE
  5
11C
330
1F
100
AcDbEntity
  8
0
  6
Continuous
 62
     7
370
    15
100
AcDbLine
 10
625.0
 20
1.8653185071
 30
0.0
 11
-625.0
 21
1.8653185071
 31
0.0
  0
LINE
  5
11D
330
1F
100
AcDbEntity
  8
0
  6
Continuous
 62
     7
370
    15
100
AcDbLine
 10
-475.0
 20
12.5
 30
0.0
 11
-325.0
 21
12.5
 31
0.0
  0
LINE
  5
11E
330
1F
100
AcDbEntity
  8
0
  6
Continuous
 62
     7
370
    15
100
AcDbLine
 10
-475.0
 20
7.5
 30
0.0
 11
-475.0
 21
12.5
 31
0.0
  0
LINE
  5
11F
330
1F
100
AcDbEntity
  8
0
  6
Continuous
 62
     7
370
    15
100
AcDbLine
 10
-325.0
 20
7.5
 30
0.0
 11
-475.0
 21
7.5
 31
0.0
  0
LINE
  5
120
330
1F
100
AcDbEntity
  8
0
  6
Continuous
 62
     7
370
    15
100
AcDbLine
 10
-325.0
 20
12.5
 30
0.0
 11
-325.0
 21
7.5
 31
0.0
  0
LINE
  5
121
330
1F
100
AcDbEntity
  8
0
  6
Continuous
 62
     7
370
    15
100
AcDbLine
 10
475.0
 20
7.5
 30
0.0
 11
325.0
 21
7.5
 31
0.0
  0
LINE
  5
122
330
1F
100
AcDbEntity
  8
0
  6
Continuous
 62
     7
370
    15
100
AcDbLine
 10
475.0
 20
12.5
 30
0.0
 11
475.0
 21
7.5
 31
0.0
  0
LINE
  5
123
330
1F
100
AcDbEntity
  8
0
  6
Continuous
 62
     7
370
    15
100
AcDbLine
 10
325.0
 20
12.5
 30
0.0
 11
475.0
 21
12.5
 31
0.0
  0
LINE
  5
124
330
1F
100
AcDbEntity
  8
0
  6
Continuous
 62
     7
370
    15
100
AcDbLine
 10
325.0
 20
7.5
 30
0.0
 11
325.0
 21
12.5
 31
0.0
  0
LINE
  5
125
330
1F
100
AcDbEntity
  8
0
  6
Continuous
 62
     7
370
    15
100
AcDbLine
 10
619.0
 20
70.0
 30
0.0
 11
619.0
 21
127.0
 31
0.0
  0
LINE
  5
126
330
1F
100
AcDbEntity
  8
0
  6
Continuous
 62
     7
370
    15
100
AcDbLine
 10
-619.0
 20
70.0
 30
0.0
 11
-619.0
 21
127.0
 31
0.0
  0
LINE
  5
127
330
1F
100
AcDbEntity
  8
0
  6
Continuous
 62
     7
370
    15
100
AcDbLine
 10
619.0
 20
100.6852480905
 30
0.0
 11
-619.0
 21
100.6852480905
 31
0.0
  0
LINE
  5
128
330
1F
100
AcDbEntity
  8
0
  6
Continuous
 62
     7
370
    15
100
AcDbLine
 10
619.0
 20
124.709590037
 30
0.0
 11
-619.0
 21
124.709590037
 31
0.0
  0
LINE
  5
129
330
1F
100
AcDbEntity
  8
0
  6
Continuous
 62
     7
370
    15
100
AcDbLine
 10
655.0
 20
0.0
 30
0.0
 11
655.0
 21
53.0
 31
0.0
  0
LINE
  5
12A
330
1F
100
AcDbEntity
  8
0
  6
Continuous
 62
     7
370
    15
100
AcDbLine
 10
653.9860477223
 20
25.4212394133
 30
0.0
 11
655.0
 21
25.4212394133
 31
0.0
  0
LINE
  5
12B
330
1F
100
AcDbEntity
  8
0
  6
Continuous
 62
     7
370
    15
100
AcDbLine
 10
-653.9860477223
 20
25.4212394133
 30
0.0
 11
-655.0
 21
25.4212394133
 31
0.0
  0
LINE
  5
12C
330
1F
100
AcDbEntity
  8
0
  6
Continuous
 62
     7
370
    15
100
AcDbLine
 10
-655.0
 20
53.0
 30
0.0
 11
-655.0
 21
0.0
 31
0.0
  0
LINE
  5
12D
330
1F
100
AcDbEntity
  8
0
  6
Continuous
 62
     7
370
    15
100
AcDbLine
 10
655.0
 20
0.4434099087
 30
0.0
 11
625.0
 21
0.4434099087
 31
0.0
  0
LINE
  5
12E
330
1F
100
AcDbEntity
  8
0
  6
Continuous
 62
     7
370
    15
100
AcDbLine
 10
-625.0
 20
0.4434099087
 30
0.0
 11
-655.0
 21
0.4434099087
 31
0.0
  0
LINE
  5
12F
330
1F
100
AcDbEntity
  8
0
  6
Continuous
 62
     7
370
    15
100
AcDbLine
 10
-383.0
 20
1.6771088123
 30
0.0
 11
-383.0
 21
0.998003992
 31
0.0
  0
LINE
  5
130
330
1F
100
AcDbEntity
  8
0
  6
Continuous
 62
     7
370
    15
100
AcDbLine
 10
-417.0
 20
1.6771088123
 30
0.0
 11
-383.0
 21
1.6771088123
 31
0.0
  0
LINE
  5
131
330
1F
100
AcDbEntity
  8
0
  6
Continuous
 62
     7
370
    15
100
AcDbLine
 10
-417.0
 20
0.998003992
 30
0.0
 11
-417.0
 21
1.6771088123
 31
0.0
  0
LINE
  5
132
330
1F
100
AcDbEntity
  8
0
  6
Continuous
 62
     7
370
    15
100
AcDbLine
 10
383.0
 20
1.6771088123
 30
0.0
 11
417.0
 21
1.6771088123
 31
0.0
  0
LINE
  5
133
330
1F
100
AcDbEntity
  8
0
  6
Continuous
 62
     7
370
    15
100
AcDbLine
 10
383.0
 20
0.998003992
 30
0.0
 11
383.0
 21
1.6771088123
 31
0.0
  0
LINE
  5
134
330
1F
100
AcDbEntity
  8
0
  6
Continuous
 62
     7
370
    15
100
AcDbLine
 10
417.0
 20
1.6771088123
 30
0.0
 11
417.0
 21
0.998003992
 31
0.0
  0
LINE
  5
135
330
1F
100
AcDbEntity
  8
0
  6
Continuous
 62
     7
370
    15
100
AcDbLine
 10
416.0032733018
 20
0.6804630299
 30
0.0
 11
383.9967266982
 21
0.6804630299
 31
0.0
  0
LINE
  5
136
330
1F
100
AcDbEntity
  8
0
  6
Continuous
 62
     7
370
    15
100
AcDbLine
 10
-383.9967266982
 20
0.6804630299
 30
0.0
 11
-416.0032733018
 21
0.6804630299
 31
0.0
  0
LINE
  5
137
330
1F
100
AcDbEntity
  8
0
  6
Continuous
 62
     7
370
    15
100
AcDbLine
 10
416.0
 20
0.0
 30
0.0
 11
416.0
 21
0.5993592315
 31
0.0
  0
LINE
  5
138
330
1F
100
AcDbEntity
  8
0
  6
Continuous
 62
     7
370
    15
100
AcDbLine
 10
384.0
 20
0.0
 30
0.0
 11
384.0
 21
0.5993592315
 31
0.0
  0
LINE
  5
139
330
1F
100
AcDbEntity
  8
0
  6
Continuous
 62
     7
370
    15
100
AcDbLine
 10
-384.0
 20
0.0
 30
0.0
 11
-384.0
 21
0.5993592315
 31
0.0
  0
LINE
  5
13A
330
1F
100
AcDbEntity
  8
0
  6
Continuous
 62
     7
370
    15
100
AcDbLine
 10
-416.0
 20
0.0
 30
0.0
 11
-416.0
 21
0.5993592315
 31
0.0
  0
ARC
  5
13B
330
1F
100
AcDbEntity
  8
0
  6
Continuous
 62
     7
370
    15
100
AcDbCircle
 10
-619.0
 20
95.0
 30
0.0
 40
32.00000000000016
100
AcDbArc
 50
90.0
 51
180.0
  0
ARC
  5
13C
330
1F
100
AcDbEntity
  8
0
  6
Continuous
 62
     7
370
    15
100
AcDbCircle
 10
619.0
 20
95.0
 30
0.0
 40
31.9999999999999
100
AcDbArc
 50
0.0
 51
90.0
  0
ARC
  5
13D
330
1F
100
AcDbEntity
  8
0
  6
Continuous
 62
     7
370
    15
100
AcDbCircle
 10
-625.0151463207
 20
31.902512195
 30
0.0
 40
30.03719750674698
100
AcDbArc
 50
217.137500585
 51
270.0288915198
  0
ARC
  5
13E
330
1F
100
AcDbEntity
  8
0
  6
Continuous
 62
     7
370
    15
100
AcDbCircle
 10
-625.0
 20
31.7533993967
 30
0.0
 40
29.6696345210865
100
AcDbArc
 50
182.7381238114
 51
192.3229802855
  0
ARC
  5
13F
330
1F
100
AcDbEntity
  8
0
  6
Continuous
 62
     7
370
    15
100
AcDbCircle
 10
625.0
 20
31.7533993967
 30
0.0
 40
29.66963452108651
100
AcDbArc
 50
347.6770197145
 51
357.2618761886
  0
ARC
  5
140
330
1F
100
AcDbEntity
  8
0
  6
Continuous
 62
     7
370
    15
100
AcDbCircle
 10
625.0151463207
 20
31.902512195
 30
0.0
 40
30.03719750674601
100
AcDbArc
 50
269.9711084802
 51
322.862499415
  0
ARC
  5
141
330
1F
100
AcDbEntity
  8
0
  6
Continuous
 62
     7
370
    15
100
AcDbCircle
 10
619.1132012947
 20
92.8227224454
 30
0.0
 40
31.88706852844323
100
AcDbArc
 50
0.2357057768
 51
90.2034044001
  0
ARC
  5
142
330
1F
100
AcDbEntity
  8
0
  6
Continuous
 62
     7
370
    15
100
AcDbCircle
 10
-619.1132012947
 20
92.8227224454
 30
0.0
 40
31.88706852844334
100
AcDbArc
 50
89.7965955999
 51
179.7642942232
  0
ARC
  5
143
330
1F
100
AcDbEntity
  8
0
  6
Continuous
 62
     7
370
    15
100
AcDbCircle
 10
383.000997008
 20
-0.000999002
 30
0.0
 40
0.999003491520371
100
AcDbArc
 50
0.0572957033
 51
90.0571813406
  0
ARC
  5
144
330
1F
100
AcDbEntity
  8
0
  6
Continuous
 62
     7
370
    15
100
AcDbCircle
 10
-416.999002992
 20
-0.000999002
 30
0.0
 40
0.9990034915202575
100
AcDbArc
 50
0.0572957033
 51
90.0571813406
  0
ARC
  5
145
330
1F
100
AcDbEntity
  8
0
  6
Continuous
 62
     7
370
    15
100
AcDbCircle
 10
416.999002992
 20
-0.000999002
 30
0.0
 40
0.999003491520257
100
AcDbArc
 50
89.9428186594
 51
179.9427042967
  0
ARC
  5
146
330
1F
100
AcDbEntity
  8
0
  6
Continuous
 62
     7
370
    15
100
AcDbCircle
 10
-383.000997008
 20
-0.000999002
 30
0.0
 40
0.9990034915203709
100
AcDbArc
 50
89.9428186594
 51
179.9427042967
  0
ENDSEC
  0
SECTION
  2
OBJECTS
  0
DICTIONARY
  5
C
330
0
100
AcDbDictionary
281
     1
  3
ACAD_GROUP
350
D
  3
ACAD_LAYOUT
350
1A
  3
ACAD_MLINESTYLE
350
17
  3
ACAD_PLOTSETTINGS
350
19
  3
ACAD_PLOTSTYLENAME
350
E
  3
ACAD_SCALELIST
350
47
  0
DICTIONARY
  5
D
102
{ACAD_REACTORS
330
C
102
}
330
C
100
AcDbDictionary
281
     1
  0
DICTIONARY
  5
1A
102
{ACAD_REACTORS
330
C
102
}
330
C
100
AcDbDictionary
281
     1
  3
Layout1
350
1E
  3
Layout2
350
26
  3
Model
350
22
  0
DICTIONARY
  5
17
102
{ACAD_REACTORS
330
C
102
}
330
C
100
AcDbDictionary
281
     1
  3
Standard
350
18
  0
DICTIONARY
  5
19
102
{ACAD_REACTORS
330
C
102
}
330
C
100
AcDbDictionary
281
     1
  0
ACDBDICTIONARYWDFLT
  5
E
102
{ACAD_REACTORS
330
C
102
}
330
C
100
AcDbDictionary
281
     1
  3
Normal
350
F
100
AcDbDictionaryWithDefault
340
F
  0
DICTIONARY
  5
47
102
{ACAD_REACTORS
330
C
102
}
330
C
100
AcDbDictionary
281
     1
  3
A0
350
48
  3
A1
350
49
  3
A2
350
4A
  3
A3
350
4B
  3
A4
350
4C
  3
A5
350
4D
  3
A6
350
4E
  3
A7
350
4F
  3
A8
350
50
  3
A9
350
51
  3
B0
350
52
  3
B1
350
53
  3
B2
350
54
  3
B3
350
55
  3
B4
350
56
  3
B5
350
57
  3
B6
350
58
  3
B7
350
59
  3
B8
350
5A
  3
B9
350
5B
  3
C0
350
5C
  3
C1
350
5D
  3
C2
350
5E
  3
C3
350
5F
  3
C4
350
60
  3
C5
350
61
  3
C6
350
62
  3
C7
350
63
  3
C8
350
64
  3
C9
350
65
  3
D0
350
66
  3
D1
350
67
  3
D2
350
68
  0
LAYOUT
  5
1E
102
{ACAD_REACTORS
330
1A
102
}
330
1A
100
AcDbPlotSettings
  1

  2
none_device
  4

  6

 40
0.0
 41
0.0
 42
0.0
 43
0.0
 44
0.0
 45
0.0
 46
0.0
 47
0.0
 48
0.0
 49
0.0
140
0.0
141
0.0
142
1.0
143
1.0
 70
   688
 72
     1
 73
     0
 74
     5
  7

 75
    16
147
1.0
148
0.0
149
0.0
100
AcDbLayout
  1
Layout1
 70
     1
 71
     1
 10
0.0
 20
0.0
 11
420.0
 21
297.0
 12
0.0
 22
0.0
 32
0.0
 14
1.0000000000E+20
 24
1.0000000000E+20
 34
1.0000000000E+20
 15
-1.0000000000E+20
 25
-1.0000000000E+20
 35
-1.0000000000E+20
146
0.0
 13
0.0
 23
0.0
 33
0.0
 16
1.0
 26
0.0
 36
0.0
 17
0.0
 27
1.0
 37
0.0
 76
     0
330
1B
  0
LAYOUT
  5
26
102
{ACAD_REACTORS
330
1A
102
}
330
1A
100
AcDbPlotSettings
  1

  2
none_device
  4

  6

 40
0.0
 41
0.0
 42
0.0
 43
0.0
 44
0.0
 45
0.0
 46
0.0
 47
0.0
 48
0.0
 49
0.0
140
0.0
141
0.0
142
1.0
143
1.0
 70
   688
 72
     1
 73
     0
 74
     5
  7

 75
    16
147
1.0
148
0.0
149
0.0
100
AcDbLayout
  1
Layout2
 70
     1
 71
     2
 10
0.0
 20
0.0
 11
0.0
 21
0.0
 12
0.0
 22
0.0
 32
0.0
 14
0.0
 24
0.0
 34
0.0
 15
0.0
 25
0.0
 35
0.0
146
0.0
 13
0.0
 23
0.0
 33
0.0
 16
1.0
 26
0.0
 36
0.0
 17
0.0
 27
1.0
 37
0.0
 76
     0
330
23
  0
LAYOUT
  5
22
102
{ACAD_REACTORS
330
1A
102
}
330
1A
100
AcDbPlotSettings
  1

  2
none_device
  4
ANSI_A_(11.00_x_8.50_Inches)
  6

 40
6.35
 41
19.05
 42
6.35000508
 43
19.05000254
 44
279.4
 45
215.9
 46
133.34999746
 47
75.7134514327
 48
0.0
 49
0.0
140
0.0
141
0.0
142
0.0081756757
143
1.0
 70
  1696
 72
     0
 73
     0
 74
     0
  7

 75
     0
147
0.0179189148
148
-1300.4909072572
149
0.0
100
AcDbLayout
  1
Model
 70
     1
 71
     0
 10
0.0
 20
0.0
 11
420.0
 21
297.0
 12
0.0
 22
0.0
 32
0.0
 14
-666.0
 24
0.0
 34
0.0
 15
666.0
 25
127.0
 35
0.0
146
0.0
 13
0.0
 23
0.0
 33
0.0
 16
1.0
 26
0.0
 36
0.0
 17
0.0
 27
1.0
 37
0.0
 76
     0
330
1F
331
29
  0
MLINESTYLE
  5
18
102
{ACAD_REACTORS
330
17
102
}
330
17
100
AcDbMlineStyle
  2
Standard
 70
     0
  3

 62
   256
 51
90.0
 52
90.0
 71
     2
 49
0.5
 62
   256
  6
BYLAYER
 49
-0.5
 62
   256
  6
BYLAYER
  0
ACDBPLACEHOLDER
  5
F
102
{ACAD_REACTORS
330
E
102
}
330
E
  0
SCALE
  5
48
102
{ACAD_REACTORS
330
47
102
}
330
47
100
AcDbScale
 70
     0
300
1:1
140
1.0
141
1.0
290
     1
  0
SCALE
  5
49
102
{ACAD_REACTORS
330
47
102
}
330
47
100
AcDbScale
 70
     0
300
1:2
140
1.0
141
2.0
290
     0
  0
SCALE
  5
4A
102
{ACAD_REACTORS
330
47
102
}
330
47
100
AcDbScale
 70
     0
300
1:4
140
1.0
141
4.0
290
     0
  0
SCALE
  5
4B
102
{ACAD_REACTORS
330
47
102
}
330
47
100
AcDbScale
 70
     0
300
1:5
140
1.0
141
5.0
290
     0
  0
SCALE
  5
4C
102
{ACAD_REACTORS
330
47
102
}
330
47
100
AcDbScale
 70
     0
300
1:8
140
1.0
141
8.0
290
     0
  0
SCALE
  5
4D
102
{ACAD_REACTORS
330
47
102
}
330
47
100
AcDbScale
 70
     0
300
1:10
140
1.0
141
10.0
290
     0
  0
SCALE
  5
4E
102
{ACAD_REACTORS
330
47
102
}
330
47
100
AcDbScale
 70
     0
300
1:16
140
1.0
141
16.0
290
     0
  0
SCALE
  5
4F
102
{ACAD_REACTORS
330
47
102
}
330
47
100
AcDbScale
 70
     0
300
1:20
140
1.0
141
20.0
290
     0
  0
SCALE
  5
50
102
{ACAD_REACTORS
330
47
102
}
330
47
100
AcDbScale
 70
     0
300
1:30
140
1.0
141
30.0
290
     0
  0
SCALE
  5
51
102
{ACAD_REACTORS
330
47
102
}
330
47
100
AcDbScale
 70
     0
300
1:40
140
1.0
141
40.0
290
     0
  0
SCALE
  5
52
102
{ACAD_REACTORS
330
47
102
}
330
47
100
AcDbScale
 70
     0
300
1:50
140
1.0
141
50.0
290
     0
  0
SCALE
  5
53
102
{ACAD_REACTORS
330
47
102
}
330
47
100
AcDbScale
 70
     0
300
1:100
140
1.0
141
100.0
290
     0
  0
SCALE
  5
54
102
{ACAD_REACTORS
330
47
102
}
330
47
100
AcDbScale
 70
     0
300
2:1
140
2.0
141
1.0
290
     0
  0
SCALE
  5
55
102
{ACAD_REACTORS
330
47
102
}
330
47
100
AcDbScale
 70
     0
300
4:1
140
4.0
141
1.0
290
     0
  0
SCALE
  5
56
102
{ACAD_REACTORS
330
47
102
}
330
47
100
AcDbScale
 70
     0
300
8:1
140
8.0
141
1.0
290
     0
  0
SCALE
  5
57
102
{ACAD_REACTORS
330
47
102
}
330
47
100
AcDbScale
 70
     0
300
10:1
140
10.0
141
1.0
290
     0
  0
SCALE
  5
58
102
{ACAD_REACTORS
330
47
102
}
330
47
100
AcDbScale
 70
     0
300
100:1
140
100.0
141
1.0
290
     0
  0
SCALE
  5
59
102
{ACAD_REACTORS
330
47
102
}
330
47
100
AcDbScale
 70
     0
300
1/128" = 1'-0"
140
0.0078125
141
12.0
290
     0
  0
SCALE
  5
5A
102
{ACAD_REACTORS
330
47
102
}
330
47
100
AcDbScale
 70
     0
300
1/64" = 1'-0"
140
0.015625
141
12.0
290
     0
  0
SCALE
  5
5B
102
{ACAD_REACTORS
330
47
102
}
330
47
100
AcDbScale
 70
     0
300
1/32" = 1'-0"
140
0.03125
141
12.0
290
     0
  0
SCALE
  5
5C
102
{ACAD_REACTORS
330
47
102
}
330
47
100
AcDbScale
 70
     0
300
1/16" = 1'-0"
140
0.0625
141
12.0
290
     0
  0
SCALE
  5
5D
102
{ACAD_REACTORS
330
47
102
}
330
47
100
AcDbScale
 70
     0
300
3/32" = 1'-0"
140
0.09375
141
12.0
290
     0
  0
SCALE
  5
5E
102
{ACAD_REACTORS
330
47
102
}
330
47
100
AcDbScale
 70
     0
300
1/8" = 1'-0"
140
0.125
141
12.0
290
     0
  0
SCALE
  5
5F
102
{ACAD_REACTORS
330
47
102
}
330
47
100
AcDbScale
 70
     0
300
3/16" = 1'-0"
140
0.1875
141
12.0
290
     0
  0
SCALE
  5
60
102
{ACAD_REACTORS
330
47
102
}
330
47
100
AcDbScale
 70
     0
300
1/4" = 1'-0"
140
0.25
141
12.0
290
     0
  0
SCALE
  5
61
102
{ACAD_REACTORS
330
47
102
}
330
47
100
AcDbScale
 70
     0
300
3/8" = 1'-0"
140
0.375
141
12.0
290
     0
  0
SCALE
  5
62
102
{ACAD_REACTORS
330
47
102
}
330
47
100
AcDbScale
 70
     0
300
1/2" = 1'-0"
140
0.5
141
12.0
290
     0
  0
SCALE
  5
63
102
{ACAD_REACTORS
330
47
102
}
330
47
100
AcDbScale
 70
     0
300
3/4" = 1'-0"
140
0.75
141
12.0
290
     0
  0
SCALE
  5
64
102
{ACAD_REACTORS
330
47
102
}
330
47
100
AcDbScale
 70
     0
300
1" = 1'-0"
140
1.0
141
12.0
290
     0
  0
SCALE
  5
65
102
{ACAD_REACTORS
330
47
102
}
330
47
100
AcDbScale
 70
     0
300
1-1/2" = 1'-0"
140
1.5
141
12.0
290
     0
  0
SCALE
  5
66
102
{ACAD_REACTORS
330
47
102
}
330
47
100
AcDbScale
 70
     0
300
3" = 1'-0"
140
3.0
141
12.0
290
     0
  0
SCALE
  5
67
102
{ACAD_REACTORS
330
47
102
}
330
47
100
AcDbScale
 70
     0
300
6" = 1'-0"
140
6.0
141
12.0
290
     0
  0
SCALE
  5
68
102
{ACAD_REACTORS
330
47
102
}
330
47
100
AcDbScale
 70
     0
300
1'-0" = 1'-0"
140
12.0
141
12.0
290
     0
  0
ENDSEC
  0
EOF
