  0
SECTION
  2
HEADER
  9
$ACADVER
  1
AC1021
  9
$ACADMAINTVER
 70
    25
  9
$DWGCODEPAGE
  3
ANSI_1252
  9
$LASTSAVEDBY
  1
fottrem
  9
$INSBASE
 10
0.0
 20
0.0
 30
0.0
  9
$EXTMIN
 10
0.0
 20
-1.155
 30
0.0
  9
$EXTMAX
 10
400.825
 20
270.0
 30
0.0
  9
$LIMMIN
 10
0.0
 20
0.0
  9
$LIMMAX
 10
400.0
 20
270.0
  9
$ORTHOMODE
 70
     0
  9
$REGENMODE
 70
     1
  9
$FILLMODE
 70
     1
  9
$QTEXTMODE
 70
     0
  9
$MIRRTEXT
 70
     1
  9
$LTSCALE
 40
1.0
  9
$ATTMODE
 70
     1
  9
$TEXTSIZE
 40
0.2
  9
$TRACEWID
 40
0.05
  9
$TEXTSTYLE
  7
NORMSCHRIFT
  9
$CLAYER
  8
0
  9
$CELTYPE
  6
ByBlock
  9
$CECOLOR
 62
   256
  9
$CELTSCALE
 40
1.0
  9
$DISPSILH
 70
     0
  9
$DIMSCALE
 40
1.0
  9
$DIMASZ
 40
0.18
  9
$DIMEXO
 40
0.0625
  9
$DIMDLI
 40
0.38
  9
$DIMRND
 40
0.0
  9
$DIMDLE
 40
0.0
  9
$DIMEXE
 40
0.18
  9
$DIMTP
 40
0.0
  9
$DIMTM
 40
0.0
  9
$DIMTXT
 40
0.18
  9
$DIMCEN
 40
0.09
  9
$DIMTSZ
 40
0.0
  9
$DIMTOL
 70
     0
  9
$DIMLIM
 70
     0
  9
$DIMTIH
 70
     1
  9
$DIMTOH
 70
     1
  9
$DIMSE1
 70
     0
  9
$DIMSE2
 70
     0
  9
$DIMTAD
 70
     0
  9
$DIMZIN
 70
     0
  9
$DIMBLK
  1

  9
$DIMASO
 70
     1
  9
$DIMSHO
 70
     1
  9
$DIMPOST
  1

  9
$DIMAPOST
  1

  9
$DIMALT
 70
     0
  9
$DIMALTD
 70
     2
  9
$DIMALTF
 40
25.4
  9
$DIMLFAC
 40
1.0
  9
$DIMTOFL
 70
     0
  9
$DIMTVP
 40
0.0
  9
$DIMTIX
 70
     0
  9
$DIMSOXD
 70
     0
  9
$DIMSAH
 70
     0
  9
$DIMBLK1
  1

  9
$DIMBLK2
  1

  9
$DIMSTYLE
  2
Standard
  9
$DIMCLRD
 70
     0
  9
$DIMCLRE
 70
     0
  9
$DIMCLRT
 70
     0
  9
$DIMTFAC
 40
1.0
  9
$DIMGAP
 40
0.09
  9
$DIMJUST
 70
     0
  9
$DIMSD1
 70
     0
  9
$DIMSD2
 70
     0
  9
$DIMTOLJ
 70
     1
  9
$DIMTZIN
 70
     0
  9
$DIMALTZ
 70
     0
  9
$DIMALTTZ
 70
     0
  9
$DIMUPT
 70
     0
  9
$DIMDEC
 70
     4
  9
$DIMTDEC
 70
     4
  9
$DIMALTU
 70
     2
  9
$DIMALTTD
 70
     2
  9
$DIMTXSTY
  7
Standard
  9
$DIMAUNIT
 70
     0
  9
$DIMADEC
 70
     0
  9
$DIMALTRND
 40
0.0
  9
$DIMAZIN
 70
     0
  9
$DIMDSEP
 70
    46
  9
$DIMATFIT
 70
     3
  9
$DIMFRAC
 70
     0
  9
$DIMLDRBLK
  1

  9
$DIMLUNIT
 70
     2
  9
$DIMLWD
 70
    -2
  9
$DIMLWE
 70
    -2
  9
$DIMTMOVE
 70
     2
  9
$DIMFXL
 40
1.0
  9
$DIMFXLON
 70
     0
  9
$DIMJOGANG
 40
0.7853981633974483
  9
$DIMTFILL
 70
     0
  9
$DIMTFILLCLR
 70
     0
  9
$DIMARCSYM
 70
     0
  9
$DIMLTYPE
  6

  9
$DIMLTEX1
  6

  9
$DIMLTEX2
  6

  9
$LUNITS
 70
     2
  9
$LUPREC
 70
     4
  9
$SKETCHINC
 40
0.1
  9
$FILLETRAD
 40
0.5
  9
$AUNITS
 70
     0
  9
$AUPREC
 70
     0
  9
$MENU
  1
.
  9
$ELEVATION
 40
0.0
  9
$PELEVATION
 40
0.0
  9
$THICKNESS
 40
0.0
  9
$LIMCHECK
 70
     0
  9
$CHAMFERA
 40
0.5
  9
$CHAMFERB
 40
0.5
  9
$CHAMFERC
 40
1.0
  9
$CHAMFERD
 40
0.0
  9
$SKPOLY
 70
     0
  9
$TDCREATE
 40
2453353.800459155
  9
$TDUCREATE
 40
2453353.717125822
  9
$TDUPDATE
 40
2455307.590667778
  9
$TDUUPDATE
 40
2455307.507334445
  9
$TDINDWG
 40
0.0426851968
  9
$TDUSRTIMER
 40
0.0426736227
  9
$USRTIMER
 70
     1
  9
$ANGBASE
 50
0.0
  9
$ANGDIR
 70
     0
  9
$PDMODE
 70
     0
  9
$PDSIZE
 40
0.0
  9
$PLINEWID
 40
0.0
  9
$SPLFRAME
 70
     0
  9
$SPLINETYPE
 70
     6
  9
$SPLINESEGS
 70
     8
  9
$HANDSEED
  5
782
  9
$SURFTAB1
 70
     6
  9
$SURFTAB2
 70
     6
  9
$SURFTYPE
 70
     6
  9
$SURFU
 70
     6
  9
$SURFV
 70
     6
  9
$UCSBASE
  2

  9
$UCSNAME
  2

  9
$UCSORG
 10
0.0
 20
0.0
 30
0.0
  9
$UCSXDIR
 10
1.0
 20
0.0
 30
0.0
  9
$UCSYDIR
 10
0.0
 20
1.0
 30
0.0
  9
$UCSORTHOREF
  2

  9
$UCSORTHOVIEW
 70
     0
  9
$UCSORGTOP
 10
0.0
 20
0.0
 30
0.0
  9
$UCSORGBOTTOM
 10
0.0
 20
0.0
 30
0.0
  9
$UCSORGLEFT
 10
0.0
 20
0.0
 30
0.0
  9
$UCSORGRIGHT
 10
0.0
 20
0.0
 30
0.0
  9
$UCSORGFRONT
 10
0.0
 20
0.0
 30
0.0
  9
$UCSORGBACK
 10
0.0
 20
0.0
 30
0.0
  9
$PUCSBASE
  2

  9
$PUCSNAME
  2

  9
$PUCSORG
 10
0.0
 20
0.0
 30
0.0
  9
$PUCSXDIR
 10
1.0
 20
0.0
 30
0.0
  9
$PUCSYDIR
 10
0.0
 20
1.0
 30
0.0
  9
$PUCSORTHOREF
  2

  9
$PUCSORTHOVIEW
 70
     0
  9
$PUCSORGTOP
 10
0.0
 20
0.0
 30
0.0
  9
$PUCSORGBOTTOM
 10
0.0
 20
0.0
 30
0.0
  9
$PUCSORGLEFT
 10
0.0
 20
0.0
 30
0.0
  9
$PUCSORGRIGHT
 10
0.0
 20
0.0
 30
0.0
  9
$PUCSORGFRONT
 10
0.0
 20
0.0
 30
0.0
  9
$PUCSORGBACK
 10
0.0
 20
0.0
 30
0.0
  9
$USERI1
 70
     0
  9
$USERI2
 70
     0
  9
$USERI3
 70
     0
  9
$USERI4
 70
     0
  9
$USERI5
 70
     0
  9
$USERR1
 40
0.0
  9
$USERR2
 40
0.0
  9
$USERR3
 40
0.0
  9
$USERR4
 40
0.0
  9
$USERR5
 40
0.0
  9
$WORLDVIEW
 70
     1
  9
$SHADEDGE
 70
     3
  9
$SHADEDIF
 70
    70
  9
$TILEMODE
 70
     1
  9
$MAXACTVP
 70
    64
  9
$PINSBASE
 10
0.0
 20
0.0
 30
0.0
  9
$PLIMCHECK
 70
     0
  9
$PEXTMIN
 10
1.000000000000000E+20
 20
1.000000000000000E+20
 30
1.000000000000000E+20
  9
$PEXTMAX
 10
-1.000000000000000E+20
 20
-1.000000000000000E+20
 30
-1.000000000000000E+20
  9
$PLIMMIN
 10
0.0
 20
0.0
  9
$PLIMMAX
 10
12.0
 20
9.0
  9
$UNITMODE
 70
     0
  9
$VISRETAIN
 70
     1
  9
$PLINEGEN
 70
     0
  9
$PSLTSCALE
 70
     1
  9
$TREEDEPTH
 70
  3020
  9
$CMLSTYLE
  2
Standard
  9
$CMLJUST
 70
     0
  9
$CMLSCALE
 40
1.0
  9
$PROXYGRAPHICS
 70
     1
  9
$MEASUREMENT
 70
     0
  9
$CELWEIGHT
370
    -1
  9
$ENDCAPS
280
     0
  9
$JOINSTYLE
280
     0
  9
$LWDISPLAY
290
     0
  9
$INSUNITS
 70
     0
  9
$HYPERLINKBASE
  1

  9
$STYLESHEET
  1

  9
$XEDIT
290
     0
  9
$CEPSNTYPE
380
     0
  9
$PSTYLEMODE
290
     1
  9
$FINGERPRINTGUID
  2
{B8859874-6E65-47F9-A157-C527BF45632A}
  9
$VERSIONGUID
  2
{FAEB1C32-E019-11D5-929B-00C0DF256EC4}
  9
$EXTNAMES
290
     1
  9
$PSVPSCALE
 40
0.0
  9
$OLESTARTUP
290
     0
  9
$SORTENTS
280
   127
  9
$INDEXCTL
280
     0
  9
$HIDETEXT
280
     1
  9
$XCLIPFRAME
290
     0
  9
$HALOGAP
280
     0
  9
$OBSCOLOR
 70
   257
  9
$OBSLTYPE
280
     0
  9
$INTERSECTIONDISPLAY
280
     0
  9
$INTERSECTIONCOLOR
 70
   257
  9
$DIMASSOC
280
     2
  9
$PROJECTNAME
  1

  9
$CAMERADISPLAY
290
     0
  9
$LENSLENGTH
 40
50.0
  9
$CAMERAHEIGHT
 40
0.0
  9
$STEPSPERSEC
 40
2.0
  9
$STEPSIZE
 40
6.0
  9
$3DDWFPREC
 40
2.0
  9
$PSOLWIDTH
 40
0.25
  9
$PSOLHEIGHT
 40
4.0
  9
$LOFTANG1
 40
1.570796326794897
  9
$LOFTANG2
 40
1.570796326794897
  9
$LOFTMAG1
 40
0.0
  9
$LOFTMAG2
 40
0.0
  9
$LOFTPARAM
 70
     7
  9
$LOFTNORMALS
280
     1
  9
$LATITUDE
 40
37.795
  9
$LONGITUDE
 40
-122.394
  9
$NORTHDIRECTION
 40
0.0
  9
$TIMEZONE
 70
 -8000
  9
$LIGHTGLYPHDISPLAY
280
     1
  9
$TILEMODELIGHTSYNCH
280
     1
  9
$SOLIDHIST
280
     1
  9
$SHOWHIST
280
     1
  9
$DWFFRAME
280
     2
  9
$DGNFRAME
280
     2
  9
$REALWORLDSCALE
290
     1
  9
$INTERFERECOLOR
 62
   256
  9
$CSHADOW
280
     0
  9
$SHADOWPLANELOCATION
 40
0.0
  0
ENDSEC
  0
SECTION
  2
CLASSES
  0
CLASS
  1
ACDBDICTIONARYWDFLT
  2
AcDbDictionaryWithDefault
  3
ObjectDBX Classes
 90
        0
 91
        3
280
     0
281
     0
  0
CLASS
  1
ACDBPLACEHOLDER
  2
AcDbPlaceHolder
  3
ObjectDBX Classes
 90
        0
 91
        1
280
     0
281
     0
  0
CLASS
  1
LAYOUT
  2
AcDbLayout
  3
ObjectDBX Classes
 90
        0
 91
        1
280
     0
281
     0
  0
CLASS
  1
DICTIONARYVAR
  2
AcDbDictionaryVar
  3
ObjectDBX Classes
 90
        0
 91
        3
280
     0
281
     0
  0
CLASS
  1
TABLESTYLE
  2
AcDbTableStyle
  3
ObjectDBX Classes
 90
     4095
 91
        3
280
     0
281
     0
  0
ENDSEC
  0
SECTION
  2
TABLES
  0
TABLE
  2
VPORT
  5
8
330
0
100
AcDbSymbolTable
 70
     2
  0
VPORT
  5
97
330
8
100
AcDbSymbolTableRecord
100
AcDbViewportTableRecord
  2
*ACTIVE
 70
     0
 10
0.0
 20
0.0
 11
1.0
 21
1.0
 12
202.0543406834112
 22
142.467691296729
 13
0.0
 23
0.0
 14
1.0
 24
1.0
 15
0.0
 25
0.0
 16
0.0
 26
0.0
 36
1.0
 17
0.0
 27
0.0
 37
0.0
 40
58.85532924107143
 41
1.481
 42
50.0
 43
0.0
 44
0.0
 50
0.0
 51
0.0
 71
    16
 72
   100
 73
     1
 74
     1
 75
     0
 76
     0
 77
     0
 78
     0
281
     0
 65
     0
110
0.0
120
0.0
130
0.0
111
1.0
121
0.0
131
0.0
112
0.0
122
1.0
132
0.0
 79
     0
146
0.0
 60
     3
 61
     5
292
     1
282
     1
141
0.0
142
0.0
 63
   256
  0
ENDTAB
  0
TABLE
  2
LTYPE
  5
5
330
0
100
AcDbSymbolTable
 70
    10
  0
LTYPE
  5
14
330
5
100
AcDbSymbolTableRecord
100
AcDbLinetypeTableRecord
  2
ByBlock
 70
     0
  3

 72
    65
 73
     0
 40
0.0
  0
LTYPE
  5
15
330
5
100
AcDbSymbolTableRecord
100
AcDbLinetypeTableRecord
  2
ByLayer
 70
     0
  3

 72
    65
 73
     0
 40
0.0
  0
LTYPE
  5
16
330
5
100
AcDbSymbolTableRecord
100
AcDbLinetypeTableRecord
  2
Continuous
 70
     0
  3
Solid line
 72
    65
 73
     0
 40
0.0
  0
LTYPE
  5
764
330
5
100
AcDbSymbolTableRecord
100
AcDbLinetypeTableRecord
  2
LTY0
 70
     0
  3
unsichtbar
 72
    65
 73
     0
 40
0.0
  0
LTYPE
  5
765
330
5
100
AcDbSymbolTableRecord
100
AcDbLinetypeTableRecord
  2
LTY1
 70
     0
  3
________________________________
 72
    65
 73
     0
 40
0.0
  0
LTYPE
  5
766
330
5
100
AcDbSymbolTableRecord
100
AcDbLinetypeTableRecord
  2
LTY2
 70
     0
  3
. . . . . . . . . . . . . . . . .
 72
    65
 73
     2
 40
2.0
 49
0.5
 74
     4
 75
     0
340
0
 46
1.0
 50
0.0
 44
0.0
 45
0.0
 49
-1.5
 74
     4
 75
     0
340
0
 46
1.0
 50
0.0
 44
0.0
 45
0.0
  0
LTYPE
  5
767
330
5
100
AcDbSymbolTableRecord
100
AcDbLinetypeTableRecord
  2
LTY3
 70
     0
  3
_ _ _ _ _ _ _ _ _ _ _ _ _ _ _ _ _
 72
    65
 73
     2
 40
3.0
 49
1.5
 74
     4
 75
     0
340
0
 46
1.0
 50
0.0
 44
0.0
 45
0.0
 49
-1.5
 74
     4
 75
     0
340
0
 46
1.0
 50
0.0
 44
0.0
 45
0.0
  0
LTYPE
  5
768
330
5
100
AcDbSymbolTableRecord
100
AcDbLinetypeTableRecord
  2
LTY4
 70
     0
  3
__  __  __  __  __  __  __  __  __
 72
    65
 73
     2
 40
6.0
 49
3.0
 74
     4
 75
     0
340
0
 46
1.0
 50
0.0
 44
0.0
 45
0.0
 49
-3.0
 74
     4
 75
     0
340
0
 46
1.0
 50
0.0
 44
0.0
 45
0.0
  0
LTYPE
  5
769
330
5
100
AcDbSymbolTableRecord
100
AcDbLinetypeTableRecord
  2
LTY5
 70
     0
  3
____  ____  ____  ____  ____  ____
 72
    65
 73
     2
 40
11.5
 49
8.0
 74
     4
 75
     0
340
0
 46
1.0
 50
0.0
 44
0.0
 45
0.0
 49
-3.5
 74
     4
 75
     0
340
0
 46
1.0
 50
0.0
 44
0.0
 45
0.0
  0
LTYPE
  5
76A
330
5
100
AcDbSymbolTableRecord
100
AcDbLinetypeTableRecord
  2
LTY6
 70
     0
  3
____  __  ____  __  ____  __  ____
 72
    65
 73
     4
 40
17.5
 49
11.5
 74
     4
 75
     0
340
0
 46
1.0
 50
0.0
 44
0.0
 45
0.0
 49
-2.0
 74
     4
 75
     0
340
0
 46
1.0
 50
0.0
 44
0.0
 45
0.0
 49
2.0
 74
     4
 75
     0
340
0
 46
1.0
 50
0.0
 44
0.0
 45
0.0
 49
-2.0
 74
     4
 75
     0
340
0
 46
1.0
 50
0.0
 44
0.0
 45
0.0
  0
LTYPE
  5
76B
330
5
100
AcDbSymbolTableRecord
100
AcDbLinetypeTableRecord
  2
LTY7
 70
     0
  3
___ . ___ . ___ . ___ . ___ . ___
 72
    65
 73
     4
 40
15.0
 49
11.0
 74
     4
 75
     0
340
0
 46
1.0
 50
0.0
 44
0.0
 45
0.0
 49
-2.0
 74
     4
 75
     0
340
0
 46
1.0
 50
0.0
 44
0.0
 45
0.0
 49
0.0
 74
     4
 75
     0
340
0
 46
1.0
 50
0.0
 44
0.0
 45
0.0
 49
-2.0
 74
     4
 75
     0
340
0
 46
1.0
 50
0.0
 44
0.0
 45
0.0
  0
LTYPE
  5
76C
330
5
100
AcDbSymbolTableRecord
100
AcDbLinetypeTableRecord
  2
LTY8
 70
     0
  3
___ _ _ ___ _ _ ___ _ _ ___ _ _ ___
 72
    65
 73
     6
 40
16.5
 49
7.5
 74
     4
 75
     0
340
0
 46
1.0
 50
0.0
 44
0.0
 45
0.0
 49
-2.0
 74
     4
 75
     0
340
0
 46
1.0
 50
0.0
 44
0.0
 45
0.0
 49
1.5
 74
     4
 75
     0
340
0
 46
1.0
 50
0.0
 44
0.0
 45
0.0
 49
-2.0
 74
     4
 75
     0
340
0
 46
1.0
 50
0.0
 44
0.0
 45
0.0
 49
1.5
 74
     4
 75
     0
340
0
 46
1.0
 50
0.0
 44
0.0
 45
0.0
 49
-2.0
 74
     4
 75
     0
340
0
 46
1.0
 50
0.0
 44
0.0
 45
0.0
  0
ENDTAB
  0
TABLE
  2
LAYER
  5
2
330
0
100
AcDbSymbolTable
 70
    10
  0
LAYER
  5
10
330
2
100
AcDbSymbolTableRecord
100
AcDbLayerTableRecord
  2
0
 70
     0
 62
     7
  6
Continuous
370
    -3
390
F
347
0
  0
LAYER
  5
2D
330
2
100
AcDbSymbolTableRecord
100
AcDbLayerTableRecord
  2
PEN1
 70
     0
 62
     7
  6
LTY1
370
    -3
390
F
347
0
  0
LAYER
  5
2E
330
2
100
AcDbSymbolTableRecord
100
AcDbLayerTableRecord
  2
PEN2
 70
     0
 62
     7
  6
LTY1
370
    -3
390
F
347
0
  0
LAYER
  5
2F
330
2
100
AcDbSymbolTableRecord
100
AcDbLayerTableRecord
  2
PEN3
 70
     0
 62
     7
  6
LTY1
370
    -3
390
F
347
0
  0
LAYER
  5
30
330
2
100
AcDbSymbolTableRecord
100
AcDbLayerTableRecord
  2
PEN4
 70
     0
 62
     7
  6
LTY1
370
    -3
390
F
347
0
  0
LAYER
  5
31
330
2
100
AcDbSymbolTableRecord
100
AcDbLayerTableRecord
  2
PEN5
 70
     0
 62
     7
  6
LTY1
370
    -3
390
F
347
0
  0
LAYER
  5
32
330
2
100
AcDbSymbolTableRecord
100
AcDbLayerTableRecord
  2
PEN6
 70
     0
 62
     7
  6
LTY1
370
    -3
390
F
347
0
  0
LAYER
  5
33
330
2
100
AcDbSymbolTableRecord
100
AcDbLayerTableRecord
  2
SF
 70
     0
 62
     7
  6
LTY1
370
    -3
390
F
347
0
  0
LAYER
  5
34
330
2
100
AcDbSymbolTableRecord
100
AcDbLayerTableRecord
  2
SYMBOL
 70
     0
 62
     7
  6
LTY1
370
    -3
390
F
347
0
  0
LAYER
  5
35
330
2
100
AcDbSymbolTableRecord
100
AcDbLayerTableRecord
  2
GRAFIK
 70
     0
 62
     7
  6
LTY1
370
    -3
390
F
347
0
  0
ENDTAB
  0
TABLE
  2
STYLE
  5
3
330
0
100
AcDbSymbolTable
 70
     5
  0
STYLE
  5
11
330
3
100
AcDbSymbolTableRecord
100
AcDbTextStyleTableRecord
  2
Standard
 70
     0
 40
0.0
 41
1.0
 50
0.0
 71
     0
 42
0.2
  3
txt
  4

  0
STYLE
  5
761
330
3
100
AcDbSymbolTableRecord
100
AcDbTextStyleTableRecord
  2
NORMSCHRIFT
 70
     0
 40
0.0
 41
1.0
 50
0.0
 71
     0
 42
3.5
  3
normwin
  4

  0
STYLE
  5
762
330
3
100
AcDbSymbolTableRecord
100
AcDbTextStyleTableRecord
  2
GREEK
 70
     0
 40
0.0
 41
1.0
 50
0.0
 71
     0
 42
3.5
  3
norm_gr
  4

  0
STYLE
  5
763
330
3
100
AcDbSymbolTableRecord
100
AcDbTextStyleTableRecord
  2
CYRILLIC
 70
     0
 40
0.0
 41
1.0
 50
0.0
 71
     0
 42
3.5
  3
norm_cy
  4

  0
STYLE
  5
23
330
3
100
AcDbSymbolTableRecord
100
AcDbTextStyleTableRecord
  2
CYRILLIC_KBD
 70
     0
 40
0.0
 41
1.0
 50
0.0
 71
     0
 42
3.5
  3
norm_cy_kbd
  4

  0
ENDTAB
  0
TABLE
  2
VIEW
  5
6
330
0
100
AcDbSymbolTable
 70
     0
  0
ENDTAB
  0
TABLE
  2
UCS
  5
7
330
0
100
AcDbSymbolTable
 70
     0
  0
ENDTAB
  0
TABLE
  2
APPID
  5
9
330
0
100
AcDbSymbolTable
 70
     1
  0
APPID
  5
12
330
9
100
AcDbSymbolTableRecord
100
AcDbRegAppTableRecord
  2
ACAD
 70
     0
  0
ENDTAB
  0
TABLE
  2
DIMSTYLE
  5
A
330
0
100
AcDbSymbolTable
 70
     1
100
AcDbDimStyleTable
  0
DIMSTYLE
105
27
330
A
100
AcDbSymbolTableRecord
100
AcDbDimStyleTableRecord
  2
Standard
 70
     0
340
11
  0
ENDTAB
  0
TABLE
  2
BLOCK_RECORD
  5
1
330
0
100
AcDbSymbolTable
 70
     3
  0
BLOCK_RECORD
  5
1F
330
1
100
AcDbSymbolTableRecord
100
AcDbBlockTableRecord
  2
*Model_Space
340
22
 70
     0
280
     1
281
     0
  0
BLOCK_RECORD
  5
73
330
1
100
AcDbSymbolTableRecord
100
AcDbBlockTableRecord
  2
*Paper_Space
340
74
 70
     0
280
     1
281
     0
  0
BLOCK_RECORD
  5
39
330
1
100
AcDbSymbolTableRecord
100
AcDbBlockTableRecord
  2
SF_KORA7_00
340
0
102
{BLKREFS
331
48A
102
}
 70
     0
280
     1
281
     0
  0
BLOCK_RECORD
  5
B8
330
1
100
AcDbSymbolTableRecord
100
AcDbBlockTableRecord
  2
K7-9170F
340
0
 70
     0
280
     1
281
     0
  0
BLOCK_RECORD
  5
33F
330
1
100
AcDbSymbolTableRecord
100
AcDbBlockTableRecord
  2
STAHL94
340
0
102
{BLKREFS
331
77B
102
}
 70
     0
280
     1
281
     0
  0
ENDTAB
  0
ENDSEC
  0
SECTION
  2
BLOCKS
  0
BLOCK
  5
20
330
1F
100
AcDbEntity
  8
0
100
AcDbBlockBegin
  2
*Model_Space
 70
     0
 10
0.0
 20
0.0
 30
0.0
  3
*Model_Space
  1

  0
ENDBLK
  5
21
330
1F
100
AcDbEntity
  8
0
100
AcDbBlockEnd
  0
BLOCK
  5
75
330
73
100
AcDbEntity
 67
     1
  8
0
100
AcDbBlockBegin
  2
*Paper_Space
 70
     0
 10
0.0
 20
0.0
 30
0.0
  3
*Paper_Space
  1

  0
ENDBLK
  5
76
330
73
100
AcDbEntity
 67
     1
  8
0
100
AcDbBlockEnd
  0
BLOCK
  5
76D
330
39
100
AcDbEntity
  8
0
100
AcDbBlockBegin
  2
SF_KORA7_00
 70
     2
 10
0.0
 20
0.0
 30
0.0
  3
SF_KORA7_00
  1

  0
LINE
  5
3A
330
39
100
AcDbEntity
  8
PEN3
  6
LTY1
100
AcDbLine
 10
395.0
 20
0.0
 30
0.0
 11
0.0
 21
0.0
 31
0.0
  0
LINE
  5
3B
330
39
100
AcDbEntity
  8
PEN3
  6
LTY1
100
AcDbLine
 10
0.0
 20
0.0
 30
0.0
 11
0.0
 21
270.0
 31
0.0
  0
LINE
  5
3C
330
39
100
AcDbEntity
  8
PEN3
  6
LTY1
100
AcDbLine
 10
0.0
 20
270.0
 30
0.0
 11
395.0
 21
270.0
 31
0.0
  0
LINE
  5
3D
330
39
100
AcDbEntity
  8
PEN3
  6
LTY1
100
AcDbLine
 10
395.0
 20
270.0
 30
0.0
 11
395.0
 21
0.0
 31
0.0
  0
LINE
  5
3E
330
39
100
AcDbEntity
  8
PEN3
  6
LTY1
100
AcDbLine
 10
395.0
 20
20.0
 30
0.0
 11
0.0
 21
20.0
 31
0.0
  0
LINE
  5
3F
330
39
100
AcDbEntity
  8
PEN1
  6
LTY1
100
AcDbLine
 10
106.0
 20
20.0
 30
0.0
 11
106.0
 21
0.0
 31
0.0
  0
LINE
  5
40
330
39
100
AcDbEntity
  8
PEN2
  6
LTY1
100
AcDbLine
 10
83.0
 20
0.0
 30
0.0
 11
83.0
 21
20.0
 31
0.0
  0
LINE
  5
41
330
39
100
AcDbEntity
  8
PEN2
  6
LTY1
100
AcDbLine
 10
62.0
 20
20.0
 30
0.0
 11
62.0
 21
0.0
 31
0.0
  0
LINE
  5
42
330
39
100
AcDbEntity
  8
PEN2
  6
LTY1
100
AcDbLine
 10
52.0
 20
0.0
 30
0.0
 11
52.0
 21
20.0
 31
0.0
  0
LINE
  5
43
330
39
100
AcDbEntity
  8
PEN2
  6
LTY1
100
AcDbLine
 10
37.5
 20
20.0
 30
0.0
 11
37.5
 21
0.0
 31
0.0
  0
LINE
  5
44
330
39
100
AcDbEntity
  8
PEN2
  6
LTY1
100
AcDbLine
 10
3.0
 20
0.0
 30
0.0
 11
3.0
 21
20.0
 31
0.0
  0
LINE
  5
45
330
39
100
AcDbEntity
  8
PEN2
  6
LTY1
100
AcDbLine
 10
0.0
 20
15.0
 30
0.0
 11
106.0
 21
15.0
 31
0.0
  0
LINE
  5
46
330
39
100
AcDbEntity
  8
PEN2
  6
LTY1
100
AcDbLine
 10
106.0
 20
10.0
 30
0.0
 11
0.0
 21
10.0
 31
0.0
  0
LINE
  5
47
330
39
100
AcDbEntity
  8
PEN2
  6
LTY1
100
AcDbLine
 10
0.0
 20
5.0
 30
0.0
 11
185.5
 21
5.0
 31
0.0
  0
LINE
  5
48
330
39
100
AcDbEntity
  8
PEN1
  6
LTY1
100
AcDbLine
 10
185.5
 20
0.0
 30
0.0
 11
185.5
 21
20.0
 31
0.0
  0
LINE
  5
49
330
39
100
AcDbEntity
  8
PEN1
  6
LTY1
100
AcDbLine
 10
205.0
 20
0.0
 30
0.0
 11
205.0
 21
20.0
 31
0.0
  0
LINE
  5
4A
330
39
100
AcDbEntity
  8
PEN1
  6
LTY1
100
AcDbLine
 10
287.5
 20
20.0
 30
0.0
 11
287.5
 21
0.0
 31
0.0
  0
LINE
  5
4B
330
39
100
AcDbEntity
  8
PEN1
  6
LTY1
100
AcDbLine
 10
395.0
 20
10.0
 30
0.0
 11
287.5
 21
10.0
 31
0.0
  0
LINE
  5
4C
330
39
100
AcDbEntity
  8
PEN1
  6
LTY1
100
AcDbLine
 10
367.5
 20
5.0
 30
0.0
 11
395.0
 21
5.0
 31
0.0
  0
TEXT
  5
4D
330
39
100
AcDbEntity
  8
PEN4
100
AcDbText
 10
4.2
 20
0.5
 30
0.0
 40
2.0
  1
Änderung / REV.
  7
NORMSCHRIFT
100
AcDbText
  0
TEXT
  5
4E
330
39
100
AcDbEntity
  8
PEN4
100
AcDbText
 10
38.7
 20
0.5
 30
0.0
 40
2.0
  1
Dat.
  7
NORMSCHRIFT
100
AcDbText
  0
TEXT
  5
4F
330
39
100
AcDbEntity
  8
PEN4
100
AcDbText
 10
63.2
 20
15.0
 30
0.0
 40
2.0
  1
Datum/Date
  7
NORMSCHRIFT
100
AcDbText
  0
TEXT
  5
50
330
39
100
AcDbEntity
  8
PEN4
100
AcDbText
 10
62.7
 20
5.0
 30
0.0
 40
2.0
  1
Bearb./Engineer
  7
NORMSCHRIFT
100
AcDbText
  0
TEXT
  5
51
330
39
100
AcDbEntity
  8
PEN4
100
AcDbText
 10
63.2
 20
0.5
 30
0.0
 40
2.0
  1
Gepr./Checked
  7
NORMSCHRIFT
100
AcDbText
  0
TEXT
  5
52
330
39
100
AcDbEntity
  8
PEN4
100
AcDbText
 10
53.2
 20
0.5
 30
0.0
 40
2.0
  1
Name
  7
NORMSCHRIFT
100
AcDbText
  0
TEXT
  5
53
330
39
100
AcDbEntity
  8
PEN4
100
AcDbText
 10
106.7
 20
15.5
 30
0.0
 40
2.0
  1
Auftrag Nr./Order No.
  7
NORMSCHRIFT
100
AcDbText
  0
LINE
  5
54
330
39
100
AcDbEntity
  8
PEN1
  6
LTY1
100
AcDbLine
 10
367.5
 20
0.0
 30
0.0
 11
367.5
 21
10.0
 31
0.0
  0
LINE
  5
55
330
39
100
AcDbEntity
  8
PEN1
  6
LTY1
100
AcDbLine
 10
347.5
 20
10.0
 30
0.0
 11
347.5
 21
20.0
 31
0.0
  0
TEXT
  5
56
330
39
100
AcDbEntity
  8
PEN4
100
AcDbText
 10
288.7
 20
6.0
 30
0.0
 40
2.0
  1
Zeichnungs Nr./DRG No.
  7
NORMSCHRIFT
100
AcDbText
  0
TEXT
  5
57
330
39
100
AcDbEntity
  8
PEN2
100
AcDbText
 10
368.25
 20
5.0
 30
0.0
 40
2.5
  1
Blatt/Sheet
  7
NORMSCHRIFT
100
AcDbText
  0
TEXT
  5
58
330
39
100
AcDbEntity
  8
PEN2
100
AcDbText
 10
370.75
 20
0.0
 30
0.0
 40
2.5
  1
von/of
  7
NORMSCHRIFT
100
AcDbText
  0
LINE
  5
773
330
39
100
AcDbEntity
  8
PEN2
  6
LTY1
100
AcDbLine
 10
6.0
 20
265.0
 30
0.0
 11
387.0
 21
265.0
 31
0.0
  0
TEXT
  5
774
330
39
100
AcDbEntity
  8
PEN4
100
AcDbText
 10
23.0
 20
265.5
 30
0.0
 40
2.0
  1
C0
  7
NORMSCHRIFT
 72
     1
 11
24.5
 21
265.5
 31
0.0
100
AcDbText
  0
LINE
  5
5B
330
39
100
AcDbEntity
  8
PEN2
  6
LTY1
100
AcDbLine
 10
6.0
 20
265.0
 30
0.0
 11
6.0
 21
28.0
 31
0.0
  0
TEXT
  5
5C
330
39
100
AcDbEntity
  8
PEN4
100
AcDbText
 10
0.5
 20
208.0
 30
0.0
 40
2.0
  1
A30
  7
NORMSCHRIFT
 72
     1
 11
3.0
 21
208.0
 31
0.0
100
AcDbText
  0
TEXT
  5
5D
330
39
100
AcDbEntity
  8
PEN4
100
AcDbText
 10
0.5
 20
243.0
 30
0.0
 40
2.0
  1
A20
  7
NORMSCHRIFT
 72
     1
 11
3.0
 21
243.0
 31
0.0
100
AcDbText
  0
TEXT
  5
775
330
39
100
AcDbEntity
  8
PEN4
100
AcDbText
 10
0.5
 20
173.0
 30
0.0
 40
2.0
  1
A40
  7
NORMSCHRIFT
 72
     1
 11
3.0
 21
173.0
 31
0.0
100
AcDbText
  0
TEXT
  5
5F
330
39
100
AcDbEntity
  8
PEN4
100
AcDbText
 10
0.5
 20
138.0
 30
0.0
 40
2.0
  1
A50
  7
NORMSCHRIFT
 72
     1
 11
3.0
 21
138.0
 31
0.0
100
AcDbText
  0
TEXT
  5
60
330
39
100
AcDbEntity
  8
PEN4
100
AcDbText
 10
0.5
 20
103.0
 30
0.0
 40
2.0
  1
A60
  7
NORMSCHRIFT
 72
     1
 11
3.0
 21
103.0
 31
0.0
100
AcDbText
  0
TEXT
  5
61
330
39
100
AcDbEntity
  8
PEN4
100
AcDbText
 10
0.5
 20
68.0
 30
0.0
 40
2.0
  1
A70
  7
NORMSCHRIFT
 72
     1
 11
3.0
 21
68.0
 31
0.0
100
AcDbText
  0
TEXT
  5
62
330
39
100
AcDbEntity
  8
PEN4
100
AcDbText
 10
0.5
 20
33.0
 30
0.0
 40
2.0
  1
A80
  7
NORMSCHRIFT
 72
     1
 11
3.0
 21
33.0
 31
0.0
100
AcDbText
  0
TEXT
  5
63
330
39
100
AcDbEntity
  8
PEN4
100
AcDbText
 10
57.33
 20
265.5
 30
0.0
 40
2.0
  1
C10
  7
NORMSCHRIFT
 72
     1
 11
59.5
 21
265.5
 31
0.0
100
AcDbText
  0
TEXT
  5
64
330
39
100
AcDbEntity
  8
PEN4
100
AcDbText
 10
92.0
 20
265.5
 30
0.0
 40
2.0
  1
C20
  7
NORMSCHRIFT
 72
     1
 11
94.5
 21
265.5
 31
0.0
100
AcDbText
  0
TEXT
  5
65
330
39
100
AcDbEntity
  8
PEN4
100
AcDbText
 10
127.0
 20
265.5
 30
0.0
 40
2.0
  1
C30
  7
NORMSCHRIFT
 72
     1
 11
129.5
 21
265.5
 31
0.0
100
AcDbText
  0
TEXT
  5
66
330
39
100
AcDbEntity
  8
PEN4
100
AcDbText
 10
162.0
 20
265.5
 30
0.0
 40
2.0
  1
C40
  7
NORMSCHRIFT
 72
     1
 11
164.5
 21
265.5
 31
0.0
100
AcDbText
  0
TEXT
  5
67
330
39
100
AcDbEntity
  8
PEN4
100
AcDbText
 10
197.0
 20
265.5
 30
0.0
 40
2.0
  1
C50
  7
NORMSCHRIFT
 72
     1
 11
199.5
 21
265.5
 31
0.0
100
AcDbText
  0
LINE
  5
68
330
39
100
AcDbEntity
  8
PEN2
  6
LTY1
100
AcDbLine
 10
6.0
 20
28.0
 30
0.0
 11
6.0
 21
20.0
 31
0.0
  0
LINE
  5
69
330
39
100
AcDbEntity
  8
PEN2
  6
LTY1
100
AcDbLine
 10
6.0
 20
265.0
 30
0.0
 11
6.0
 21
265.0
 31
0.0
  0
LINE
  5
6A
330
39
100
AcDbEntity
  8
PEN2
  6
LTY1
100
AcDbLine
 10
6.0
 20
265.0
 30
0.0
 11
6.0
 21
265.0
 31
0.0
  0
LINE
  5
776
330
39
100
AcDbEntity
  8
PEN2
  6
LTY1
100
AcDbLine
 10
395.0
 20
265.0
 30
0.0
 11
387.0
 21
265.0
 31
0.0
  0
TEXT
  5
777
330
39
100
AcDbEntity
  8
PEN4
100
AcDbText
 10
232.0
 20
265.5
 30
0.0
 40
2.0
  1
C60
  7
NORMSCHRIFT
 72
     1
 11
234.5
 21
265.5
 31
0.0
100
AcDbText
  0
TEXT
  5
6D
330
39
100
AcDbEntity
  8
PEN4
100
AcDbText
 10
267.0
 20
265.5
 30
0.0
 40
2.0
  1
C70
  7
NORMSCHRIFT
 72
     1
 11
269.5
 21
265.5
 31
0.0
100
AcDbText
  0
TEXT
  5
6E
330
39
100
AcDbEntity
  8
PEN4
100
AcDbText
 10
302.0
 20
265.5
 30
0.0
 40
2.0
  1
C80
  7
NORMSCHRIFT
 72
     1
 11
304.5
 21
265.5
 31
0.0
100
AcDbText
  0
TEXT
  5
6F
330
39
100
AcDbEntity
  8
PEN4
100
AcDbText
 10
337.0
 20
265.5
 30
0.0
 40
2.0
  1
C90
  7
NORMSCHRIFT
 72
     1
 11
339.5
 21
265.5
 31
0.0
100
AcDbText
  0
TEXT
  5
70
330
39
100
AcDbEntity
  8
PEN4
100
AcDbText
 10
371.5
 20
265.5
 30
0.0
 40
2.0
  1
C100
  7
NORMSCHRIFT
 72
     1
 11
374.5
 21
265.5
 31
0.0
100
AcDbText
  0
LINE
  5
71
330
39
100
AcDbEntity
  8
PEN2
  6
LTY1
100
AcDbLine
 10
6.0
 20
265.0
 30
0.0
 11
0.0
 21
270.0
 31
0.0
  0
TEXT
  5
72
330
39
100
AcDbEntity
  8
PEN4
100
AcDbText
 10
63.2
 20
10.0
 30
0.0
 40
2.0
  1
Erstellt/Drawn
  7
NORMSCHRIFT
100
AcDbText
  0
TEXT
  5
778
330
39
100
AcDbEntity
  8
PEN4
100
AcDbText
 10
288.7
 20
15.0
 30
0.0
 40
2.0
  1
Einbauort/Gehäuse
  7
NORMSCHRIFT
100
AcDbText
  0
TEXT
  5
779
330
39
100
AcDbEntity
  8
PEN4
100
AcDbText
 10
288.7
 20
11.0
 30
0.0
 40
2.0
  1
Location/Enclosure
  7
NORMSCHRIFT
100
AcDbText
  0
TEXT
  5
77A
330
39
100
AcDbEntity
  8
PEN4
100
AcDbText
 10
328.0
 20
6.0
 30
0.0
 40
2.0
  1
Grp.
  7
NORMSCHRIFT
 72
     1
 11
331.0
 21
6.0
 31
0.0
100
AcDbText
  0
INSERT
  5
77B
330
39
100
AcDbEntity
  8
SYMBOL
100
AcDbBlockReference
  2
STAHL94
 10
185.5
 20
0.2
 30
0.0
 41
1.07
 42
1.07
  0
ATTDEF
  5
77
330
39
100
AcDbEntity
  8
PEN1
100
AcDbText
 10
289.35
 20
0.0
 30
0.0
 40
3.5
  1

  7
NORMSCHRIFT
100
AcDbAttributeDefinition
  3
Zeichn-Nr.   Anlage
  2
CODE_60
 70
     8
280
     0
  0
ATTDEF
  5
78
330
39
100
AcDbEntity
  8
PEN1
100
AcDbText
 10
289.35
 20
0.0
 30
0.0
 40
3.5
  1

  7
NORMSCHRIFT
100
AcDbAttributeDefinition
  3
Zeichn-Nr.   Gruppe
  2
CODE_61
 70
     8
280
     0
  0
ATTDEF
  5
79
330
39
100
AcDbEntity
  8
PEN2
100
AcDbText
 10
392.75
 20
5.0
 30
0.0
 40
2.5
  1

  7
NORMSCHRIFT
 72
     2
 11
392.75
 21
5.0
 31
0.0
100
AcDbAttributeDefinition
  3
Zeichn-Nr.    Blatt
  2
CODE_62
 70
     8
280
     0
  0
ATTDEF
  5
7A
330
39
100
AcDbEntity
  8
PEN4
100
AcDbText
 10
0.0
 20
0.0
 30
0.0
 40
0.2
  1

  7
NORMSCHRIFT
100
AcDbAttributeDefinition
  3
Zeichn-Nr. Variante
  2
CODE_63
 70
     9
280
     0
  0
ATTDEF
  5
7B
330
39
100
AcDbEntity
  8
PEN2
100
AcDbText
 10
207.25
 20
15.0
 30
0.0
 40
2.5
  1

  7
NORMSCHRIFT
100
AcDbAttributeDefinition
  3
Sondervermerke Blatt
  2
CODE_77
 70
     8
280
     0
  0
ATTDEF
  5
7C
330
39
100
AcDbEntity
  8
PEN1
100
AcDbText
 10
206.85
 20
7.5
 30
0.0
 40
3.5
  1

  7
NORMSCHRIFT
100
AcDbAttributeDefinition
  3
Projektbenennung
  2
CODE_66
 70
     8
280
     0
  0
ATTDEF
  5
7D
330
39
100
AcDbEntity
  8
PEN1
100
AcDbText
 10
206.85
 20
0.5
 30
0.0
 40
3.5
  1

  7
NORMSCHRIFT
100
AcDbAttributeDefinition
  3
Blattbenennung
  2
CODE_65
 70
     8
280
     0
  0
ATTDEF
  5
7E
330
39
100
AcDbEntity
  8
PEN2
100
AcDbText
 10
183.75
 20
15.0
 30
0.0
 40
2.5
  1

  7
NORMSCHRIFT
 72
     2
 11
183.75
 21
15.0
 31
0.0
100
AcDbAttributeDefinition
  3
Angebot/Auftrag Nr.
  2
CODE_68
 70
     8
280
     0
  0
ATTDEF
  5
7F
330
39
100
AcDbEntity
  8
PEN2
100
AcDbText
 10
183.75
 20
15.0
 30
0.0
 40
2.5
  1

  7
NORMSCHRIFT
 72
     2
 11
183.75
 21
15.0
 31
0.0
100
AcDbAttributeDefinition
  3
Folge
  2
CODE_160
 70
     8
280
     0
  0
ATTDEF
  5
80
330
39
100
AcDbEntity
  8
PEN1
100
AcDbText
 10
322.35
 20
11.5
 30
0.0
 40
3.5
  1

  7
NORMSCHRIFT
100
AcDbAttributeDefinition
  3
Einbauort / Gehaeuse
  2
CODE_3
 70
     8
280
     0
  0
ATTDEF
  5
81
330
39
100
AcDbEntity
  8
PEN2
100
AcDbText
 10
183.75
 20
10.0
 30
0.0
 40
2.5
  1

  7
NORMSCHRIFT
 72
     2
 11
183.75
 21
10.0
 31
0.0
100
AcDbAttributeDefinition
  3
Firma / Kunde
  2
CODE_67
 70
     8
280
     0
  0
ATTDEF
  5
82
330
39
100
AcDbEntity
  8
PEN2
100
AcDbText
 10
183.75
 20
5.0
 30
0.0
 40
2.5
  1

  7
NORMSCHRIFT
 72
     2
 11
183.75
 21
5.0
 31
0.0
100
AcDbAttributeDefinition
  3
Anfrage-Nr. Kunde
  2
CODE_78
 70
     8
280
     0
  0
ATTDEF
  5
83
330
39
100
AcDbEntity
  8
PEN2
100
AcDbText
 10
84.25
 20
14.5
 30
0.0
 40
2.5
  1

  7
NORMSCHRIFT
100
AcDbAttributeDefinition
  3
Erstellungs-Datum
  2
CODE_72
 70
     8
280
     0
  0
ATTDEF
  5
84
330
39
100
AcDbEntity
  8
PEN2
100
AcDbText
 10
84.25
 20
9.5
 30
0.0
 40
2.5
  1

  7
NORMSCHRIFT
100
AcDbAttributeDefinition
  3
Erstellt
  2
CODE_424
 70
     8
280
     0
  0
ATTDEF
  5
85
330
39
100
AcDbEntity
  8
PEN2
100
AcDbText
 10
84.25
 20
4.5
 30
0.0
 40
2.5
  1

  7
NORMSCHRIFT
100
AcDbAttributeDefinition
  3
Bearbeiter
  2
CODE_423
 70
     8
280
     0
  0
ATTDEF
  5
86
330
39
100
AcDbEntity
  8
PEN2
100
AcDbText
 10
84.25
 20
0.0
 30
0.0
 40
2.5
  1

  7
NORMSCHRIFT
100
AcDbAttributeDefinition
  3
Geprueft
  2
CODE_425
 70
     8
280
     0
  0
ATTDEF
  5
87
330
39
100
AcDbEntity
  8
PEN2
100
AcDbText
 10
392.75
 20
0.0
 30
0.0
 40
2.5
  1

  7
NORMSCHRIFT
 72
     2
 11
392.75
 21
0.0
 31
0.0
100
AcDbAttributeDefinition
  3
Gesamte Blattzahl
  2
CODE_71
 70
     8
280
     0
  0
ATTDEF
  5
88
330
39
100
AcDbEntity
  8
PEN4
100
AcDbText
 10
4.2
 20
5.0
 30
0.0
 40
2.0
  1

  7
NORMSCHRIFT
100
AcDbAttributeDefinition
  3
Grund Aenderung a
  2
CODE_430
 70
     8
280
     0
  0
ATTDEF
  5
89
330
39
100
AcDbEntity
  8
PEN4
100
AcDbText
 10
38.7
 20
5.0
 30
0.0
 40
2.0
  1

  7
NORMSCHRIFT
100
AcDbAttributeDefinition
  3
Datum     \"
  2
CODE_431
 70
     8
280
     0
  0
ATTDEF
  5
8A
330
39
100
AcDbEntity
  8
PEN4
100
AcDbText
 10
53.2
 20
5.0
 30
0.0
 40
2.0
  1

  7
NORMSCHRIFT
100
AcDbAttributeDefinition
  3
Name      \"
  2
CODE_432
 70
     8
280
     0
  0
ATTDEF
  5
8B
330
39
100
AcDbEntity
  8
PEN4
100
AcDbText
 10
4.2
 20
10.0
 30
0.0
 40
2.0
  1

  7
NORMSCHRIFT
100
AcDbAttributeDefinition
  3
Grund Aenderung b
  2
CODE_433
 70
     8
280
     0
  0
ATTDEF
  5
8C
330
39
100
AcDbEntity
  8
PEN4
100
AcDbText
 10
38.7
 20
10.0
 30
0.0
 40
2.0
  1

  7
NORMSCHRIFT
100
AcDbAttributeDefinition
  3
Datum     \"
  2
CODE_434
 70
     8
280
     0
  0
ATTDEF
  5
8D
330
39
100
AcDbEntity
  8
PEN4
100
AcDbText
 10
53.2
 20
10.0
 30
0.0
 40
2.0
  1

  7
NORMSCHRIFT
100
AcDbAttributeDefinition
  3
Name      \"
  2
CODE_435
 70
     8
280
     0
  0
ATTDEF
  5
8E
330
39
100
AcDbEntity
  8
PEN4
100
AcDbText
 10
4.2
 20
15.0
 30
0.0
 40
2.0
  1

  7
NORMSCHRIFT
100
AcDbAttributeDefinition
  3
Grund Aenderung c
  2
CODE_436
 70
     8
280
     0
  0
ATTDEF
  5
8F
330
39
100
AcDbEntity
  8
PEN4
100
AcDbText
 10
38.7
 20
15.0
 30
0.0
 40
2.0
  1

  7
NORMSCHRIFT
100
AcDbAttributeDefinition
  3
Datum     \"
  2
CODE_437
 70
     8
280
     0
  0
ATTDEF
  5
90
330
39
100
AcDbEntity
  8
PEN4
100
AcDbText
 10
53.2
 20
15.0
 30
0.0
 40
2.0
  1

  7
NORMSCHRIFT
100
AcDbAttributeDefinition
  3
Name      \"
  2
CODE_438
 70
     8
280
     0
  0
ATTDEF
  5
91
330
39
100
AcDbEntity
  8
PEN1
100
AcDbText
 10
374.5
 20
10.5
 30
0.0
 40
3.5
  1

  7
NORMSCHRIFT
 72
     1
 11
374.5
 21
10.5
 31
0.0
100
AcDbAttributeDefinition
  3
Anlagenkurzzeichen
  2
CODE_1
 70
     8
280
     0
  0
ATTDEF
  5
77C
330
39
100
AcDbEntity
  8
PEN1
100
AcDbText
 10
374.5
 20
10.5
 30
0.0
 40
3.5
  1

  7
NORMSCHRIFT
 72
     1
 11
374.5
 21
10.5
 31
0.0
100
AcDbAttributeDefinition
  3
Funktion
  2
CODE_2
 70
     8
280
     0
  0
ATTDEF
  5
77D
330
39
100
AcDbEntity
  8
PEN4
100
AcDbText
 10
107.2
 20
0.5
 30
0.0
 40
2.0
  1

  7
NORMSCHRIFT
100
AcDbAttributeDefinition
  3
Ursprung
  2
CODE_73
 70
     8
280
     0
  0
ATTDEF
  5
94
330
39
100
AcDbEntity
  8
PEN4
100
AcDbText
 10
140.0
 20
0.5
 30
0.0
 40
2.0
  1

  7
NORMSCHRIFT
 72
     1
 11
140.0
 21
0.5
 31
0.0
100
AcDbAttributeDefinition
  3
Ersatz fuer
  2
CODE_74
 70
     8
280
     0
  0
ATTDEF
  5
95
330
39
100
AcDbEntity
  8
PEN4
100
AcDbText
 10
183.9
 20
0.5
 30
0.0
 40
2.0
  1

  7
NORMSCHRIFT
 72
     2
 11
183.9
 21
0.5
 31
0.0
100
AcDbAttributeDefinition
  3
Ersetzt durch
  2
CODE_75
 70
     8
280
     0
  0
ATTDEF
  5
96
330
39
100
AcDbEntity
  8
PEN4
100
AcDbText
 10
0.0
 20
0.0
 30
0.0
 40
0.2
  1
60
  7
NORMSCHRIFT
100
AcDbAttributeDefinition
  3
1. Archiv Ebene
  2
CODE_2000
 70
     9
280
     0
  0
ATTDEF
  5
77E
330
39
100
AcDbEntity
  8
PEN4
100
AcDbText
 10
0.0
 20
0.0
 30
0.0
 40
0.2
  1
61
  7
NORMSCHRIFT
100
AcDbAttributeDefinition
  3
2. Archiv Ebene
  2
CODE_2001
 70
     9
280
     0
  0
ATTDEF
  5
77F
330
39
100
AcDbEntity
  8
PEN4
100
AcDbText
 10
0.0
 20
0.0
 30
0.0
 40
0.2
  1
62
  7
NORMSCHRIFT
100
AcDbAttributeDefinition
  3
3. Archiv Ebene
  2
CODE_2002
 70
     9
280
     0
  0
ATTDEF
  5
99
330
39
100
AcDbEntity
  8
PEN4
100
AcDbText
 10
0.0
 20
0.0
 30
0.0
 40
0.2
  1
63
  7
NORMSCHRIFT
100
AcDbAttributeDefinition
  3
4. Archiv Ebene
  2
CODE_2003
 70
     9
280
     0
  0
ATTDEF
  5
9A
330
39
100
AcDbEntity
  8
PEN4
100
AcDbText
 10
0.0
 20
0.0
 30
0.0
 40
0.2
  1
Anlage ............
  7
NORMSCHRIFT
100
AcDbAttributeDefinition
  3
Bezeichnung 1. Ebene
  2
CODE_2005
 70
     9
280
     0
  0
ATTDEF
  5
9B
330
39
100
AcDbEntity
  8
PEN4
100
AcDbText
 10
0.0
 20
0.0
 30
0.0
 40
0.2
  1
Gruppe ............
  7
NORMSCHRIFT
100
AcDbAttributeDefinition
  3
Bezeichnung 2. Ebene
  2
CODE_2006
 70
     9
280
     0
  0
ATTDEF
  5
9C
330
39
100
AcDbEntity
  8
PEN4
100
AcDbText
 10
0.0
 20
0.0
 30
0.0
 40
0.2
  1
Blatt .............
  7
NORMSCHRIFT
100
AcDbAttributeDefinition
  3
Bezeichnung 3. Ebene
  2
CODE_2007
 70
     9
280
     0
  0
ATTDEF
  5
9D
330
39
100
AcDbEntity
  8
PEN4
100
AcDbText
 10
0.0
 20
0.0
 30
0.0
 40
0.2
  1
Variante ..........
  7
NORMSCHRIFT
100
AcDbAttributeDefinition
  3
Bezeichnung 4. Ebene
  2
CODE_2008
 70
     9
280
     0
  0
ATTDEF
  5
9E
330
39
100
AcDbEntity
  8
PEN4
100
AcDbText
 10
0.0
 20
0.0
 30
0.0
 40
0.2
  1
110
  7
NORMSCHRIFT
100
AcDbAttributeDefinition
  3
Anzahl Strompfade
  2
CODE_2011
 70
     9
280
     0
  0
ATTDEF
  5
9F
330
39
100
AcDbEntity
  8
PEN4
100
AcDbText
 10
0.0
 20
0.0
 30
0.0
 40
0.2
  1
N
  7
NORMSCHRIFT
100
AcDbAttributeDefinition
  3
durchlaufend  J/N
  2
CODE_2010
 70
     9
280
     0
  0
ATTDEF
  5
A0
330
39
100
AcDbEntity
  8
PEN4
100
AcDbText
 10
0.0
 20
0.0
 30
0.0
 40
0.2
  1
J
  7
NORMSCHRIFT
100
AcDbAttributeDefinition
  3
horizontal    J/N
  2
CODE_2012
 70
     9
280
     0
  0
ATTDEF
  5
A1
330
39
100
AcDbEntity
  8
PEN4
100
AcDbText
 10
0.0
 20
0.0
 30
0.0
 40
0.2
  1
24.5
  7
NORMSCHRIFT
100
AcDbAttributeDefinition
  3
x 1. Strompfad
  2
CODE_2013
 70
     9
280
     0
  0
ATTDEF
  5
A2
330
39
100
AcDbEntity
  8
PEN4
100
AcDbText
 10
0.0
 20
0.0
 30
0.0
 40
0.2
  1
3.5
  7
NORMSCHRIFT
100
AcDbAttributeDefinition
  3
Pfadbreite x
  2
CODE_2014
 70
     9
280
     0
  0
ATTDEF
  5
A3
330
39
100
AcDbEntity
  8
PEN4
100
AcDbText
 10
0.0
 20
0.0
 30
0.0
 40
0.2
  1
/C0
  7
NORMSCHRIFT
100
AcDbAttributeDefinition
  3
Name erster Pfad x
  2
CODE_2015
 70
     9
280
     0
  0
ATTDEF
  5
A4
330
39
100
AcDbEntity
  8
PEN4
100
AcDbText
 10
0.0
 20
0.0
 30
0.0
 40
0.2
  1
400.000
  7
NORMSCHRIFT
100
AcDbAttributeDefinition
  3
Blattbreite
  2
CODE_2130
 70
     9
280
     0
  0
ATTDEF
  5
A5
330
39
100
AcDbEntity
  8
PEN4
100
AcDbText
 10
0.0
 20
0.0
 30
0.0
 40
0.2
  1
270.000
  7
NORMSCHRIFT
100
AcDbAttributeDefinition
  3
Blatthöhe
  2
CODE_2131
 70
     9
280
     0
  0
ATTDEF
  5
A6
330
39
100
AcDbEntity
  8
PEN4
100
AcDbText
 10
0.0
 20
0.0
 30
0.0
 40
0.2
  1
20.000
  7
NORMSCHRIFT
100
AcDbAttributeDefinition
  3
Grundraster
  2
CODE_2132
 70
     9
280
     0
  0
ATTDEF
  5
A7
330
39
100
AcDbEntity
  8
PEN4
100
AcDbText
 10
0.0
 20
0.0
 30
0.0
 40
0.2
  1
100.000
  7
NORMSCHRIFT
100
AcDbAttributeDefinition
  3
Grobraster
  2
CODE_2133
 70
     9
280
     0
  0
ATTDEF
  5
A8
330
39
100
AcDbEntity
  8
PEN4
100
AcDbText
 10
0.0
 20
0.0
 30
0.0
 40
0.2
  1
10.000
  7
NORMSCHRIFT
100
AcDbAttributeDefinition
  3
Feinraster
  2
CODE_2134
 70
     9
280
     0
  0
ATTDEF
  5
A9
330
39
100
AcDbEntity
  8
PEN4
100
AcDbText
 10
0.0
 20
0.0
 30
0.0
 40
0.2
  1
J
  7
NORMSCHRIFT
100
AcDbAttributeDefinition
  3
vertikal      J/N
  2
CODE_2016
 70
     9
280
     0
  0
ATTDEF
  5
AA
330
39
100
AcDbEntity
  8
PEN4
100
AcDbText
 10
0.0
 20
0.0
 30
0.0
 40
0.2
  1
60
  7
NORMSCHRIFT
100
AcDbAttributeDefinition
  3
Anzahl Strompfade
  2
CODE_2011
 70
     9
280
     0
  0
ATTDEF
  5
AB
330
39
100
AcDbEntity
  8
PEN4
100
AcDbText
 10
0.0
 20
0.0
 30
0.0
 40
0.2
  1
245
  7
NORMSCHRIFT
100
AcDbAttributeDefinition
  3
y 1. Strompfad
  2
CODE_2017
 70
     9
280
     0
  0
ATTDEF
  5
AC
330
39
100
AcDbEntity
  8
PEN4
100
AcDbText
 10
0.0
 20
0.0
 30
0.0
 40
0.2
  1
3.5
  7
NORMSCHRIFT
100
AcDbAttributeDefinition
  3
Pfadbreite y
  2
CODE_2018
 70
     9
280
     0
  0
ATTDEF
  5
AD
330
39
100
AcDbEntity
  8
PEN4
100
AcDbText
 10
0.0
 20
0.0
 30
0.0
 40
0.2
  1
A20
  7
NORMSCHRIFT
100
AcDbAttributeDefinition
  3
Name erster Pfad y
  2
CODE_2019
 70
     9
280
     0
  0
ATTDEF
  5
AE
330
39
100
AcDbEntity
  8
PEN4
100
AcDbText
 10
365.9
 20
6.0
 30
0.0
 40
2.0
  1

  7
NORMSCHRIFT
 72
     2
 11
365.9
 21
6.0
 31
0.0
100
AcDbAttributeDefinition
  3
PROJECT - - - - AUTO
  2
CODE_51
 70
     8
280
     0
  0
ATTDEF
  5
AF
330
39
100
AcDbEntity
  8
PEN4
100
AcDbText
 10
0.0
 20
0.0
 30
0.0
 40
0.2
  1
1:2
  7
NORMSCHRIFT
100
AcDbAttributeDefinition
  3
Masstab  AUTO
  2
CODE_4006
 70
     9
280
     0
  0
ATTDEF
  5
B0
330
39
100
AcDbEntity
  8
PEN2
100
AcDbText
 10
400.0
 20
4.75
 30
0.0
 40
2.5
  1

 50
90.0
  7
NORMSCHRIFT
100
AcDbAttributeDefinition
  3
gedruckt am:
  2
CODE_4901
 70
     8
280
     0
  0
ATTDEF
  5
B1
330
39
100
AcDbEntity
  8
PEN2
100
AcDbText
 10
400.0
 20
4.75
 30
0.0
 40
2.5
  1

 50
90.0
  7
NORMSCHRIFT
100
AcDbAttributeDefinition
  3
Ersteller
  2
CODE_4902
 70
     8
280
     0
  0
ATTDEF
  5
B2
330
39
100
AcDbEntity
  8
PEN2
100
AcDbText
 10
400.0
 20
4.75
 30
0.0
 40
2.5
  1

 50
90.0
  7
NORMSCHRIFT
100
AcDbAttributeDefinition
  3
Erstellt mit ELCAD:
  2
CODE_4903
 70
     8
280
     0
  0
ATTDEF
  5
B3
330
39
100
AcDbEntity
  8
PEN4
100
AcDbText
 10
0.8
 20
5.0
 30
0.0
 40
2.0
  1
a
  7
NORMSCHRIFT
 72
     1
 11
1.5
 21
5.0
 31
0.0
100
AcDbAttributeDefinition
  3
Revision 1
  2
CODE_4800
 70
     8
280
     0
  0
ATTDEF
  5
B4
330
39
100
AcDbEntity
  8
PEN4
100
AcDbText
 10
0.8
 20
10.0
 30
0.0
 40
2.0
  1
b
  7
NORMSCHRIFT
 72
     1
 11
1.5
 21
10.0
 31
0.0
100
AcDbAttributeDefinition
  3
Revision 2
  2
CODE_4800
 70
     8
280
     0
  0
ATTDEF
  5
B5
330
39
100
AcDbEntity
  8
PEN4
100
AcDbText
 10
0.9
 20
15.0
 30
0.0
 40
2.0
  1
c
  7
NORMSCHRIFT
 72
     1
 11
1.5
 21
15.0
 31
0.0
100
AcDbAttributeDefinition
  3
Revision 3
  2
CODE_4800
 70
     8
280
     0
  0
ENDBLK
  5
76E
330
39
100
AcDbEntity
  8
0
100
AcDbBlockEnd
  0
BLOCK
  5
76F
330
B8
100
AcDbEntity
  8
0
100
AcDbBlockBegin
  2
K7-9170F
 70
     2
 10
0.0
 20
0.0
 30
0.0
  3
K7-9170F
  1

  0
LINE
  5
B9
330
B8
100
AcDbEntity
  8
PEN1
  6
LTY1
100
AcDbLine
 10
7.925
 20
18.225
 30
0.0
 11
0.875
 21
18.225
 31
0.0
  0
LINE
  5
BA
330
B8
100
AcDbEntity
  8
PEN1
  6
LTY1
100
AcDbLine
 10
0.875
 20
18.225
 30
0.0
 11
0.875
 21
-18.475
 31
0.0
  0
LINE
  5
BB
330
B8
100
AcDbEntity
  8
PEN1
  6
LTY1
100
AcDbLine
 10
0.875
 20
-18.475
 30
0.0
 11
7.925
 21
-18.475
 31
0.0
  0
LINE
  5
BC
330
B8
100
AcDbEntity
  8
PEN1
  6
LTY1
100
AcDbLine
 10
7.925
 20
-18.475
 30
0.0
 11
7.925
 21
18.225
 31
0.0
  0
LINE
  5
BD
330
B8
100
AcDbEntity
  8
PEN1
  6
LTY1
100
AcDbLine
 10
7.925
 20
18.225
 30
0.0
 11
7.925
 21
18.225
 31
0.0
  0
LINE
  5
BE
330
B8
100
AcDbEntity
  8
PEN1
  6
LTY1
100
AcDbLine
 10
6.15
 20
13.975
 30
0.0
 11
2.65
 21
13.975
 31
0.0
  0
LINE
  5
BF
330
B8
100
AcDbEntity
  8
PEN1
  6
LTY1
100
AcDbLine
 10
6.15
 20
17.475
 30
0.0
 11
6.15
 21
13.975
 31
0.0
  0
LINE
  5
C0
330
B8
100
AcDbEntity
  8
PEN1
  6
LTY1
100
AcDbLine
 10
2.65
 20
17.475
 30
0.0
 11
6.15
 21
17.475
 31
0.0
  0
LINE
  5
C1
330
B8
100
AcDbEntity
  8
PEN1
  6
LTY1
100
AcDbLine
 10
2.65
 20
13.975
 30
0.0
 11
2.65
 21
17.475
 31
0.0
  0
LINE
  5
C2
330
B8
100
AcDbEntity
  8
PEN1
  6
LTY1
100
AcDbLine
 10
2.925
 20
15.325
 30
0.0
 11
2.925
 21
16.15
 31
0.0
  0
LINE
  5
C3
330
B8
100
AcDbEntity
  8
PEN1
  6
LTY1
100
AcDbLine
 10
2.925
 20
16.15
 30
0.0
 11
3.575
 21
16.525
 31
0.0
  0
LINE
  5
C4
330
B8
100
AcDbEntity
  8
PEN1
  6
LTY1
100
AcDbLine
 10
3.575
 20
16.525
 30
0.0
 11
5.25
 21
16.525
 31
0.0
  0
LINE
  5
C5
330
B8
100
AcDbEntity
  8
PEN1
  6
LTY1
100
AcDbLine
 10
5.25
 20
16.525
 30
0.0
 11
5.9
 21
16.15
 31
0.0
  0
LINE
  5
C6
330
B8
100
AcDbEntity
  8
PEN1
  6
LTY1
100
AcDbLine
 10
5.9
 20
15.325
 30
0.0
 11
5.9
 21
16.15
 31
0.0
  0
LINE
  5
C7
330
B8
100
AcDbEntity
  8
PEN1
  6
LTY1
100
AcDbLine
 10
5.9
 20
15.325
 30
0.0
 11
5.25
 21
14.975
 31
0.0
  0
LINE
  5
C8
330
B8
100
AcDbEntity
  8
PEN1
  6
LTY1
100
AcDbLine
 10
5.25
 20
14.975
 30
0.0
 11
3.575
 21
14.975
 31
0.0
  0
LINE
  5
C9
330
B8
100
AcDbEntity
  8
PEN1
  6
LTY1
100
AcDbLine
 10
3.575
 20
14.975
 30
0.0
 11
2.925
 21
15.325
 31
0.0
  0
LINE
  5
CA
330
B8
100
AcDbEntity
  8
PEN1
  6
LTY1
100
AcDbLine
 10
5.475
 20
15.5
 30
0.0
 11
5.3
 21
15.5
 31
0.0
  0
LINE
  5
CB
330
B8
100
AcDbEntity
  8
PEN1
  6
LTY1
100
AcDbLine
 10
4.725
 20
15.75
 30
0.0
 11
4.725
 21
15.5
 31
0.0
  0
LINE
  5
CC
330
B8
100
AcDbEntity
  8
PEN1
  6
LTY1
100
AcDbLine
 10
4.225
 20
15.675
 30
0.0
 11
4.325
 21
15.95
 31
0.0
  0
LINE
  5
CD
330
B8
100
AcDbEntity
  8
PEN1
  6
LTY1
100
AcDbLine
 10
4.4
 20
15.95
 30
0.0
 11
4.325
 21
15.95
 31
0.0
  0
LINE
  5
CE
330
B8
100
AcDbEntity
  8
PEN1
  6
LTY1
100
AcDbLine
 10
4.475
 20
15.675
 30
0.0
 11
4.525
 21
15.5
 31
0.0
  0
LINE
  5
CF
330
B8
100
AcDbEntity
  8
PEN1
  6
LTY1
100
AcDbLine
 10
4.05
 20
15.95
 30
0.0
 11
3.925
 21
15.95
 31
0.0
  0
LINE
  5
D0
330
B8
100
AcDbEntity
  8
PEN1
  6
LTY1
100
AcDbLine
 10
3.925
 20
15.95
 30
0.0
 11
3.775
 21
15.95
 31
0.0
  0
LINE
  5
D1
330
B8
100
AcDbEntity
  8
PEN1
  6
LTY1
100
AcDbLine
 10
3.925
 20
15.5
 30
0.0
 11
3.925
 21
15.95
 31
0.0
  0
LINE
  5
D2
330
B8
100
AcDbEntity
  8
PEN1
  6
LTY1
100
AcDbLine
 10
4.725
 20
15.75
 30
0.0
 11
5.0
 21
15.75
 31
0.0
  0
LINE
  5
D3
330
B8
100
AcDbEntity
  8
PEN1
  6
LTY1
100
AcDbLine
 10
5.0
 20
15.5
 30
0.0
 11
5.0
 21
15.75
 31
0.0
  0
LINE
  5
D4
330
B8
100
AcDbEntity
  8
PEN1
  6
LTY1
100
AcDbLine
 10
5.0
 20
15.95
 30
0.0
 11
5.0
 21
15.75
 31
0.0
  0
LINE
  5
D5
330
B8
100
AcDbEntity
  8
PEN1
  6
LTY1
100
AcDbLine
 10
4.725
 20
15.95
 30
0.0
 11
4.725
 21
15.75
 31
0.0
  0
LINE
  5
D6
330
B8
100
AcDbEntity
  8
PEN1
  6
LTY1
100
AcDbLine
 10
5.3
 20
15.95
 30
0.0
 11
5.3
 21
15.5
 31
0.0
  0
LINE
  5
D7
330
B8
100
AcDbEntity
  8
PEN1
  6
LTY1
100
AcDbLine
 10
3.4
 20
15.8
 30
0.0
 11
3.55
 21
15.7
 31
0.0
  0
LINE
  5
D8
330
B8
100
AcDbEntity
  8
PEN1
  6
LTY1
100
AcDbLine
 10
4.475
 20
15.675
 30
0.0
 11
4.225
 21
15.675
 31
0.0
  0
LINE
  5
D9
330
B8
100
AcDbEntity
  8
PEN1
  6
LTY1
100
AcDbLine
 10
4.2
 20
15.5
 30
0.0
 11
4.225
 21
15.675
 31
0.0
  0
LINE
  5
DA
330
B8
100
AcDbEntity
  8
PEN1
  6
LTY1
100
AcDbLine
 10
4.4
 20
15.95
 30
0.0
 11
4.475
 21
15.675
 31
0.0
  0
LINE
  5
DB
330
B8
100
AcDbEntity
  8
PEN1
  6
LTY1
100
AcDbLine
 10
4.575
 20
-2.3
 30
0.0
 11
4.575
 21
2.175
 31
0.0
  0
LINE
  5
DC
330
B8
100
AcDbEntity
  8
PEN1
  6
LTY1
100
AcDbLine
 10
4.075
 20
2.675
 30
0.0
 11
2.825
 21
2.675
 31
0.0
  0
LINE
  5
DD
330
B8
100
AcDbEntity
  8
PEN1
  6
LTY1
100
AcDbLine
 10
2.325
 20
2.175
 30
0.0
 11
2.325
 21
-2.3
 31
0.0
  0
LINE
  5
DE
330
B8
100
AcDbEntity
  8
PEN1
  6
LTY1
100
AcDbLine
 10
2.825
 20
-2.8
 30
0.0
 11
4.075
 21
-2.8
 31
0.0
  0
LINE
  5
DF
330
B8
100
AcDbEntity
  8
PEN1
  6
LTY1
100
AcDbLine
 10
3.325
 20
15.875
 30
0.0
 11
3.325
 21
15.875
 31
0.0
  0
LINE
  5
E0
330
B8
100
AcDbEntity
  8
PEN1
  6
LTY1
100
AcDbLine
 10
3.325
 20
15.875
 30
0.0
 11
3.325
 21
15.875
 31
0.0
  0
LINE
  5
E1
330
B8
100
AcDbEntity
  8
PEN1
  6
LTY1
100
AcDbLine
 10
3.325
 20
15.875
 30
0.0
 11
3.325
 21
15.875
 31
0.0
  0
LINE
  5
E2
330
B8
100
AcDbEntity
  8
PEN1
  6
LTY1
100
AcDbLine
 10
3.325
 20
15.875
 30
0.0
 11
3.35
 21
15.85
 31
0.0
  0
LINE
  5
E3
330
B8
100
AcDbEntity
  8
PEN1
  6
LTY1
100
AcDbLine
 10
3.35
 20
15.85
 30
0.0
 11
3.35
 21
15.85
 31
0.0
  0
LINE
  5
E4
330
B8
100
AcDbEntity
  8
PEN1
  6
LTY1
100
AcDbLine
 10
3.35
 20
15.85
 30
0.0
 11
3.35
 21
15.825
 31
0.0
  0
LINE
  5
E5
330
B8
100
AcDbEntity
  8
PEN1
  6
LTY1
100
AcDbLine
 10
3.35
 20
15.825
 30
0.0
 11
3.35
 21
15.825
 31
0.0
  0
LINE
  5
E6
330
B8
100
AcDbEntity
  8
PEN1
  6
LTY1
100
AcDbLine
 10
3.35
 20
15.825
 30
0.0
 11
3.375
 21
15.8
 31
0.0
  0
LINE
  5
E7
330
B8
100
AcDbEntity
  8
PEN1
  6
LTY1
100
AcDbLine
 10
3.375
 20
15.8
 30
0.0
 11
3.375
 21
15.8
 31
0.0
  0
LINE
  5
E8
330
B8
100
AcDbEntity
  8
PEN1
  6
LTY1
100
AcDbLine
 10
3.375
 20
15.8
 30
0.0
 11
3.4
 21
15.8
 31
0.0
  0
LINE
  5
E9
330
B8
100
AcDbEntity
  8
PEN1
  6
LTY1
100
AcDbLine
 10
3.4
 20
16.0
 30
0.0
 11
3.4
 21
16.0
 31
0.0
  0
LINE
  5
EA
330
B8
100
AcDbEntity
  8
PEN1
  6
LTY1
100
AcDbLine
 10
3.4
 20
16.0
 30
0.0
 11
3.4
 21
15.975
 31
0.0
  0
LINE
  5
EB
330
B8
100
AcDbEntity
  8
PEN1
  6
LTY1
100
AcDbLine
 10
3.4
 20
15.975
 30
0.0
 11
3.4
 21
15.975
 31
0.0
  0
LINE
  5
EC
330
B8
100
AcDbEntity
  8
PEN1
  6
LTY1
100
AcDbLine
 10
3.4
 20
15.975
 30
0.0
 11
3.375
 21
15.975
 31
0.0
  0
LINE
  5
ED
330
B8
100
AcDbEntity
  8
PEN1
  6
LTY1
100
AcDbLine
 10
3.375
 20
15.975
 30
0.0
 11
3.375
 21
15.975
 31
0.0
  0
LINE
  5
EE
330
B8
100
AcDbEntity
  8
PEN1
  6
LTY1
100
AcDbLine
 10
3.375
 20
15.975
 30
0.0
 11
3.35
 21
15.95
 31
0.0
  0
LINE
  5
EF
330
B8
100
AcDbEntity
  8
PEN1
  6
LTY1
100
AcDbLine
 10
3.35
 20
15.95
 30
0.0
 11
3.35
 21
15.95
 31
0.0
  0
LINE
  5
F0
330
B8
100
AcDbEntity
  8
PEN1
  6
LTY1
100
AcDbLine
 10
3.35
 20
15.95
 30
0.0
 11
3.325
 21
15.95
 31
0.0
  0
LINE
  5
F1
330
B8
100
AcDbEntity
  8
PEN1
  6
LTY1
100
AcDbLine
 10
3.325
 20
15.95
 30
0.0
 11
3.325
 21
15.95
 31
0.0
  0
LINE
  5
F2
330
B8
100
AcDbEntity
  8
PEN1
  6
LTY1
100
AcDbLine
 10
3.325
 20
15.95
 30
0.0
 11
3.325
 21
15.95
 31
0.0
  0
LINE
  5
F3
330
B8
100
AcDbEntity
  8
PEN1
  6
LTY1
100
AcDbLine
 10
3.325
 20
15.95
 30
0.0
 11
3.325
 21
15.95
 31
0.0
  0
LINE
  5
F4
330
B8
100
AcDbEntity
  8
PEN1
  6
LTY1
100
AcDbLine
 10
3.325
 20
15.95
 30
0.0
 11
3.325
 21
15.925
 31
0.0
  0
LINE
  5
F5
330
B8
100
AcDbEntity
  8
PEN1
  6
LTY1
100
AcDbLine
 10
3.325
 20
15.925
 30
0.0
 11
3.325
 21
15.925
 31
0.0
  0
LINE
  5
F6
330
B8
100
AcDbEntity
  8
PEN1
  6
LTY1
100
AcDbLine
 10
3.325
 20
15.925
 30
0.0
 11
3.325
 21
15.9
 31
0.0
  0
LINE
  5
F7
330
B8
100
AcDbEntity
  8
PEN1
  6
LTY1
100
AcDbLine
 10
3.325
 20
15.9
 30
0.0
 11
3.325
 21
15.9
 31
0.0
  0
LINE
  5
F8
330
B8
100
AcDbEntity
  8
PEN1
  6
LTY1
100
AcDbLine
 10
3.325
 20
15.9
 30
0.0
 11
3.325
 21
15.875
 31
0.0
  0
LINE
  5
F9
330
B8
100
AcDbEntity
  8
PEN1
  6
LTY1
100
AcDbLine
 10
3.45
 20
16.0
 30
0.0
 11
3.45
 21
16.0
 31
0.0
  0
LINE
  5
FA
330
B8
100
AcDbEntity
  8
PEN1
  6
LTY1
100
AcDbLine
 10
3.45
 20
16.0
 30
0.0
 11
3.425
 21
16.0
 31
0.0
  0
LINE
  5
FB
330
B8
100
AcDbEntity
  8
PEN1
  6
LTY1
100
AcDbLine
 10
3.425
 20
16.0
 30
0.0
 11
3.425
 21
16.0
 31
0.0
  0
LINE
  5
FC
330
B8
100
AcDbEntity
  8
PEN1
  6
LTY1
100
AcDbLine
 10
3.425
 20
16.0
 30
0.0
 11
3.4
 21
16.0
 31
0.0
  0
LINE
  5
FD
330
B8
100
AcDbEntity
  8
PEN1
  6
LTY1
100
AcDbLine
 10
3.4
 20
16.0
 30
0.0
 11
3.4
 21
16.0
 31
0.0
  0
LINE
  5
FE
330
B8
100
AcDbEntity
  8
PEN1
  6
LTY1
100
AcDbLine
 10
3.55
 20
15.975
 30
0.0
 11
3.55
 21
15.975
 31
0.0
  0
LINE
  5
FF
330
B8
100
AcDbEntity
  8
PEN1
  6
LTY1
100
AcDbLine
 10
3.55
 20
15.975
 30
0.0
 11
3.5
 21
16.0
 31
0.0
  0
LINE
  5
100
330
B8
100
AcDbEntity
  8
PEN1
  6
LTY1
100
AcDbLine
 10
3.5
 20
16.0
 30
0.0
 11
3.5
 21
16.0
 31
0.0
  0
LINE
  5
101
330
B8
100
AcDbEntity
  8
PEN1
  6
LTY1
100
AcDbLine
 10
3.5
 20
16.0
 30
0.0
 11
3.475
 21
16.0
 31
0.0
  0
LINE
  5
102
330
B8
100
AcDbEntity
  8
PEN1
  6
LTY1
100
AcDbLine
 10
3.475
 20
16.0
 30
0.0
 11
3.475
 21
16.0
 31
0.0
  0
LINE
  5
103
330
B8
100
AcDbEntity
  8
PEN1
  6
LTY1
100
AcDbLine
 10
3.475
 20
16.0
 30
0.0
 11
3.45
 21
16.0
 31
0.0
  0
LINE
  5
104
330
B8
100
AcDbEntity
  8
PEN1
  6
LTY1
100
AcDbLine
 10
3.575
 20
15.9
 30
0.0
 11
3.575
 21
15.9
 31
0.0
  0
LINE
  5
105
330
B8
100
AcDbEntity
  8
PEN1
  6
LTY1
100
AcDbLine
 10
3.575
 20
15.9
 30
0.0
 11
3.575
 21
15.925
 31
0.0
  0
LINE
  5
106
330
B8
100
AcDbEntity
  8
PEN1
  6
LTY1
100
AcDbLine
 10
3.575
 20
15.925
 30
0.0
 11
3.575
 21
15.925
 31
0.0
  0
LINE
  5
107
330
B8
100
AcDbEntity
  8
PEN1
  6
LTY1
100
AcDbLine
 10
3.575
 20
15.925
 30
0.0
 11
3.575
 21
15.925
 31
0.0
  0
LINE
  5
108
330
B8
100
AcDbEntity
  8
PEN1
  6
LTY1
100
AcDbLine
 10
3.575
 20
15.925
 30
0.0
 11
3.575
 21
15.925
 31
0.0
  0
LINE
  5
109
330
B8
100
AcDbEntity
  8
PEN1
  6
LTY1
100
AcDbLine
 10
3.575
 20
15.925
 30
0.0
 11
3.575
 21
15.95
 31
0.0
  0
LINE
  5
10A
330
B8
100
AcDbEntity
  8
PEN1
  6
LTY1
100
AcDbLine
 10
3.575
 20
15.95
 30
0.0
 11
3.575
 21
15.95
 31
0.0
  0
LINE
  5
10B
330
B8
100
AcDbEntity
  8
PEN1
  6
LTY1
100
AcDbLine
 10
3.575
 20
15.95
 30
0.0
 11
3.55
 21
15.95
 31
0.0
  0
LINE
  5
10C
330
B8
100
AcDbEntity
  8
PEN1
  6
LTY1
100
AcDbLine
 10
3.55
 20
15.95
 30
0.0
 11
3.55
 21
15.95
 31
0.0
  0
LINE
  5
10D
330
B8
100
AcDbEntity
  8
PEN1
  6
LTY1
100
AcDbLine
 10
3.55
 20
15.95
 30
0.0
 11
3.55
 21
15.95
 31
0.0
  0
LINE
  5
10E
330
B8
100
AcDbEntity
  8
PEN1
  6
LTY1
100
AcDbLine
 10
3.55
 20
15.95
 30
0.0
 11
3.55
 21
15.975
 31
0.0
  0
LINE
  5
10F
330
B8
100
AcDbEntity
  8
PEN1
  6
LTY1
100
AcDbLine
 10
3.6
 20
15.625
 30
0.0
 11
3.6
 21
15.625
 31
0.0
  0
LINE
  5
110
330
B8
100
AcDbEntity
  8
PEN1
  6
LTY1
100
AcDbLine
 10
3.6
 20
15.625
 30
0.0
 11
3.6
 21
15.625
 31
0.0
  0
LINE
  5
111
330
B8
100
AcDbEntity
  8
PEN1
  6
LTY1
100
AcDbLine
 10
3.6
 20
15.625
 30
0.0
 11
3.6
 21
15.625
 31
0.0
  0
LINE
  5
112
330
B8
100
AcDbEntity
  8
PEN1
  6
LTY1
100
AcDbLine
 10
3.6
 20
15.625
 30
0.0
 11
3.575
 21
15.65
 31
0.0
  0
LINE
  5
113
330
B8
100
AcDbEntity
  8
PEN1
  6
LTY1
100
AcDbLine
 10
3.575
 20
15.65
 30
0.0
 11
3.575
 21
15.65
 31
0.0
  0
LINE
  5
114
330
B8
100
AcDbEntity
  8
PEN1
  6
LTY1
100
AcDbLine
 10
3.575
 20
15.65
 30
0.0
 11
3.575
 21
15.675
 31
0.0
  0
LINE
  5
115
330
B8
100
AcDbEntity
  8
PEN1
  6
LTY1
100
AcDbLine
 10
3.575
 20
15.675
 30
0.0
 11
3.575
 21
15.675
 31
0.0
  0
LINE
  5
116
330
B8
100
AcDbEntity
  8
PEN1
  6
LTY1
100
AcDbLine
 10
3.575
 20
15.675
 30
0.0
 11
3.55
 21
15.675
 31
0.0
  0
LINE
  5
117
330
B8
100
AcDbEntity
  8
PEN1
  6
LTY1
100
AcDbLine
 10
3.55
 20
15.675
 30
0.0
 11
3.55
 21
15.675
 31
0.0
  0
LINE
  5
118
330
B8
100
AcDbEntity
  8
PEN1
  6
LTY1
100
AcDbLine
 10
3.55
 20
15.675
 30
0.0
 11
3.55
 21
15.7
 31
0.0
  0
LINE
  5
119
330
B8
100
AcDbEntity
  8
PEN1
  6
LTY1
100
AcDbLine
 10
3.525
 20
15.5
 30
0.0
 11
3.525
 21
15.5
 31
0.0
  0
LINE
  5
11A
330
B8
100
AcDbEntity
  8
PEN1
  6
LTY1
100
AcDbLine
 10
3.525
 20
15.5
 30
0.0
 11
3.55
 21
15.5
 31
0.0
  0
LINE
  5
11B
330
B8
100
AcDbEntity
  8
PEN1
  6
LTY1
100
AcDbLine
 10
3.55
 20
15.5
 30
0.0
 11
3.55
 21
15.5
 31
0.0
  0
LINE
  5
11C
330
B8
100
AcDbEntity
  8
PEN1
  6
LTY1
100
AcDbLine
 10
3.55
 20
15.5
 30
0.0
 11
3.55
 21
15.525
 31
0.0
  0
LINE
  5
11D
330
B8
100
AcDbEntity
  8
PEN1
  6
LTY1
100
AcDbLine
 10
3.55
 20
15.525
 30
0.0
 11
3.55
 21
15.525
 31
0.0
  0
LINE
  5
11E
330
B8
100
AcDbEntity
  8
PEN1
  6
LTY1
100
AcDbLine
 10
3.55
 20
15.525
 30
0.0
 11
3.575
 21
15.525
 31
0.0
  0
LINE
  5
11F
330
B8
100
AcDbEntity
  8
PEN1
  6
LTY1
100
AcDbLine
 10
3.575
 20
15.525
 30
0.0
 11
3.575
 21
15.525
 31
0.0
  0
LINE
  5
120
330
B8
100
AcDbEntity
  8
PEN1
  6
LTY1
100
AcDbLine
 10
3.575
 20
15.525
 30
0.0
 11
3.575
 21
15.55
 31
0.0
  0
LINE
  5
121
330
B8
100
AcDbEntity
  8
PEN1
  6
LTY1
100
AcDbLine
 10
3.575
 20
15.55
 30
0.0
 11
3.575
 21
15.55
 31
0.0
  0
LINE
  5
122
330
B8
100
AcDbEntity
  8
PEN1
  6
LTY1
100
AcDbLine
 10
3.575
 20
15.55
 30
0.0
 11
3.6
 21
15.55
 31
0.0
  0
LINE
  5
123
330
B8
100
AcDbEntity
  8
PEN1
  6
LTY1
100
AcDbLine
 10
3.6
 20
15.55
 30
0.0
 11
3.6
 21
15.55
 31
0.0
  0
LINE
  5
124
330
B8
100
AcDbEntity
  8
PEN1
  6
LTY1
100
AcDbLine
 10
3.6
 20
15.55
 30
0.0
 11
3.6
 21
15.575
 31
0.0
  0
LINE
  5
125
330
B8
100
AcDbEntity
  8
PEN1
  6
LTY1
100
AcDbLine
 10
3.6
 20
15.575
 30
0.0
 11
3.6
 21
15.575
 31
0.0
  0
LINE
  5
126
330
B8
100
AcDbEntity
  8
PEN1
  6
LTY1
100
AcDbLine
 10
3.6
 20
15.575
 30
0.0
 11
3.6
 21
15.6
 31
0.0
  0
LINE
  5
127
330
B8
100
AcDbEntity
  8
PEN1
  6
LTY1
100
AcDbLine
 10
3.6
 20
15.6
 30
0.0
 11
3.6
 21
15.6
 31
0.0
  0
LINE
  5
128
330
B8
100
AcDbEntity
  8
PEN1
  6
LTY1
100
AcDbLine
 10
3.6
 20
15.6
 30
0.0
 11
3.6
 21
15.625
 31
0.0
  0
LINE
  5
129
330
B8
100
AcDbEntity
  8
PEN1
  6
LTY1
100
AcDbLine
 10
3.475
 20
15.5
 30
0.0
 11
3.475
 21
15.5
 31
0.0
  0
LINE
  5
12A
330
B8
100
AcDbEntity
  8
PEN1
  6
LTY1
100
AcDbLine
 10
3.475
 20
15.5
 30
0.0
 11
3.475
 21
15.5
 31
0.0
  0
LINE
  5
12B
330
B8
100
AcDbEntity
  8
PEN1
  6
LTY1
100
AcDbLine
 10
3.475
 20
15.5
 30
0.0
 11
3.475
 21
15.5
 31
0.0
  0
LINE
  5
12C
330
B8
100
AcDbEntity
  8
PEN1
  6
LTY1
100
AcDbLine
 10
3.475
 20
15.5
 30
0.0
 11
3.525
 21
15.5
 31
0.0
  0
LINE
  5
12D
330
B8
100
AcDbEntity
  8
PEN1
  6
LTY1
100
AcDbLine
 10
3.525
 20
15.5
 30
0.0
 11
3.525
 21
15.5
 31
0.0
  0
LINE
  5
12E
330
B8
100
AcDbEntity
  8
PEN1
  6
LTY1
100
AcDbLine
 10
3.4
 20
15.5
 30
0.0
 11
3.4
 21
15.5
 31
0.0
  0
LINE
  5
12F
330
B8
100
AcDbEntity
  8
PEN1
  6
LTY1
100
AcDbLine
 10
3.4
 20
15.5
 30
0.0
 11
3.4
 21
15.5
 31
0.0
  0
LINE
  5
130
330
B8
100
AcDbEntity
  8
PEN1
  6
LTY1
100
AcDbLine
 10
3.4
 20
15.5
 30
0.0
 11
3.4
 21
15.5
 31
0.0
  0
LINE
  5
131
330
B8
100
AcDbEntity
  8
PEN1
  6
LTY1
100
AcDbLine
 10
3.4
 20
15.5
 30
0.0
 11
3.45
 21
15.5
 31
0.0
  0
LINE
  5
132
330
B8
100
AcDbEntity
  8
PEN1
  6
LTY1
100
AcDbLine
 10
3.45
 20
15.5
 30
0.0
 11
3.45
 21
15.5
 31
0.0
  0
LINE
  5
133
330
B8
100
AcDbEntity
  8
PEN1
  6
LTY1
100
AcDbLine
 10
3.45
 20
15.5
 30
0.0
 11
3.475
 21
15.5
 31
0.0
  0
LINE
  5
134
330
B8
100
AcDbEntity
  8
PEN1
  6
LTY1
100
AcDbLine
 10
3.35
 20
15.575
 30
0.0
 11
3.35
 21
15.575
 31
0.0
  0
LINE
  5
135
330
B8
100
AcDbEntity
  8
PEN1
  6
LTY1
100
AcDbLine
 10
3.35
 20
15.575
 30
0.0
 11
3.35
 21
15.575
 31
0.0
  0
LINE
  5
136
330
B8
100
AcDbEntity
  8
PEN1
  6
LTY1
100
AcDbLine
 10
3.35
 20
15.575
 30
0.0
 11
3.35
 21
15.575
 31
0.0
  0
LINE
  5
137
330
B8
100
AcDbEntity
  8
PEN1
  6
LTY1
100
AcDbLine
 10
3.35
 20
15.575
 30
0.0
 11
3.35
 21
15.55
 31
0.0
  0
LINE
  5
138
330
B8
100
AcDbEntity
  8
PEN1
  6
LTY1
100
AcDbLine
 10
3.35
 20
15.55
 30
0.0
 11
3.35
 21
15.55
 31
0.0
  0
LINE
  5
139
330
B8
100
AcDbEntity
  8
PEN1
  6
LTY1
100
AcDbLine
 10
3.35
 20
15.55
 30
0.0
 11
3.35
 21
15.55
 31
0.0
  0
LINE
  5
13A
330
B8
100
AcDbEntity
  8
PEN1
  6
LTY1
100
AcDbLine
 10
3.35
 20
15.55
 30
0.0
 11
3.35
 21
15.55
 31
0.0
  0
LINE
  5
13B
330
B8
100
AcDbEntity
  8
PEN1
  6
LTY1
100
AcDbLine
 10
3.35
 20
15.55
 30
0.0
 11
3.35
 21
15.55
 31
0.0
  0
LINE
  5
13C
330
B8
100
AcDbEntity
  8
PEN1
  6
LTY1
100
AcDbLine
 10
3.35
 20
15.55
 30
0.0
 11
3.35
 21
15.55
 31
0.0
  0
LINE
  5
13D
330
B8
100
AcDbEntity
  8
PEN1
  6
LTY1
100
AcDbLine
 10
3.35
 20
15.55
 30
0.0
 11
3.375
 21
15.525
 31
0.0
  0
LINE
  5
13E
330
B8
100
AcDbEntity
  8
PEN1
  6
LTY1
100
AcDbLine
 10
3.375
 20
15.525
 30
0.0
 11
3.375
 21
15.525
 31
0.0
  0
LINE
  5
13F
330
B8
100
AcDbEntity
  8
PEN1
  6
LTY1
100
AcDbLine
 10
4.075
 20
2.675
 30
0.0
 11
4.075
 21
2.675
 31
0.0
  0
LINE
  5
140
330
B8
100
AcDbEntity
  8
PEN1
  6
LTY1
100
AcDbLine
 10
4.075
 20
2.675
 30
0.0
 11
4.2
 21
2.65
 31
0.0
  0
LINE
  5
141
330
B8
100
AcDbEntity
  8
PEN1
  6
LTY1
100
AcDbLine
 10
4.2
 20
2.65
 30
0.0
 11
4.275
 21
2.6
 31
0.0
  0
LINE
  5
142
330
B8
100
AcDbEntity
  8
PEN1
  6
LTY1
100
AcDbLine
 10
4.275
 20
2.6
 30
0.0
 11
4.375
 21
2.55
 31
0.0
  0
LINE
  5
143
330
B8
100
AcDbEntity
  8
PEN1
  6
LTY1
100
AcDbLine
 10
4.375
 20
2.55
 30
0.0
 11
4.45
 21
2.475
 31
0.0
  0
LINE
  5
144
330
B8
100
AcDbEntity
  8
PEN1
  6
LTY1
100
AcDbLine
 10
4.45
 20
2.475
 30
0.0
 11
4.525
 21
2.375
 31
0.0
  0
LINE
  5
145
330
B8
100
AcDbEntity
  8
PEN1
  6
LTY1
100
AcDbLine
 10
4.525
 20
2.375
 30
0.0
 11
4.55
 21
2.275
 31
0.0
  0
LINE
  5
146
330
B8
100
AcDbEntity
  8
PEN1
  6
LTY1
100
AcDbLine
 10
4.55
 20
2.275
 30
0.0
 11
4.575
 21
2.175
 31
0.0
  0
LINE
  5
147
330
B8
100
AcDbEntity
  8
PEN1
  6
LTY1
100
AcDbLine
 10
2.325
 20
2.175
 30
0.0
 11
2.325
 21
2.175
 31
0.0
  0
LINE
  5
148
330
B8
100
AcDbEntity
  8
PEN1
  6
LTY1
100
AcDbLine
 10
2.325
 20
2.175
 30
0.0
 11
2.325
 21
2.275
 31
0.0
  0
LINE
  5
149
330
B8
100
AcDbEntity
  8
PEN1
  6
LTY1
100
AcDbLine
 10
2.325
 20
2.275
 30
0.0
 11
2.375
 21
2.375
 31
0.0
  0
LINE
  5
14A
330
B8
100
AcDbEntity
  8
PEN1
  6
LTY1
100
AcDbLine
 10
2.375
 20
2.375
 30
0.0
 11
2.425
 21
2.475
 31
0.0
  0
LINE
  5
14B
330
B8
100
AcDbEntity
  8
PEN1
  6
LTY1
100
AcDbLine
 10
2.425
 20
2.475
 30
0.0
 11
2.5
 21
2.55
 31
0.0
  0
LINE
  5
14C
330
B8
100
AcDbEntity
  8
PEN1
  6
LTY1
100
AcDbLine
 10
2.5
 20
2.55
 30
0.0
 11
2.6
 21
2.6
 31
0.0
  0
LINE
  5
14D
330
B8
100
AcDbEntity
  8
PEN1
  6
LTY1
100
AcDbLine
 10
2.6
 20
2.6
 30
0.0
 11
2.725
 21
2.65
 31
0.0
  0
LINE
  5
14E
330
B8
100
AcDbEntity
  8
PEN1
  6
LTY1
100
AcDbLine
 10
2.725
 20
2.65
 30
0.0
 11
2.825
 21
2.675
 31
0.0
  0
LINE
  5
14F
330
B8
100
AcDbEntity
  8
PEN1
  6
LTY1
100
AcDbLine
 10
2.825
 20
-2.8
 30
0.0
 11
2.825
 21
-2.8
 31
0.0
  0
LINE
  5
150
330
B8
100
AcDbEntity
  8
PEN1
  6
LTY1
100
AcDbLine
 10
2.825
 20
-2.8
 30
0.0
 11
2.725
 21
-2.775
 31
0.0
  0
LINE
  5
151
330
B8
100
AcDbEntity
  8
PEN1
  6
LTY1
100
AcDbLine
 10
2.725
 20
-2.775
 30
0.0
 11
2.6
 21
-2.75
 31
0.0
  0
LINE
  5
152
330
B8
100
AcDbEntity
  8
PEN1
  6
LTY1
100
AcDbLine
 10
2.6
 20
-2.75
 30
0.0
 11
2.5
 21
-2.675
 31
0.0
  0
LINE
  5
153
330
B8
100
AcDbEntity
  8
PEN1
  6
LTY1
100
AcDbLine
 10
2.5
 20
-2.675
 30
0.0
 11
2.425
 21
-2.6
 31
0.0
  0
LINE
  5
154
330
B8
100
AcDbEntity
  8
PEN1
  6
LTY1
100
AcDbLine
 10
2.425
 20
-2.6
 30
0.0
 11
2.375
 21
-2.5
 31
0.0
  0
LINE
  5
155
330
B8
100
AcDbEntity
  8
PEN1
  6
LTY1
100
AcDbLine
 10
2.375
 20
-2.5
 30
0.0
 11
2.325
 21
-2.425
 31
0.0
  0
LINE
  5
156
330
B8
100
AcDbEntity
  8
PEN1
  6
LTY1
100
AcDbLine
 10
2.325
 20
-2.425
 30
0.0
 11
2.325
 21
-2.3
 31
0.0
  0
LINE
  5
157
330
B8
100
AcDbEntity
  8
PEN1
  6
LTY1
100
AcDbLine
 10
4.575
 20
-2.3
 30
0.0
 11
4.575
 21
-2.3
 31
0.0
  0
LINE
  5
158
330
B8
100
AcDbEntity
  8
PEN1
  6
LTY1
100
AcDbLine
 10
4.575
 20
-2.3
 30
0.0
 11
4.55
 21
-2.425
 31
0.0
  0
LINE
  5
159
330
B8
100
AcDbEntity
  8
PEN1
  6
LTY1
100
AcDbLine
 10
4.55
 20
-2.425
 30
0.0
 11
4.525
 21
-2.5
 31
0.0
  0
LINE
  5
15A
330
B8
100
AcDbEntity
  8
PEN1
  6
LTY1
100
AcDbLine
 10
4.525
 20
-2.5
 30
0.0
 11
4.45
 21
-2.6
 31
0.0
  0
LINE
  5
15B
330
B8
100
AcDbEntity
  8
PEN1
  6
LTY1
100
AcDbLine
 10
4.45
 20
-2.6
 30
0.0
 11
4.375
 21
-2.675
 31
0.0
  0
LINE
  5
15C
330
B8
100
AcDbEntity
  8
PEN1
  6
LTY1
100
AcDbLine
 10
4.375
 20
-2.675
 30
0.0
 11
4.275
 21
-2.75
 31
0.0
  0
LINE
  5
15D
330
B8
100
AcDbEntity
  8
PEN1
  6
LTY1
100
AcDbLine
 10
4.275
 20
-2.75
 30
0.0
 11
4.2
 21
-2.775
 31
0.0
  0
LINE
  5
15E
330
B8
100
AcDbEntity
  8
PEN1
  6
LTY1
100
AcDbLine
 10
4.2
 20
-2.775
 30
0.0
 11
4.075
 21
-2.8
 31
0.0
  0
LINE
  5
15F
330
B8
100
AcDbEntity
  8
PEN1
  6
LTY1
100
AcDbLine
 10
0.125
 20
24.875
 30
0.0
 11
8.675
 21
24.875
 31
0.0
  0
LINE
  5
160
330
B8
100
AcDbEntity
  8
PEN1
  6
LTY1
100
AcDbLine
 10
8.675
 20
-24.725
 30
0.0
 11
0.125
 21
-24.725
 31
0.0
  0
LINE
  5
161
330
B8
100
AcDbEntity
  8
PEN1
  6
LTY1
100
AcDbLine
 10
0.825
 20
18.375
 30
0.0
 11
0.85
 21
18.375
 31
0.0
  0
LINE
  5
162
330
B8
100
AcDbEntity
  8
PEN1
  6
LTY1
100
AcDbLine
 10
0.85
 20
17.7
 30
0.0
 11
0.825
 21
17.7
 31
0.0
  0
LINE
  5
163
330
B8
100
AcDbEntity
  8
PEN1
  6
LTY1
100
AcDbLine
 10
8.025
 20
-17.35
 30
0.0
 11
7.975
 21
-17.35
 31
0.0
  0
LINE
  5
164
330
B8
100
AcDbEntity
  8
PEN1
  6
LTY1
100
AcDbLine
 10
5.65
 20
-19.075
 30
0.0
 11
8.025
 21
-19.075
 31
0.0
  0
LINE
  5
165
330
B8
100
AcDbEntity
  8
PEN1
  6
LTY1
100
AcDbLine
 10
5.65
 20
-24.725
 30
0.0
 11
5.65
 21
-18.725
 31
0.0
  0
LINE
  5
166
330
B8
100
AcDbEntity
  8
PEN1
  6
LTY1
100
AcDbLine
 10
7.975
 20
-18.8
 30
0.0
 11
7.975
 21
-17.3
 31
0.0
  0
LINE
  5
167
330
B8
100
AcDbEntity
  8
PEN1
  6
LTY1
100
AcDbLine
 10
5.65
 20
-18.8
 30
0.0
 11
7.975
 21
-18.8
 31
0.0
  0
LINE
  5
168
330
B8
100
AcDbEntity
  8
PEN1
  6
LTY1
100
AcDbLine
 10
7.975
 20
18.725
 30
0.0
 11
0.825
 21
18.725
 31
0.0
  0
LINE
  5
169
330
B8
100
AcDbEntity
  8
PEN1
  6
LTY1
100
AcDbLine
 10
8.025
 20
18.975
 30
0.0
 11
0.775
 21
18.975
 31
0.0
  0
LINE
  5
16A
330
B8
100
AcDbEntity
  8
PEN1
  6
LTY1
100
AcDbLine
 10
7.975
 20
-18.775
 30
0.0
 11
5.65
 21
-18.775
 31
0.0
  0
LINE
  5
16B
330
B8
100
AcDbEntity
  8
PEN1
  6
LTY1
100
AcDbLine
 10
5.65
 20
18.675
 30
0.0
 11
7.975
 21
18.675
 31
0.0
  0
LINE
  5
16C
330
B8
100
AcDbEntity
  8
PEN1
  6
LTY1
100
AcDbLine
 10
7.975
 20
-18.7
 30
0.0
 11
7.95
 21
-18.7
 31
0.0
  0
LINE
  5
16D
330
B8
100
AcDbEntity
  8
PEN1
  6
LTY1
100
AcDbLine
 10
5.65
 20
18.65
 30
0.0
 11
5.65
 21
24.875
 31
0.0
  0
LINE
  5
16E
330
B8
100
AcDbEntity
  8
PEN1
  6
LTY1
100
AcDbLine
 10
0.775
 20
17.275
 30
0.0
 11
0.825
 21
17.275
 31
0.0
  0
LINE
  5
16F
330
B8
100
AcDbEntity
  8
PEN1
  6
LTY1
100
AcDbLine
 10
0.825
 20
18.725
 30
0.0
 11
0.825
 21
17.175
 31
0.0
  0
LINE
  5
170
330
B8
100
AcDbEntity
  8
PEN1
  6
LTY1
100
AcDbLine
 10
0.825
 20
-18.8
 30
0.0
 11
3.425
 21
-18.8
 31
0.0
  0
LINE
  5
171
330
B8
100
AcDbEntity
  8
PEN1
  6
LTY1
100
AcDbLine
 10
3.425
 20
-18.725
 30
0.0
 11
3.425
 21
-19.4
 31
0.0
  0
LINE
  5
172
330
B8
100
AcDbEntity
  8
PEN1
  6
LTY1
100
AcDbLine
 10
3.425
 20
-19.075
 30
0.0
 11
0.775
 21
-19.075
 31
0.0
  0
LINE
  5
173
330
B8
100
AcDbEntity
  8
PEN1
  6
LTY1
100
AcDbLine
 10
0.775
 20
-17.35
 30
0.0
 11
0.825
 21
-17.35
 31
0.0
  0
LINE
  5
174
330
B8
100
AcDbEntity
  8
PEN1
  6
LTY1
100
AcDbLine
 10
0.825
 20
-18.8
 30
0.0
 11
0.825
 21
-17.3
 31
0.0
  0
LINE
  5
175
330
B8
100
AcDbEntity
  8
PEN1
  6
LTY1
100
AcDbLine
 10
5.65
 20
-19.4
 30
0.0
 11
3.425
 21
-19.4
 31
0.0
  0
LINE
  5
176
330
B8
100
AcDbEntity
  8
PEN1
  6
LTY1
100
AcDbLine
 10
1.025
 20
22.75
 30
0.0
 11
0.775
 21
22.75
 31
0.0
  0
LINE
  5
177
330
B8
100
AcDbEntity
  8
PEN1
  6
LTY1
100
AcDbLine
 10
1.025
 20
22.75
 30
0.0
 11
1.025
 21
24.025
 31
0.0
  0
LINE
  5
178
330
B8
100
AcDbEntity
  8
PEN1
  6
LTY1
100
AcDbLine
 10
0.825
 20
-18.775
 30
0.0
 11
3.425
 21
-18.775
 31
0.0
  0
LINE
  5
179
330
B8
100
AcDbEntity
  8
PEN1
  6
LTY1
100
AcDbLine
 10
3.425
 20
18.725
 30
0.0
 11
3.425
 21
18.65
 31
0.0
  0
LINE
  5
17A
330
B8
100
AcDbEntity
  8
PEN1
  6
LTY1
100
AcDbLine
 10
3.425
 20
18.675
 30
0.0
 11
0.825
 21
18.675
 31
0.0
  0
LINE
  5
17B
330
B8
100
AcDbEntity
  8
PEN1
  6
LTY1
100
AcDbLine
 10
0.85
 20
-18.7
 30
0.0
 11
0.825
 21
-18.7
 31
0.0
  0
LINE
  5
17C
330
B8
100
AcDbEntity
  8
PEN1
  6
LTY1
100
AcDbLine
 10
0.825
 20
18.575
 30
0.0
 11
0.85
 21
18.575
 31
0.0
  0
LINE
  5
17D
330
B8
100
AcDbEntity
  8
PEN1
  6
LTY1
100
AcDbLine
 10
0.025
 20
22.975
 30
0.0
 11
1.025
 21
22.975
 31
0.0
  0
LINE
  5
17E
330
B8
100
AcDbEntity
  8
PEN1
  6
LTY1
100
AcDbLine
 10
0.025
 20
23.3
 30
0.0
 11
1.025
 21
23.3
 31
0.0
  0
LINE
  5
17F
330
B8
100
AcDbEntity
  8
PEN1
  6
LTY1
100
AcDbLine
 10
7.95
 20
-17.3
 30
0.0
 11
8.025
 21
-17.3
 31
0.0
  0
LINE
  5
180
330
B8
100
AcDbEntity
  8
PEN1
  6
LTY1
100
AcDbLine
 10
7.95
 20
-18.725
 30
0.0
 11
7.95
 21
-17.3
 31
0.0
  0
LINE
  5
181
330
B8
100
AcDbEntity
  8
PEN1
  6
LTY1
100
AcDbLine
 10
0.85
 20
-18.725
 30
0.0
 11
7.95
 21
-18.725
 31
0.0
  0
LINE
  5
182
330
B8
100
AcDbEntity
  8
PEN1
  6
LTY1
100
AcDbLine
 10
0.85
 20
-17.3
 30
0.0
 11
0.85
 21
-18.725
 31
0.0
  0
LINE
  5
183
330
B8
100
AcDbEntity
  8
PEN1
  6
LTY1
100
AcDbLine
 10
0.85
 20
-17.3
 30
0.0
 11
0.775
 21
-17.3
 31
0.0
  0
LINE
  5
184
330
B8
100
AcDbEntity
  8
PEN1
  6
LTY1
100
AcDbLine
 10
0.775
 20
17.175
 30
0.0
 11
0.85
 21
17.175
 31
0.0
  0
LINE
  5
185
330
B8
100
AcDbEntity
  8
PEN1
  6
LTY1
100
AcDbLine
 10
0.85
 20
18.65
 30
0.0
 11
0.85
 21
17.175
 31
0.0
  0
LINE
  5
186
330
B8
100
AcDbEntity
  8
PEN1
  6
LTY1
100
AcDbLine
 10
7.95
 20
18.65
 30
0.0
 11
0.85
 21
18.65
 31
0.0
  0
LINE
  5
187
330
B8
100
AcDbEntity
  8
PEN1
  6
LTY1
100
AcDbLine
 10
0.025
 20
-24.625
 30
0.0
 11
0.025
 21
24.775
 31
0.0
  0
LINE
  5
188
330
B8
100
AcDbEntity
  8
PEN1
  6
LTY1
100
AcDbLine
 10
8.775
 20
24.775
 30
0.0
 11
8.775
 21
-24.625
 31
0.0
  0
LINE
  5
189
330
B8
100
AcDbEntity
  8
PEN1
  6
LTY1
100
AcDbLine
 10
4.425
 20
24.9
 30
0.0
 11
2.975
 21
24.875
 31
0.0
  0
LINE
  5
18A
330
B8
100
AcDbEntity
  8
PEN1
  6
LTY1
100
AcDbLine
 10
5.8
 20
24.875
 30
0.0
 11
4.425
 21
24.9
 31
0.0
  0
LINE
  5
18B
330
B8
100
AcDbEntity
  8
PEN1
  6
LTY1
100
AcDbLine
 10
8.025
 20
-24.6
 30
0.0
 11
8.025
 21
-17.35
 31
0.0
  0
LINE
  5
18C
330
B8
100
AcDbEntity
  8
PEN1
  6
LTY1
100
AcDbLine
 10
0.775
 20
24.775
 30
0.0
 11
8.025
 21
24.775
 31
0.0
  0
LINE
  5
18D
330
B8
100
AcDbEntity
  8
PEN1
  6
LTY1
100
AcDbLine
 10
8.025
 20
-24.6
 30
0.0
 11
0.775
 21
-24.6
 31
0.0
  0
LINE
  5
18E
330
B8
100
AcDbEntity
  8
PEN1
  6
LTY1
100
AcDbLine
 10
0.775
 20
22.75
 30
0.0
 11
0.775
 21
17.275
 31
0.0
  0
LINE
  5
18F
330
B8
100
AcDbEntity
  8
PEN1
  6
LTY1
100
AcDbLine
 10
0.775
 20
-17.35
 30
0.0
 11
0.775
 21
-24.6
 31
0.0
  0
LINE
  5
190
330
B8
100
AcDbEntity
  8
PEN1
  6
LTY1
100
AcDbLine
 10
1.025
 20
24.025
 30
0.0
 11
0.775
 21
24.025
 31
0.0
  0
LINE
  5
191
330
B8
100
AcDbEntity
  8
PEN1
  6
LTY1
100
AcDbLine
 10
0.775
 20
24.775
 30
0.0
 11
0.775
 21
24.025
 31
0.0
  0
LINE
  5
192
330
B8
100
AcDbEntity
  8
PEN1
  6
LTY1
100
AcDbLine
 10
0.325
 20
23.85
 30
0.0
 11
1.025
 21
23.85
 31
0.0
  0
LINE
  5
193
330
B8
100
AcDbEntity
  8
PEN1
  6
LTY1
100
AcDbLine
 10
0.85
 20
18.5
 30
0.0
 11
7.95
 21
18.5
 31
0.0
  0
LINE
  5
194
330
B8
100
AcDbEntity
  8
PEN1
  6
LTY1
100
AcDbLine
 10
8.025
 20
17.175
 30
0.0
 11
8.025
 21
-17.3
 31
0.0
  0
LINE
  5
195
330
B8
100
AcDbEntity
  8
PEN1
  6
LTY1
100
AcDbLine
 10
0.775
 20
17.175
 30
0.0
 11
0.775
 21
-17.3
 31
0.0
  0
LINE
  5
196
330
B8
100
AcDbEntity
  8
PEN1
  6
LTY1
100
AcDbLine
 10
7.95
 20
18.375
 30
0.0
 11
7.975
 21
18.375
 31
0.0
  0
LINE
  5
197
330
B8
100
AcDbEntity
  8
PEN1
  6
LTY1
100
AcDbLine
 10
7.975
 20
17.7
 30
0.0
 11
7.95
 21
17.7
 31
0.0
  0
LINE
  5
198
330
B8
100
AcDbEntity
  8
PEN1
  6
LTY1
100
AcDbLine
 10
7.975
 20
17.275
 30
0.0
 11
8.025
 21
17.275
 31
0.0
  0
LINE
  5
199
330
B8
100
AcDbEntity
  8
PEN1
  6
LTY1
100
AcDbLine
 10
7.975
 20
17.175
 30
0.0
 11
7.975
 21
18.725
 31
0.0
  0
LINE
  5
19A
330
B8
100
AcDbEntity
  8
PEN1
  6
LTY1
100
AcDbLine
 10
8.025
 20
22.75
 30
0.0
 11
7.775
 21
22.75
 31
0.0
  0
LINE
  5
19B
330
B8
100
AcDbEntity
  8
PEN1
  6
LTY1
100
AcDbLine
 10
7.775
 20
24.025
 30
0.0
 11
7.775
 21
22.75
 31
0.0
  0
LINE
  5
19C
330
B8
100
AcDbEntity
  8
PEN1
  6
LTY1
100
AcDbLine
 10
7.95
 20
18.575
 30
0.0
 11
7.975
 21
18.575
 31
0.0
  0
LINE
  5
19D
330
B8
100
AcDbEntity
  8
PEN1
  6
LTY1
100
AcDbLine
 10
7.775
 20
22.975
 30
0.0
 11
8.775
 21
22.975
 31
0.0
  0
LINE
  5
19E
330
B8
100
AcDbEntity
  8
PEN1
  6
LTY1
100
AcDbLine
 10
7.775
 20
23.3
 30
0.0
 11
8.775
 21
23.3
 31
0.0
  0
LINE
  5
19F
330
B8
100
AcDbEntity
  8
PEN1
  6
LTY1
100
AcDbLine
 10
7.95
 20
17.175
 30
0.0
 11
8.025
 21
17.175
 31
0.0
  0
LINE
  5
1A0
330
B8
100
AcDbEntity
  8
PEN1
  6
LTY1
100
AcDbLine
 10
7.95
 20
17.175
 30
0.0
 11
7.95
 21
18.65
 31
0.0
  0
LINE
  5
1A1
330
B8
100
AcDbEntity
  8
PEN1
  6
LTY1
100
AcDbLine
 10
8.025
 20
17.275
 30
0.0
 11
8.025
 21
22.75
 31
0.0
  0
LINE
  5
1A2
330
B8
100
AcDbEntity
  8
PEN1
  6
LTY1
100
AcDbLine
 10
8.025
 20
24.025
 30
0.0
 11
7.775
 21
24.025
 31
0.0
  0
LINE
  5
1A3
330
B8
100
AcDbEntity
  8
PEN1
  6
LTY1
100
AcDbLine
 10
8.025
 20
24.025
 30
0.0
 11
8.025
 21
24.775
 31
0.0
  0
LINE
  5
1A4
330
B8
100
AcDbEntity
  8
PEN1
  6
LTY1
100
AcDbLine
 10
7.775
 20
23.85
 30
0.0
 11
8.475
 21
23.85
 31
0.0
  0
LINE
  5
1A5
330
B8
100
AcDbEntity
  8
PEN1
  6
LTY1
100
AcDbLine
 10
4.425
 20
-24.75
 30
0.0
 11
5.8
 21
-24.725
 31
0.0
  0
LINE
  5
1A6
330
B8
100
AcDbEntity
  8
PEN1
  6
LTY1
100
AcDbLine
 10
2.975
 20
-24.725
 30
0.0
 11
4.425
 21
-24.75
 31
0.0
  0
LINE
  5
1A7
330
B8
100
AcDbEntity
  8
PEN1
  6
LTY1
100
AcDbLine
 10
7.95
 20
-17.75
 30
0.0
 11
7.95
 21
-17.75
 31
0.0
  0
LINE
  5
1A8
330
B8
100
AcDbEntity
  8
PEN1
  6
LTY1
100
AcDbLine
 10
7.95
 20
-17.75
 30
0.0
 11
7.975
 21
-17.75
 31
0.0
  0
LINE
  5
1A9
330
B8
100
AcDbEntity
  8
PEN1
  6
LTY1
100
AcDbLine
 10
7.975
 20
-18.5
 30
0.0
 11
7.975
 21
-18.5
 31
0.0
  0
LINE
  5
1AA
330
B8
100
AcDbEntity
  8
PEN1
  6
LTY1
100
AcDbLine
 10
7.975
 20
-18.5
 30
0.0
 11
7.95
 21
-18.5
 31
0.0
  0
LINE
  5
1AB
330
B8
100
AcDbEntity
  8
PEN1
  6
LTY1
100
AcDbLine
 10
0.85
 20
-18.5
 30
0.0
 11
0.85
 21
-18.5
 31
0.0
  0
LINE
  5
1AC
330
B8
100
AcDbEntity
  8
PEN1
  6
LTY1
100
AcDbLine
 10
0.85
 20
-18.5
 30
0.0
 11
0.825
 21
-18.5
 31
0.0
  0
LINE
  5
1AD
330
B8
100
AcDbEntity
  8
PEN1
  6
LTY1
100
AcDbLine
 10
0.825
 20
-17.75
 30
0.0
 11
0.825
 21
-17.75
 31
0.0
  0
LINE
  5
1AE
330
B8
100
AcDbEntity
  8
PEN1
  6
LTY1
100
AcDbLine
 10
0.825
 20
-17.75
 30
0.0
 11
0.85
 21
-17.75
 31
0.0
  0
LINE
  5
1AF
330
B8
100
AcDbEntity
  8
PEN1
  6
LTY1
100
AcDbLine
 10
0.775
 20
24.775
 30
0.0
 11
0.775
 21
24.775
 31
0.0
  0
LINE
  5
1B0
330
B8
100
AcDbEntity
  8
PEN1
  6
LTY1
100
AcDbLine
 10
0.775
 20
24.775
 30
0.0
 11
0.675
 21
24.8
 31
0.0
  0
LINE
  5
1B1
330
B8
100
AcDbEntity
  8
PEN1
  6
LTY1
100
AcDbLine
 10
0.675
 20
24.8
 30
0.0
 11
0.675
 21
24.8
 31
0.0
  0
LINE
  5
1B2
330
B8
100
AcDbEntity
  8
PEN1
  6
LTY1
100
AcDbLine
 10
0.675
 20
24.8
 30
0.0
 11
0.575
 21
24.85
 31
0.0
  0
LINE
  5
1B3
330
B8
100
AcDbEntity
  8
PEN1
  6
LTY1
100
AcDbLine
 10
0.575
 20
24.85
 30
0.0
 11
0.575
 21
24.85
 31
0.0
  0
LINE
  5
1B4
330
B8
100
AcDbEntity
  8
PEN1
  6
LTY1
100
AcDbLine
 10
0.575
 20
24.85
 30
0.0
 11
0.5
 21
24.85
 31
0.0
  0
LINE
  5
1B5
330
B8
100
AcDbEntity
  8
PEN1
  6
LTY1
100
AcDbLine
 10
0.5
 20
24.85
 30
0.0
 11
0.5
 21
24.85
 31
0.0
  0
LINE
  5
1B6
330
B8
100
AcDbEntity
  8
PEN1
  6
LTY1
100
AcDbLine
 10
0.5
 20
24.85
 30
0.0
 11
0.425
 21
24.875
 31
0.0
  0
LINE
  5
1B7
330
B8
100
AcDbEntity
  8
PEN1
  6
LTY1
100
AcDbLine
 10
0.425
 20
24.875
 30
0.0
 11
0.375
 21
24.875
 31
0.0
  0
LINE
  5
1B8
330
B8
100
AcDbEntity
  8
PEN1
  6
LTY1
100
AcDbLine
 10
0.125
 20
24.875
 30
0.0
 11
0.125
 21
24.875
 31
0.0
  0
LINE
  5
1B9
330
B8
100
AcDbEntity
  8
PEN1
  6
LTY1
100
AcDbLine
 10
0.125
 20
24.875
 30
0.0
 11
0.1
 21
24.875
 31
0.0
  0
LINE
  5
1BA
330
B8
100
AcDbEntity
  8
PEN1
  6
LTY1
100
AcDbLine
 10
0.1
 20
24.875
 30
0.0
 11
0.1
 21
24.875
 31
0.0
  0
LINE
  5
1BB
330
B8
100
AcDbEntity
  8
PEN1
  6
LTY1
100
AcDbLine
 10
0.1
 20
24.875
 30
0.0
 11
0.075
 21
24.85
 31
0.0
  0
LINE
  5
1BC
330
B8
100
AcDbEntity
  8
PEN1
  6
LTY1
100
AcDbLine
 10
0.075
 20
24.85
 30
0.0
 11
0.075
 21
24.85
 31
0.0
  0
LINE
  5
1BD
330
B8
100
AcDbEntity
  8
PEN1
  6
LTY1
100
AcDbLine
 10
0.075
 20
24.85
 30
0.0
 11
0.075
 21
24.85
 31
0.0
  0
LINE
  5
1BE
330
B8
100
AcDbEntity
  8
PEN1
  6
LTY1
100
AcDbLine
 10
0.075
 20
24.85
 30
0.0
 11
0.075
 21
24.85
 31
0.0
  0
LINE
  5
1BF
330
B8
100
AcDbEntity
  8
PEN1
  6
LTY1
100
AcDbLine
 10
0.075
 20
24.85
 30
0.0
 11
0.05
 21
24.85
 31
0.0
  0
LINE
  5
1C0
330
B8
100
AcDbEntity
  8
PEN1
  6
LTY1
100
AcDbLine
 10
0.05
 20
24.85
 30
0.0
 11
0.05
 21
24.85
 31
0.0
  0
LINE
  5
1C1
330
B8
100
AcDbEntity
  8
PEN1
  6
LTY1
100
AcDbLine
 10
0.05
 20
24.85
 30
0.0
 11
0.05
 21
24.825
 31
0.0
  0
LINE
  5
1C2
330
B8
100
AcDbEntity
  8
PEN1
  6
LTY1
100
AcDbLine
 10
0.05
 20
24.825
 30
0.0
 11
0.05
 21
24.825
 31
0.0
  0
LINE
  5
1C3
330
B8
100
AcDbEntity
  8
PEN1
  6
LTY1
100
AcDbLine
 10
0.05
 20
24.825
 30
0.0
 11
0.05
 21
24.8
 31
0.0
  0
LINE
  5
1C4
330
B8
100
AcDbEntity
  8
PEN1
  6
LTY1
100
AcDbLine
 10
0.05
 20
24.8
 30
0.0
 11
0.05
 21
24.8
 31
0.0
  0
LINE
  5
1C5
330
B8
100
AcDbEntity
  8
PEN1
  6
LTY1
100
AcDbLine
 10
0.05
 20
24.8
 30
0.0
 11
0.025
 21
24.775
 31
0.0
  0
LINE
  5
1C6
330
B8
100
AcDbEntity
  8
PEN1
  6
LTY1
100
AcDbLine
 10
0.025
 20
24.775
 30
0.0
 11
0.025
 21
24.775
 31
0.0
  0
LINE
  5
1C7
330
B8
100
AcDbEntity
  8
PEN1
  6
LTY1
100
AcDbLine
 10
0.025
 20
24.775
 30
0.0
 11
0.025
 21
24.775
 31
0.0
  0
LINE
  5
1C8
330
B8
100
AcDbEntity
  8
PEN1
  6
LTY1
100
AcDbLine
 10
0.775
 20
24.025
 30
0.0
 11
0.775
 21
24.025
 31
0.0
  0
LINE
  5
1C9
330
B8
100
AcDbEntity
  8
PEN1
  6
LTY1
100
AcDbLine
 10
0.775
 20
24.025
 30
0.0
 11
0.575
 21
23.95
 31
0.0
  0
LINE
  5
1CA
330
B8
100
AcDbEntity
  8
PEN1
  6
LTY1
100
AcDbLine
 10
0.575
 20
23.95
 30
0.0
 11
0.575
 21
23.95
 31
0.0
  0
LINE
  5
1CB
330
B8
100
AcDbEntity
  8
PEN1
  6
LTY1
100
AcDbLine
 10
0.575
 20
23.95
 30
0.0
 11
0.45
 21
23.9
 31
0.0
  0
LINE
  5
1CC
330
B8
100
AcDbEntity
  8
PEN1
  6
LTY1
100
AcDbLine
 10
0.45
 20
23.9
 30
0.0
 11
0.45
 21
23.9
 31
0.0
  0
LINE
  5
1CD
330
B8
100
AcDbEntity
  8
PEN1
  6
LTY1
100
AcDbLine
 10
0.45
 20
23.9
 30
0.0
 11
0.375
 21
23.875
 31
0.0
  0
LINE
  5
1CE
330
B8
100
AcDbEntity
  8
PEN1
  6
LTY1
100
AcDbLine
 10
0.375
 20
23.875
 30
0.0
 11
0.375
 21
23.875
 31
0.0
  0
LINE
  5
1CF
330
B8
100
AcDbEntity
  8
PEN1
  6
LTY1
100
AcDbLine
 10
0.375
 20
23.875
 30
0.0
 11
0.325
 21
23.85
 31
0.0
  0
LINE
  5
1D0
330
B8
100
AcDbEntity
  8
PEN1
  6
LTY1
100
AcDbLine
 10
0.325
 20
23.85
 30
0.0
 11
0.325
 21
23.85
 31
0.0
  0
LINE
  5
1D1
330
B8
100
AcDbEntity
  8
PEN1
  6
LTY1
100
AcDbLine
 10
0.325
 20
23.85
 30
0.0
 11
0.3
 21
23.825
 31
0.0
  0
LINE
  5
1D2
330
B8
100
AcDbEntity
  8
PEN1
  6
LTY1
100
AcDbLine
 10
0.3
 20
23.825
 30
0.0
 11
0.3
 21
23.825
 31
0.0
  0
LINE
  5
1D3
330
B8
100
AcDbEntity
  8
PEN1
  6
LTY1
100
AcDbLine
 10
0.3
 20
23.825
 30
0.0
 11
0.25
 21
23.8
 31
0.0
  0
LINE
  5
1D4
330
B8
100
AcDbEntity
  8
PEN1
  6
LTY1
100
AcDbLine
 10
0.25
 20
23.8
 30
0.0
 11
0.25
 21
23.8
 31
0.0
  0
LINE
  5
1D5
330
B8
100
AcDbEntity
  8
PEN1
  6
LTY1
100
AcDbLine
 10
0.25
 20
23.8
 30
0.0
 11
0.15
 21
23.725
 31
0.0
  0
LINE
  5
1D6
330
B8
100
AcDbEntity
  8
PEN1
  6
LTY1
100
AcDbLine
 10
0.15
 20
23.725
 30
0.0
 11
0.15
 21
23.725
 31
0.0
  0
LINE
  5
1D7
330
B8
100
AcDbEntity
  8
PEN1
  6
LTY1
100
AcDbLine
 10
0.15
 20
23.725
 30
0.0
 11
0.075
 21
23.675
 31
0.0
  0
LINE
  5
1D8
330
B8
100
AcDbEntity
  8
PEN1
  6
LTY1
100
AcDbLine
 10
0.075
 20
23.675
 30
0.0
 11
0.075
 21
23.675
 31
0.0
  0
LINE
  5
1D9
330
B8
100
AcDbEntity
  8
PEN1
  6
LTY1
100
AcDbLine
 10
0.075
 20
23.675
 30
0.0
 11
0.05
 21
23.6
 31
0.0
  0
LINE
  5
1DA
330
B8
100
AcDbEntity
  8
PEN1
  6
LTY1
100
AcDbLine
 10
0.05
 20
23.6
 30
0.0
 11
0.05
 21
23.6
 31
0.0
  0
LINE
  5
1DB
330
B8
100
AcDbEntity
  8
PEN1
  6
LTY1
100
AcDbLine
 10
0.05
 20
23.6
 30
0.0
 11
0.025
 21
23.55
 31
0.0
  0
LINE
  5
1DC
330
B8
100
AcDbEntity
  8
PEN1
  6
LTY1
100
AcDbLine
 10
0.025
 20
23.55
 30
0.0
 11
0.025
 21
23.525
 31
0.0
  0
LINE
  5
1DD
330
B8
100
AcDbEntity
  8
PEN1
  6
LTY1
100
AcDbLine
 10
0.775
 20
22.75
 30
0.0
 11
0.775
 21
22.75
 31
0.0
  0
LINE
  5
1DE
330
B8
100
AcDbEntity
  8
PEN1
  6
LTY1
100
AcDbLine
 10
0.775
 20
22.75
 30
0.0
 11
0.55
 21
22.75
 31
0.0
  0
LINE
  5
1DF
330
B8
100
AcDbEntity
  8
PEN1
  6
LTY1
100
AcDbLine
 10
0.55
 20
22.75
 30
0.0
 11
0.55
 21
22.75
 31
0.0
  0
LINE
  5
1E0
330
B8
100
AcDbEntity
  8
PEN1
  6
LTY1
100
AcDbLine
 10
0.55
 20
22.75
 30
0.0
 11
0.4
 21
22.775
 31
0.0
  0
LINE
  5
1E1
330
B8
100
AcDbEntity
  8
PEN1
  6
LTY1
100
AcDbLine
 10
0.4
 20
22.775
 30
0.0
 11
0.4
 21
22.775
 31
0.0
  0
LINE
  5
1E2
330
B8
100
AcDbEntity
  8
PEN1
  6
LTY1
100
AcDbLine
 10
0.4
 20
22.775
 30
0.0
 11
0.275
 21
22.8
 31
0.0
  0
LINE
  5
1E3
330
B8
100
AcDbEntity
  8
PEN1
  6
LTY1
100
AcDbLine
 10
0.275
 20
22.8
 30
0.0
 11
0.275
 21
22.8
 31
0.0
  0
LINE
  5
1E4
330
B8
100
AcDbEntity
  8
PEN1
  6
LTY1
100
AcDbLine
 10
0.275
 20
22.8
 30
0.0
 11
0.15
 21
22.8
 31
0.0
  0
LINE
  5
1E5
330
B8
100
AcDbEntity
  8
PEN1
  6
LTY1
100
AcDbLine
 10
0.15
 20
22.8
 30
0.0
 11
0.15
 21
22.8
 31
0.0
  0
LINE
  5
1E6
330
B8
100
AcDbEntity
  8
PEN1
  6
LTY1
100
AcDbLine
 10
0.15
 20
22.8
 30
0.0
 11
0.1
 21
22.825
 31
0.0
  0
LINE
  5
1E7
330
B8
100
AcDbEntity
  8
PEN1
  6
LTY1
100
AcDbLine
 10
0.1
 20
22.825
 30
0.0
 11
0.1
 21
22.825
 31
0.0
  0
LINE
  5
1E8
330
B8
100
AcDbEntity
  8
PEN1
  6
LTY1
100
AcDbLine
 10
0.1
 20
22.825
 30
0.0
 11
0.05
 21
22.85
 31
0.0
  0
LINE
  5
1E9
330
B8
100
AcDbEntity
  8
PEN1
  6
LTY1
100
AcDbLine
 10
0.05
 20
22.85
 30
0.0
 11
0.05
 21
22.85
 31
0.0
  0
LINE
  5
1EA
330
B8
100
AcDbEntity
  8
PEN1
  6
LTY1
100
AcDbLine
 10
0.05
 20
22.85
 30
0.0
 11
0.05
 21
22.875
 31
0.0
  0
LINE
  5
1EB
330
B8
100
AcDbEntity
  8
PEN1
  6
LTY1
100
AcDbLine
 10
0.05
 20
22.875
 30
0.0
 11
0.05
 21
22.875
 31
0.0
  0
LINE
  5
1EC
330
B8
100
AcDbEntity
  8
PEN1
  6
LTY1
100
AcDbLine
 10
0.05
 20
22.875
 30
0.0
 11
0.025
 21
22.875
 31
0.0
  0
LINE
  5
1ED
330
B8
100
AcDbEntity
  8
PEN1
  6
LTY1
100
AcDbLine
 10
0.025
 20
22.875
 30
0.0
 11
0.025
 21
22.9
 31
0.0
  0
LINE
  5
1EE
330
B8
100
AcDbEntity
  8
PEN1
  6
LTY1
100
AcDbLine
 10
0.775
 20
18.975
 30
0.0
 11
0.775
 21
18.975
 31
0.0
  0
LINE
  5
1EF
330
B8
100
AcDbEntity
  8
PEN1
  6
LTY1
100
AcDbLine
 10
0.775
 20
18.975
 30
0.0
 11
0.575
 21
18.975
 31
0.0
  0
LINE
  5
1F0
330
B8
100
AcDbEntity
  8
PEN1
  6
LTY1
100
AcDbLine
 10
0.575
 20
18.975
 30
0.0
 11
0.575
 21
18.975
 31
0.0
  0
LINE
  5
1F1
330
B8
100
AcDbEntity
  8
PEN1
  6
LTY1
100
AcDbLine
 10
0.575
 20
18.975
 30
0.0
 11
0.375
 21
18.95
 31
0.0
  0
LINE
  5
1F2
330
B8
100
AcDbEntity
  8
PEN1
  6
LTY1
100
AcDbLine
 10
0.375
 20
18.95
 30
0.0
 11
0.375
 21
18.95
 31
0.0
  0
LINE
  5
1F3
330
B8
100
AcDbEntity
  8
PEN1
  6
LTY1
100
AcDbLine
 10
0.375
 20
18.95
 30
0.0
 11
0.3
 21
18.925
 31
0.0
  0
LINE
  5
1F4
330
B8
100
AcDbEntity
  8
PEN1
  6
LTY1
100
AcDbLine
 10
0.3
 20
18.925
 30
0.0
 11
0.3
 21
18.925
 31
0.0
  0
LINE
  5
1F5
330
B8
100
AcDbEntity
  8
PEN1
  6
LTY1
100
AcDbLine
 10
0.3
 20
18.925
 30
0.0
 11
0.2
 21
18.9
 31
0.0
  0
LINE
  5
1F6
330
B8
100
AcDbEntity
  8
PEN1
  6
LTY1
100
AcDbLine
 10
0.2
 20
18.9
 30
0.0
 11
0.2
 21
18.9
 31
0.0
  0
LINE
  5
1F7
330
B8
100
AcDbEntity
  8
PEN1
  6
LTY1
100
AcDbLine
 10
0.2
 20
18.9
 30
0.0
 11
0.125
 21
18.875
 31
0.0
  0
LINE
  5
1F8
330
B8
100
AcDbEntity
  8
PEN1
  6
LTY1
100
AcDbLine
 10
0.125
 20
18.875
 30
0.0
 11
0.125
 21
18.875
 31
0.0
  0
LINE
  5
1F9
330
B8
100
AcDbEntity
  8
PEN1
  6
LTY1
100
AcDbLine
 10
0.125
 20
18.875
 30
0.0
 11
0.05
 21
18.825
 31
0.0
  0
LINE
  5
1FA
330
B8
100
AcDbEntity
  8
PEN1
  6
LTY1
100
AcDbLine
 10
0.05
 20
18.825
 30
0.0
 11
0.05
 21
18.825
 31
0.0
  0
LINE
  5
1FB
330
B8
100
AcDbEntity
  8
PEN1
  6
LTY1
100
AcDbLine
 10
0.05
 20
18.825
 30
0.0
 11
0.05
 21
18.8
 31
0.0
  0
LINE
  5
1FC
330
B8
100
AcDbEntity
  8
PEN1
  6
LTY1
100
AcDbLine
 10
0.05
 20
18.8
 30
0.0
 11
0.05
 21
18.8
 31
0.0
  0
LINE
  5
1FD
330
B8
100
AcDbEntity
  8
PEN1
  6
LTY1
100
AcDbLine
 10
0.05
 20
18.8
 30
0.0
 11
0.025
 21
18.775
 31
0.0
  0
LINE
  5
1FE
330
B8
100
AcDbEntity
  8
PEN1
  6
LTY1
100
AcDbLine
 10
0.775
 20
17.275
 30
0.0
 11
0.775
 21
17.275
 31
0.0
  0
LINE
  5
1FF
330
B8
100
AcDbEntity
  8
PEN1
  6
LTY1
100
AcDbLine
 10
0.775
 20
17.275
 30
0.0
 11
0.7
 21
17.275
 31
0.0
  0
LINE
  5
200
330
B8
100
AcDbEntity
  8
PEN1
  6
LTY1
100
AcDbLine
 10
0.7
 20
17.275
 30
0.0
 11
0.7
 21
17.275
 31
0.0
  0
LINE
  5
201
330
B8
100
AcDbEntity
  8
PEN1
  6
LTY1
100
AcDbLine
 10
0.7
 20
17.275
 30
0.0
 11
0.625
 21
17.25
 31
0.0
  0
LINE
  5
202
330
B8
100
AcDbEntity
  8
PEN1
  6
LTY1
100
AcDbLine
 10
0.625
 20
17.25
 30
0.0
 11
0.625
 21
17.25
 31
0.0
  0
LINE
  5
203
330
B8
100
AcDbEntity
  8
PEN1
  6
LTY1
100
AcDbLine
 10
0.625
 20
17.25
 30
0.0
 11
0.5
 21
17.175
 31
0.0
  0
LINE
  5
204
330
B8
100
AcDbEntity
  8
PEN1
  6
LTY1
100
AcDbLine
 10
0.5
 20
17.175
 30
0.0
 11
0.5
 21
17.175
 31
0.0
  0
LINE
  5
205
330
B8
100
AcDbEntity
  8
PEN1
  6
LTY1
100
AcDbLine
 10
0.5
 20
17.175
 30
0.0
 11
0.375
 21
17.075
 31
0.0
  0
LINE
  5
206
330
B8
100
AcDbEntity
  8
PEN1
  6
LTY1
100
AcDbLine
 10
0.375
 20
17.075
 30
0.0
 11
0.375
 21
17.075
 31
0.0
  0
LINE
  5
207
330
B8
100
AcDbEntity
  8
PEN1
  6
LTY1
100
AcDbLine
 10
0.375
 20
17.075
 30
0.0
 11
0.275
 21
16.95
 31
0.0
  0
LINE
  5
208
330
B8
100
AcDbEntity
  8
PEN1
  6
LTY1
100
AcDbLine
 10
0.275
 20
16.95
 30
0.0
 11
0.275
 21
16.95
 31
0.0
  0
LINE
  5
209
330
B8
100
AcDbEntity
  8
PEN1
  6
LTY1
100
AcDbLine
 10
0.275
 20
16.95
 30
0.0
 11
0.175
 21
16.8
 31
0.0
  0
LINE
  5
20A
330
B8
100
AcDbEntity
  8
PEN1
  6
LTY1
100
AcDbLine
 10
0.175
 20
16.8
 30
0.0
 11
0.175
 21
16.8
 31
0.0
  0
LINE
  5
20B
330
B8
100
AcDbEntity
  8
PEN1
  6
LTY1
100
AcDbLine
 10
0.175
 20
16.8
 30
0.0
 11
0.125
 21
16.625
 31
0.0
  0
LINE
  5
20C
330
B8
100
AcDbEntity
  8
PEN1
  6
LTY1
100
AcDbLine
 10
0.125
 20
16.625
 30
0.0
 11
0.125
 21
16.625
 31
0.0
  0
LINE
  5
20D
330
B8
100
AcDbEntity
  8
PEN1
  6
LTY1
100
AcDbLine
 10
0.125
 20
16.625
 30
0.0
 11
0.05
 21
16.425
 31
0.0
  0
LINE
  5
20E
330
B8
100
AcDbEntity
  8
PEN1
  6
LTY1
100
AcDbLine
 10
0.05
 20
16.425
 30
0.0
 11
0.05
 21
16.425
 31
0.0
  0
LINE
  5
20F
330
B8
100
AcDbEntity
  8
PEN1
  6
LTY1
100
AcDbLine
 10
0.05
 20
16.425
 30
0.0
 11
0.05
 21
16.3
 31
0.0
  0
LINE
  5
210
330
B8
100
AcDbEntity
  8
PEN1
  6
LTY1
100
AcDbLine
 10
0.05
 20
16.3
 30
0.0
 11
0.05
 21
16.3
 31
0.0
  0
LINE
  5
211
330
B8
100
AcDbEntity
  8
PEN1
  6
LTY1
100
AcDbLine
 10
0.05
 20
16.3
 30
0.0
 11
0.025
 21
16.125
 31
0.0
  0
LINE
  5
212
330
B8
100
AcDbEntity
  8
PEN1
  6
LTY1
100
AcDbLine
 10
0.775
 20
17.175
 30
0.0
 11
0.775
 21
17.175
 31
0.0
  0
LINE
  5
213
330
B8
100
AcDbEntity
  8
PEN1
  6
LTY1
100
AcDbLine
 10
0.775
 20
17.175
 30
0.0
 11
0.7
 21
17.175
 31
0.0
  0
LINE
  5
214
330
B8
100
AcDbEntity
  8
PEN1
  6
LTY1
100
AcDbLine
 10
0.7
 20
17.175
 30
0.0
 11
0.7
 21
17.175
 31
0.0
  0
LINE
  5
215
330
B8
100
AcDbEntity
  8
PEN1
  6
LTY1
100
AcDbLine
 10
0.7
 20
17.175
 30
0.0
 11
0.575
 21
17.15
 31
0.0
  0
LINE
  5
216
330
B8
100
AcDbEntity
  8
PEN1
  6
LTY1
100
AcDbLine
 10
0.575
 20
17.15
 30
0.0
 11
0.575
 21
17.15
 31
0.0
  0
LINE
  5
217
330
B8
100
AcDbEntity
  8
PEN1
  6
LTY1
100
AcDbLine
 10
0.575
 20
17.15
 30
0.0
 11
0.475
 21
17.1
 31
0.0
  0
LINE
  5
218
330
B8
100
AcDbEntity
  8
PEN1
  6
LTY1
100
AcDbLine
 10
0.475
 20
17.1
 30
0.0
 11
0.475
 21
17.1
 31
0.0
  0
LINE
  5
219
330
B8
100
AcDbEntity
  8
PEN1
  6
LTY1
100
AcDbLine
 10
0.475
 20
17.1
 30
0.0
 11
0.375
 21
17.025
 31
0.0
  0
LINE
  5
21A
330
B8
100
AcDbEntity
  8
PEN1
  6
LTY1
100
AcDbLine
 10
0.375
 20
17.025
 30
0.0
 11
0.375
 21
17.025
 31
0.0
  0
LINE
  5
21B
330
B8
100
AcDbEntity
  8
PEN1
  6
LTY1
100
AcDbLine
 10
0.375
 20
17.025
 30
0.0
 11
0.275
 21
16.9
 31
0.0
  0
LINE
  5
21C
330
B8
100
AcDbEntity
  8
PEN1
  6
LTY1
100
AcDbLine
 10
0.275
 20
16.9
 30
0.0
 11
0.275
 21
16.9
 31
0.0
  0
LINE
  5
21D
330
B8
100
AcDbEntity
  8
PEN1
  6
LTY1
100
AcDbLine
 10
0.275
 20
16.9
 30
0.0
 11
0.175
 21
16.725
 31
0.0
  0
LINE
  5
21E
330
B8
100
AcDbEntity
  8
PEN1
  6
LTY1
100
AcDbLine
 10
0.175
 20
16.725
 30
0.0
 11
0.175
 21
16.725
 31
0.0
  0
LINE
  5
21F
330
B8
100
AcDbEntity
  8
PEN1
  6
LTY1
100
AcDbLine
 10
0.175
 20
16.725
 30
0.0
 11
0.125
 21
16.55
 31
0.0
  0
LINE
  5
220
330
B8
100
AcDbEntity
  8
PEN1
  6
LTY1
100
AcDbLine
 10
0.125
 20
16.55
 30
0.0
 11
0.125
 21
16.55
 31
0.0
  0
LINE
  5
221
330
B8
100
AcDbEntity
  8
PEN1
  6
LTY1
100
AcDbLine
 10
0.125
 20
16.55
 30
0.0
 11
0.05
 21
16.375
 31
0.0
  0
LINE
  5
222
330
B8
100
AcDbEntity
  8
PEN1
  6
LTY1
100
AcDbLine
 10
0.05
 20
16.375
 30
0.0
 11
0.05
 21
16.375
 31
0.0
  0
LINE
  5
223
330
B8
100
AcDbEntity
  8
PEN1
  6
LTY1
100
AcDbLine
 10
0.05
 20
16.375
 30
0.0
 11
0.05
 21
16.15
 31
0.0
  0
LINE
  5
224
330
B8
100
AcDbEntity
  8
PEN1
  6
LTY1
100
AcDbLine
 10
0.05
 20
16.15
 30
0.0
 11
0.025
 21
16.05
 31
0.0
  0
LINE
  5
225
330
B8
100
AcDbEntity
  8
PEN1
  6
LTY1
100
AcDbLine
 10
8.025
 20
24.775
 30
0.0
 11
8.025
 21
24.775
 31
0.0
  0
LINE
  5
226
330
B8
100
AcDbEntity
  8
PEN1
  6
LTY1
100
AcDbLine
 10
8.025
 20
24.775
 30
0.0
 11
8.125
 21
24.8
 31
0.0
  0
LINE
  5
227
330
B8
100
AcDbEntity
  8
PEN1
  6
LTY1
100
AcDbLine
 10
8.125
 20
24.8
 30
0.0
 11
8.125
 21
24.8
 31
0.0
  0
LINE
  5
228
330
B8
100
AcDbEntity
  8
PEN1
  6
LTY1
100
AcDbLine
 10
8.125
 20
24.8
 30
0.0
 11
8.225
 21
24.85
 31
0.0
  0
LINE
  5
229
330
B8
100
AcDbEntity
  8
PEN1
  6
LTY1
100
AcDbLine
 10
8.225
 20
24.85
 30
0.0
 11
8.225
 21
24.85
 31
0.0
  0
LINE
  5
22A
330
B8
100
AcDbEntity
  8
PEN1
  6
LTY1
100
AcDbLine
 10
8.225
 20
24.85
 30
0.0
 11
8.325
 21
24.85
 31
0.0
  0
LINE
  5
22B
330
B8
100
AcDbEntity
  8
PEN1
  6
LTY1
100
AcDbLine
 10
8.325
 20
24.85
 30
0.0
 11
8.325
 21
24.85
 31
0.0
  0
LINE
  5
22C
330
B8
100
AcDbEntity
  8
PEN1
  6
LTY1
100
AcDbLine
 10
8.325
 20
24.85
 30
0.0
 11
8.4
 21
24.875
 31
0.0
  0
LINE
  5
22D
330
B8
100
AcDbEntity
  8
PEN1
  6
LTY1
100
AcDbLine
 10
8.4
 20
24.875
 30
0.0
 11
8.425
 21
24.875
 31
0.0
  0
LINE
  5
22E
330
B8
100
AcDbEntity
  8
PEN1
  6
LTY1
100
AcDbLine
 10
8.675
 20
24.875
 30
0.0
 11
8.675
 21
24.875
 31
0.0
  0
LINE
  5
22F
330
B8
100
AcDbEntity
  8
PEN1
  6
LTY1
100
AcDbLine
 10
8.675
 20
24.875
 30
0.0
 11
8.7
 21
24.875
 31
0.0
  0
LINE
  5
230
330
B8
100
AcDbEntity
  8
PEN1
  6
LTY1
100
AcDbLine
 10
8.7
 20
24.875
 30
0.0
 11
8.7
 21
24.875
 31
0.0
  0
LINE
  5
231
330
B8
100
AcDbEntity
  8
PEN1
  6
LTY1
100
AcDbLine
 10
8.7
 20
24.875
 30
0.0
 11
8.725
 21
24.85
 31
0.0
  0
LINE
  5
232
330
B8
100
AcDbEntity
  8
PEN1
  6
LTY1
100
AcDbLine
 10
8.725
 20
24.85
 30
0.0
 11
8.725
 21
24.85
 31
0.0
  0
LINE
  5
233
330
B8
100
AcDbEntity
  8
PEN1
  6
LTY1
100
AcDbLine
 10
8.725
 20
24.85
 30
0.0
 11
8.75
 21
24.85
 31
0.0
  0
LINE
  5
234
330
B8
100
AcDbEntity
  8
PEN1
  6
LTY1
100
AcDbLine
 10
8.75
 20
24.85
 30
0.0
 11
8.75
 21
24.85
 31
0.0
  0
LINE
  5
235
330
B8
100
AcDbEntity
  8
PEN1
  6
LTY1
100
AcDbLine
 10
8.75
 20
24.85
 30
0.0
 11
8.75
 21
24.85
 31
0.0
  0
LINE
  5
236
330
B8
100
AcDbEntity
  8
PEN1
  6
LTY1
100
AcDbLine
 10
8.75
 20
24.85
 30
0.0
 11
8.75
 21
24.85
 31
0.0
  0
LINE
  5
237
330
B8
100
AcDbEntity
  8
PEN1
  6
LTY1
100
AcDbLine
 10
8.75
 20
24.85
 30
0.0
 11
8.75
 21
24.825
 31
0.0
  0
LINE
  5
238
330
B8
100
AcDbEntity
  8
PEN1
  6
LTY1
100
AcDbLine
 10
8.75
 20
24.825
 30
0.0
 11
8.75
 21
24.825
 31
0.0
  0
LINE
  5
239
330
B8
100
AcDbEntity
  8
PEN1
  6
LTY1
100
AcDbLine
 10
8.75
 20
24.825
 30
0.0
 11
8.775
 21
24.8
 31
0.0
  0
LINE
  5
23A
330
B8
100
AcDbEntity
  8
PEN1
  6
LTY1
100
AcDbLine
 10
8.775
 20
24.8
 30
0.0
 11
8.775
 21
24.8
 31
0.0
  0
LINE
  5
23B
330
B8
100
AcDbEntity
  8
PEN1
  6
LTY1
100
AcDbLine
 10
8.775
 20
24.8
 30
0.0
 11
8.775
 21
24.775
 31
0.0
  0
LINE
  5
23C
330
B8
100
AcDbEntity
  8
PEN1
  6
LTY1
100
AcDbLine
 10
8.775
 20
24.775
 30
0.0
 11
8.775
 21
24.775
 31
0.0
  0
LINE
  5
23D
330
B8
100
AcDbEntity
  8
PEN1
  6
LTY1
100
AcDbLine
 10
8.775
 20
24.775
 30
0.0
 11
8.775
 21
24.775
 31
0.0
  0
LINE
  5
23E
330
B8
100
AcDbEntity
  8
PEN1
  6
LTY1
100
AcDbLine
 10
8.025
 20
24.025
 30
0.0
 11
8.025
 21
24.025
 31
0.0
  0
LINE
  5
23F
330
B8
100
AcDbEntity
  8
PEN1
  6
LTY1
100
AcDbLine
 10
8.025
 20
24.025
 30
0.0
 11
8.225
 21
23.95
 31
0.0
  0
LINE
  5
240
330
B8
100
AcDbEntity
  8
PEN1
  6
LTY1
100
AcDbLine
 10
8.225
 20
23.95
 30
0.0
 11
8.225
 21
23.95
 31
0.0
  0
LINE
  5
241
330
B8
100
AcDbEntity
  8
PEN1
  6
LTY1
100
AcDbLine
 10
8.225
 20
23.95
 30
0.0
 11
8.35
 21
23.9
 31
0.0
  0
LINE
  5
242
330
B8
100
AcDbEntity
  8
PEN1
  6
LTY1
100
AcDbLine
 10
8.35
 20
23.9
 30
0.0
 11
8.35
 21
23.9
 31
0.0
  0
LINE
  5
243
330
B8
100
AcDbEntity
  8
PEN1
  6
LTY1
100
AcDbLine
 10
8.35
 20
23.9
 30
0.0
 11
8.425
 21
23.875
 31
0.0
  0
LINE
  5
244
330
B8
100
AcDbEntity
  8
PEN1
  6
LTY1
100
AcDbLine
 10
8.425
 20
23.875
 30
0.0
 11
8.425
 21
23.875
 31
0.0
  0
LINE
  5
245
330
B8
100
AcDbEntity
  8
PEN1
  6
LTY1
100
AcDbLine
 10
8.425
 20
23.875
 30
0.0
 11
8.475
 21
23.85
 31
0.0
  0
LINE
  5
246
330
B8
100
AcDbEntity
  8
PEN1
  6
LTY1
100
AcDbLine
 10
8.475
 20
23.85
 30
0.0
 11
8.475
 21
23.85
 31
0.0
  0
LINE
  5
247
330
B8
100
AcDbEntity
  8
PEN1
  6
LTY1
100
AcDbLine
 10
8.475
 20
23.85
 30
0.0
 11
8.525
 21
23.825
 31
0.0
  0
LINE
  5
248
330
B8
100
AcDbEntity
  8
PEN1
  6
LTY1
100
AcDbLine
 10
8.525
 20
23.825
 30
0.0
 11
8.525
 21
23.825
 31
0.0
  0
LINE
  5
249
330
B8
100
AcDbEntity
  8
PEN1
  6
LTY1
100
AcDbLine
 10
8.525
 20
23.825
 30
0.0
 11
8.575
 21
23.8
 31
0.0
  0
LINE
  5
24A
330
B8
100
AcDbEntity
  8
PEN1
  6
LTY1
100
AcDbLine
 10
8.575
 20
23.8
 30
0.0
 11
8.575
 21
23.8
 31
0.0
  0
LINE
  5
24B
330
B8
100
AcDbEntity
  8
PEN1
  6
LTY1
100
AcDbLine
 10
8.575
 20
23.8
 30
0.0
 11
8.65
 21
23.725
 31
0.0
  0
LINE
  5
24C
330
B8
100
AcDbEntity
  8
PEN1
  6
LTY1
100
AcDbLine
 10
8.65
 20
23.725
 30
0.0
 11
8.65
 21
23.725
 31
0.0
  0
LINE
  5
24D
330
B8
100
AcDbEntity
  8
PEN1
  6
LTY1
100
AcDbLine
 10
8.65
 20
23.725
 30
0.0
 11
8.725
 21
23.675
 31
0.0
  0
LINE
  5
24E
330
B8
100
AcDbEntity
  8
PEN1
  6
LTY1
100
AcDbLine
 10
8.725
 20
23.675
 30
0.0
 11
8.725
 21
23.675
 31
0.0
  0
LINE
  5
24F
330
B8
100
AcDbEntity
  8
PEN1
  6
LTY1
100
AcDbLine
 10
8.725
 20
23.675
 30
0.0
 11
8.75
 21
23.6
 31
0.0
  0
LINE
  5
250
330
B8
100
AcDbEntity
  8
PEN1
  6
LTY1
100
AcDbLine
 10
8.75
 20
23.6
 30
0.0
 11
8.75
 21
23.6
 31
0.0
  0
LINE
  5
251
330
B8
100
AcDbEntity
  8
PEN1
  6
LTY1
100
AcDbLine
 10
8.75
 20
23.6
 30
0.0
 11
8.775
 21
23.55
 31
0.0
  0
LINE
  5
252
330
B8
100
AcDbEntity
  8
PEN1
  6
LTY1
100
AcDbLine
 10
8.775
 20
23.55
 30
0.0
 11
8.775
 21
23.525
 31
0.0
  0
LINE
  5
253
330
B8
100
AcDbEntity
  8
PEN1
  6
LTY1
100
AcDbLine
 10
8.025
 20
22.75
 30
0.0
 11
8.025
 21
22.75
 31
0.0
  0
LINE
  5
254
330
B8
100
AcDbEntity
  8
PEN1
  6
LTY1
100
AcDbLine
 10
8.025
 20
22.75
 30
0.0
 11
8.25
 21
22.75
 31
0.0
  0
LINE
  5
255
330
B8
100
AcDbEntity
  8
PEN1
  6
LTY1
100
AcDbLine
 10
8.25
 20
22.75
 30
0.0
 11
8.25
 21
22.75
 31
0.0
  0
LINE
  5
256
330
B8
100
AcDbEntity
  8
PEN1
  6
LTY1
100
AcDbLine
 10
8.25
 20
22.75
 30
0.0
 11
8.425
 21
22.775
 31
0.0
  0
LINE
  5
257
330
B8
100
AcDbEntity
  8
PEN1
  6
LTY1
100
AcDbLine
 10
8.425
 20
22.775
 30
0.0
 11
8.425
 21
22.775
 31
0.0
  0
LINE
  5
258
330
B8
100
AcDbEntity
  8
PEN1
  6
LTY1
100
AcDbLine
 10
8.425
 20
22.775
 30
0.0
 11
8.55
 21
22.8
 31
0.0
  0
LINE
  5
259
330
B8
100
AcDbEntity
  8
PEN1
  6
LTY1
100
AcDbLine
 10
8.55
 20
22.8
 30
0.0
 11
8.55
 21
22.8
 31
0.0
  0
LINE
  5
25A
330
B8
100
AcDbEntity
  8
PEN1
  6
LTY1
100
AcDbLine
 10
8.55
 20
22.8
 30
0.0
 11
8.65
 21
22.8
 31
0.0
  0
LINE
  5
25B
330
B8
100
AcDbEntity
  8
PEN1
  6
LTY1
100
AcDbLine
 10
8.65
 20
22.8
 30
0.0
 11
8.65
 21
22.8
 31
0.0
  0
LINE
  5
25C
330
B8
100
AcDbEntity
  8
PEN1
  6
LTY1
100
AcDbLine
 10
8.65
 20
22.8
 30
0.0
 11
8.725
 21
22.825
 31
0.0
  0
LINE
  5
25D
330
B8
100
AcDbEntity
  8
PEN1
  6
LTY1
100
AcDbLine
 10
8.725
 20
22.825
 30
0.0
 11
8.725
 21
22.825
 31
0.0
  0
LINE
  5
25E
330
B8
100
AcDbEntity
  8
PEN1
  6
LTY1
100
AcDbLine
 10
8.725
 20
22.825
 30
0.0
 11
8.75
 21
22.85
 31
0.0
  0
LINE
  5
25F
330
B8
100
AcDbEntity
  8
PEN1
  6
LTY1
100
AcDbLine
 10
8.75
 20
22.85
 30
0.0
 11
8.75
 21
22.85
 31
0.0
  0
LINE
  5
260
330
B8
100
AcDbEntity
  8
PEN1
  6
LTY1
100
AcDbLine
 10
8.75
 20
22.85
 30
0.0
 11
8.775
 21
22.875
 31
0.0
  0
LINE
  5
261
330
B8
100
AcDbEntity
  8
PEN1
  6
LTY1
100
AcDbLine
 10
8.775
 20
22.875
 30
0.0
 11
8.775
 21
22.875
 31
0.0
  0
LINE
  5
262
330
B8
100
AcDbEntity
  8
PEN1
  6
LTY1
100
AcDbLine
 10
8.775
 20
22.875
 30
0.0
 11
8.775
 21
22.875
 31
0.0
  0
LINE
  5
263
330
B8
100
AcDbEntity
  8
PEN1
  6
LTY1
100
AcDbLine
 10
8.775
 20
22.875
 30
0.0
 11
8.775
 21
22.9
 31
0.0
  0
LINE
  5
264
330
B8
100
AcDbEntity
  8
PEN1
  6
LTY1
100
AcDbLine
 10
8.025
 20
18.975
 30
0.0
 11
8.025
 21
18.975
 31
0.0
  0
LINE
  5
265
330
B8
100
AcDbEntity
  8
PEN1
  6
LTY1
100
AcDbLine
 10
8.025
 20
18.975
 30
0.0
 11
8.225
 21
18.975
 31
0.0
  0
LINE
  5
266
330
B8
100
AcDbEntity
  8
PEN1
  6
LTY1
100
AcDbLine
 10
8.225
 20
18.975
 30
0.0
 11
8.225
 21
18.975
 31
0.0
  0
LINE
  5
267
330
B8
100
AcDbEntity
  8
PEN1
  6
LTY1
100
AcDbLine
 10
8.225
 20
18.975
 30
0.0
 11
8.425
 21
18.95
 31
0.0
  0
LINE
  5
268
330
B8
100
AcDbEntity
  8
PEN1
  6
LTY1
100
AcDbLine
 10
8.425
 20
18.95
 30
0.0
 11
8.425
 21
18.95
 31
0.0
  0
LINE
  5
269
330
B8
100
AcDbEntity
  8
PEN1
  6
LTY1
100
AcDbLine
 10
8.425
 20
18.95
 30
0.0
 11
8.525
 21
18.925
 31
0.0
  0
LINE
  5
26A
330
B8
100
AcDbEntity
  8
PEN1
  6
LTY1
100
AcDbLine
 10
8.525
 20
18.925
 30
0.0
 11
8.525
 21
18.925
 31
0.0
  0
LINE
  5
26B
330
B8
100
AcDbEntity
  8
PEN1
  6
LTY1
100
AcDbLine
 10
8.525
 20
18.925
 30
0.0
 11
8.625
 21
18.9
 31
0.0
  0
LINE
  5
26C
330
B8
100
AcDbEntity
  8
PEN1
  6
LTY1
100
AcDbLine
 10
8.625
 20
18.9
 30
0.0
 11
8.625
 21
18.9
 31
0.0
  0
LINE
  5
26D
330
B8
100
AcDbEntity
  8
PEN1
  6
LTY1
100
AcDbLine
 10
8.625
 20
18.9
 30
0.0
 11
8.7
 21
18.875
 31
0.0
  0
LINE
  5
26E
330
B8
100
AcDbEntity
  8
PEN1
  6
LTY1
100
AcDbLine
 10
8.7
 20
18.875
 30
0.0
 11
8.7
 21
18.875
 31
0.0
  0
LINE
  5
26F
330
B8
100
AcDbEntity
  8
PEN1
  6
LTY1
100
AcDbLine
 10
8.7
 20
18.875
 30
0.0
 11
8.75
 21
18.825
 31
0.0
  0
LINE
  5
270
330
B8
100
AcDbEntity
  8
PEN1
  6
LTY1
100
AcDbLine
 10
8.75
 20
18.825
 30
0.0
 11
8.75
 21
18.825
 31
0.0
  0
LINE
  5
271
330
B8
100
AcDbEntity
  8
PEN1
  6
LTY1
100
AcDbLine
 10
8.75
 20
18.825
 30
0.0
 11
8.775
 21
18.8
 31
0.0
  0
LINE
  5
272
330
B8
100
AcDbEntity
  8
PEN1
  6
LTY1
100
AcDbLine
 10
8.775
 20
18.8
 30
0.0
 11
8.775
 21
18.8
 31
0.0
  0
LINE
  5
273
330
B8
100
AcDbEntity
  8
PEN1
  6
LTY1
100
AcDbLine
 10
8.775
 20
18.8
 30
0.0
 11
8.775
 21
18.775
 31
0.0
  0
LINE
  5
274
330
B8
100
AcDbEntity
  8
PEN1
  6
LTY1
100
AcDbLine
 10
8.025
 20
17.275
 30
0.0
 11
8.025
 21
17.275
 31
0.0
  0
LINE
  5
275
330
B8
100
AcDbEntity
  8
PEN1
  6
LTY1
100
AcDbLine
 10
8.025
 20
17.275
 30
0.0
 11
8.1
 21
17.275
 31
0.0
  0
LINE
  5
276
330
B8
100
AcDbEntity
  8
PEN1
  6
LTY1
100
AcDbLine
 10
8.1
 20
17.275
 30
0.0
 11
8.1
 21
17.275
 31
0.0
  0
LINE
  5
277
330
B8
100
AcDbEntity
  8
PEN1
  6
LTY1
100
AcDbLine
 10
8.1
 20
17.275
 30
0.0
 11
8.175
 21
17.25
 31
0.0
  0
LINE
  5
278
330
B8
100
AcDbEntity
  8
PEN1
  6
LTY1
100
AcDbLine
 10
8.175
 20
17.25
 30
0.0
 11
8.175
 21
17.25
 31
0.0
  0
LINE
  5
279
330
B8
100
AcDbEntity
  8
PEN1
  6
LTY1
100
AcDbLine
 10
8.175
 20
17.25
 30
0.0
 11
8.3
 21
17.175
 31
0.0
  0
LINE
  5
27A
330
B8
100
AcDbEntity
  8
PEN1
  6
LTY1
100
AcDbLine
 10
8.3
 20
17.175
 30
0.0
 11
8.3
 21
17.175
 31
0.0
  0
LINE
  5
27B
330
B8
100
AcDbEntity
  8
PEN1
  6
LTY1
100
AcDbLine
 10
8.3
 20
17.175
 30
0.0
 11
8.425
 21
17.075
 31
0.0
  0
LINE
  5
27C
330
B8
100
AcDbEntity
  8
PEN1
  6
LTY1
100
AcDbLine
 10
8.425
 20
17.075
 30
0.0
 11
8.425
 21
17.075
 31
0.0
  0
LINE
  5
27D
330
B8
100
AcDbEntity
  8
PEN1
  6
LTY1
100
AcDbLine
 10
8.425
 20
17.075
 30
0.0
 11
8.55
 21
16.95
 31
0.0
  0
LINE
  5
27E
330
B8
100
AcDbEntity
  8
PEN1
  6
LTY1
100
AcDbLine
 10
8.55
 20
16.95
 30
0.0
 11
8.55
 21
16.95
 31
0.0
  0
LINE
  5
27F
330
B8
100
AcDbEntity
  8
PEN1
  6
LTY1
100
AcDbLine
 10
8.55
 20
16.95
 30
0.0
 11
8.625
 21
16.8
 31
0.0
  0
LINE
  5
280
330
B8
100
AcDbEntity
  8
PEN1
  6
LTY1
100
AcDbLine
 10
8.625
 20
16.8
 30
0.0
 11
8.625
 21
16.8
 31
0.0
  0
LINE
  5
281
330
B8
100
AcDbEntity
  8
PEN1
  6
LTY1
100
AcDbLine
 10
8.625
 20
16.8
 30
0.0
 11
8.7
 21
16.625
 31
0.0
  0
LINE
  5
282
330
B8
100
AcDbEntity
  8
PEN1
  6
LTY1
100
AcDbLine
 10
8.7
 20
16.625
 30
0.0
 11
8.7
 21
16.625
 31
0.0
  0
LINE
  5
283
330
B8
100
AcDbEntity
  8
PEN1
  6
LTY1
100
AcDbLine
 10
8.7
 20
16.625
 30
0.0
 11
8.75
 21
16.425
 31
0.0
  0
LINE
  5
284
330
B8
100
AcDbEntity
  8
PEN1
  6
LTY1
100
AcDbLine
 10
8.75
 20
16.425
 30
0.0
 11
8.75
 21
16.425
 31
0.0
  0
LINE
  5
285
330
B8
100
AcDbEntity
  8
PEN1
  6
LTY1
100
AcDbLine
 10
8.75
 20
16.425
 30
0.0
 11
8.775
 21
16.3
 31
0.0
  0
LINE
  5
286
330
B8
100
AcDbEntity
  8
PEN1
  6
LTY1
100
AcDbLine
 10
8.775
 20
16.3
 30
0.0
 11
8.775
 21
16.3
 31
0.0
  0
LINE
  5
287
330
B8
100
AcDbEntity
  8
PEN1
  6
LTY1
100
AcDbLine
 10
8.775
 20
16.3
 30
0.0
 11
8.775
 21
16.125
 31
0.0
  0
LINE
  5
288
330
B8
100
AcDbEntity
  8
PEN1
  6
LTY1
100
AcDbLine
 10
8.025
 20
17.175
 30
0.0
 11
8.025
 21
17.175
 31
0.0
  0
LINE
  5
289
330
B8
100
AcDbEntity
  8
PEN1
  6
LTY1
100
AcDbLine
 10
8.025
 20
17.175
 30
0.0
 11
8.1
 21
17.175
 31
0.0
  0
LINE
  5
28A
330
B8
100
AcDbEntity
  8
PEN1
  6
LTY1
100
AcDbLine
 10
8.1
 20
17.175
 30
0.0
 11
8.1
 21
17.175
 31
0.0
  0
LINE
  5
28B
330
B8
100
AcDbEntity
  8
PEN1
  6
LTY1
100
AcDbLine
 10
8.1
 20
17.175
 30
0.0
 11
8.225
 21
17.15
 31
0.0
  0
LINE
  5
28C
330
B8
100
AcDbEntity
  8
PEN1
  6
LTY1
100
AcDbLine
 10
8.225
 20
17.15
 30
0.0
 11
8.225
 21
17.15
 31
0.0
  0
LINE
  5
28D
330
B8
100
AcDbEntity
  8
PEN1
  6
LTY1
100
AcDbLine
 10
8.225
 20
17.15
 30
0.0
 11
8.325
 21
17.1
 31
0.0
  0
LINE
  5
28E
330
B8
100
AcDbEntity
  8
PEN1
  6
LTY1
100
AcDbLine
 10
8.325
 20
17.1
 30
0.0
 11
8.325
 21
17.1
 31
0.0
  0
LINE
  5
28F
330
B8
100
AcDbEntity
  8
PEN1
  6
LTY1
100
AcDbLine
 10
8.325
 20
17.1
 30
0.0
 11
8.425
 21
17.025
 31
0.0
  0
LINE
  5
290
330
B8
100
AcDbEntity
  8
PEN1
  6
LTY1
100
AcDbLine
 10
8.425
 20
17.025
 30
0.0
 11
8.425
 21
17.025
 31
0.0
  0
LINE
  5
291
330
B8
100
AcDbEntity
  8
PEN1
  6
LTY1
100
AcDbLine
 10
8.425
 20
17.025
 30
0.0
 11
8.525
 21
16.9
 31
0.0
  0
LINE
  5
292
330
B8
100
AcDbEntity
  8
PEN1
  6
LTY1
100
AcDbLine
 10
8.525
 20
16.9
 30
0.0
 11
8.525
 21
16.9
 31
0.0
  0
LINE
  5
293
330
B8
100
AcDbEntity
  8
PEN1
  6
LTY1
100
AcDbLine
 10
8.525
 20
16.9
 30
0.0
 11
8.625
 21
16.725
 31
0.0
  0
LINE
  5
294
330
B8
100
AcDbEntity
  8
PEN1
  6
LTY1
100
AcDbLine
 10
8.625
 20
16.725
 30
0.0
 11
8.625
 21
16.725
 31
0.0
  0
LINE
  5
295
330
B8
100
AcDbEntity
  8
PEN1
  6
LTY1
100
AcDbLine
 10
8.625
 20
16.725
 30
0.0
 11
8.7
 21
16.55
 31
0.0
  0
LINE
  5
296
330
B8
100
AcDbEntity
  8
PEN1
  6
LTY1
100
AcDbLine
 10
8.7
 20
16.55
 30
0.0
 11
8.7
 21
16.55
 31
0.0
  0
LINE
  5
297
330
B8
100
AcDbEntity
  8
PEN1
  6
LTY1
100
AcDbLine
 10
8.7
 20
16.55
 30
0.0
 11
8.75
 21
16.375
 31
0.0
  0
LINE
  5
298
330
B8
100
AcDbEntity
  8
PEN1
  6
LTY1
100
AcDbLine
 10
8.75
 20
16.375
 30
0.0
 11
8.75
 21
16.375
 31
0.0
  0
LINE
  5
299
330
B8
100
AcDbEntity
  8
PEN1
  6
LTY1
100
AcDbLine
 10
8.75
 20
16.375
 30
0.0
 11
8.775
 21
16.15
 31
0.0
  0
LINE
  5
29A
330
B8
100
AcDbEntity
  8
PEN1
  6
LTY1
100
AcDbLine
 10
8.775
 20
16.15
 30
0.0
 11
8.775
 21
16.05
 31
0.0
  0
LINE
  5
29B
330
B8
100
AcDbEntity
  8
PEN1
  6
LTY1
100
AcDbLine
 10
8.025
 20
-24.6
 30
0.0
 11
8.025
 21
-24.6
 31
0.0
  0
LINE
  5
29C
330
B8
100
AcDbEntity
  8
PEN1
  6
LTY1
100
AcDbLine
 10
8.025
 20
-24.6
 30
0.0
 11
8.125
 21
-24.65
 31
0.0
  0
LINE
  5
29D
330
B8
100
AcDbEntity
  8
PEN1
  6
LTY1
100
AcDbLine
 10
8.125
 20
-24.65
 30
0.0
 11
8.125
 21
-24.65
 31
0.0
  0
LINE
  5
29E
330
B8
100
AcDbEntity
  8
PEN1
  6
LTY1
100
AcDbLine
 10
8.125
 20
-24.65
 30
0.0
 11
8.225
 21
-24.675
 31
0.0
  0
LINE
  5
29F
330
B8
100
AcDbEntity
  8
PEN1
  6
LTY1
100
AcDbLine
 10
8.225
 20
-24.675
 30
0.0
 11
8.225
 21
-24.675
 31
0.0
  0
LINE
  5
2A0
330
B8
100
AcDbEntity
  8
PEN1
  6
LTY1
100
AcDbLine
 10
8.225
 20
-24.675
 30
0.0
 11
8.325
 21
-24.7
 31
0.0
  0
LINE
  5
2A1
330
B8
100
AcDbEntity
  8
PEN1
  6
LTY1
100
AcDbLine
 10
8.325
 20
-24.7
 30
0.0
 11
8.325
 21
-24.7
 31
0.0
  0
LINE
  5
2A2
330
B8
100
AcDbEntity
  8
PEN1
  6
LTY1
100
AcDbLine
 10
8.325
 20
-24.7
 30
0.0
 11
8.4
 21
-24.725
 31
0.0
  0
LINE
  5
2A3
330
B8
100
AcDbEntity
  8
PEN1
  6
LTY1
100
AcDbLine
 10
8.4
 20
-24.725
 30
0.0
 11
8.425
 21
-24.725
 31
0.0
  0
LINE
  5
2A4
330
B8
100
AcDbEntity
  8
PEN1
  6
LTY1
100
AcDbLine
 10
8.675
 20
-24.725
 30
0.0
 11
8.675
 21
-24.725
 31
0.0
  0
LINE
  5
2A5
330
B8
100
AcDbEntity
  8
PEN1
  6
LTY1
100
AcDbLine
 10
8.675
 20
-24.725
 30
0.0
 11
8.7
 21
-24.725
 31
0.0
  0
LINE
  5
2A6
330
B8
100
AcDbEntity
  8
PEN1
  6
LTY1
100
AcDbLine
 10
8.7
 20
-24.725
 30
0.0
 11
8.7
 21
-24.725
 31
0.0
  0
LINE
  5
2A7
330
B8
100
AcDbEntity
  8
PEN1
  6
LTY1
100
AcDbLine
 10
8.7
 20
-24.725
 30
0.0
 11
8.725
 21
-24.7
 31
0.0
  0
LINE
  5
2A8
330
B8
100
AcDbEntity
  8
PEN1
  6
LTY1
100
AcDbLine
 10
8.725
 20
-24.7
 30
0.0
 11
8.725
 21
-24.7
 31
0.0
  0
LINE
  5
2A9
330
B8
100
AcDbEntity
  8
PEN1
  6
LTY1
100
AcDbLine
 10
8.725
 20
-24.7
 30
0.0
 11
8.75
 21
-24.7
 31
0.0
  0
LINE
  5
2AA
330
B8
100
AcDbEntity
  8
PEN1
  6
LTY1
100
AcDbLine
 10
8.75
 20
-24.7
 30
0.0
 11
8.75
 21
-24.7
 31
0.0
  0
LINE
  5
2AB
330
B8
100
AcDbEntity
  8
PEN1
  6
LTY1
100
AcDbLine
 10
8.75
 20
-24.7
 30
0.0
 11
8.75
 21
-24.675
 31
0.0
  0
LINE
  5
2AC
330
B8
100
AcDbEntity
  8
PEN1
  6
LTY1
100
AcDbLine
 10
8.75
 20
-24.675
 30
0.0
 11
8.75
 21
-24.675
 31
0.0
  0
LINE
  5
2AD
330
B8
100
AcDbEntity
  8
PEN1
  6
LTY1
100
AcDbLine
 10
8.75
 20
-24.675
 30
0.0
 11
8.75
 21
-24.675
 31
0.0
  0
LINE
  5
2AE
330
B8
100
AcDbEntity
  8
PEN1
  6
LTY1
100
AcDbLine
 10
8.75
 20
-24.675
 30
0.0
 11
8.75
 21
-24.675
 31
0.0
  0
LINE
  5
2AF
330
B8
100
AcDbEntity
  8
PEN1
  6
LTY1
100
AcDbLine
 10
8.75
 20
-24.675
 30
0.0
 11
8.775
 21
-24.675
 31
0.0
  0
LINE
  5
2B0
330
B8
100
AcDbEntity
  8
PEN1
  6
LTY1
100
AcDbLine
 10
8.775
 20
-24.675
 30
0.0
 11
8.775
 21
-24.675
 31
0.0
  0
LINE
  5
2B1
330
B8
100
AcDbEntity
  8
PEN1
  6
LTY1
100
AcDbLine
 10
8.775
 20
-24.675
 30
0.0
 11
8.775
 21
-24.65
 31
0.0
  0
LINE
  5
2B2
330
B8
100
AcDbEntity
  8
PEN1
  6
LTY1
100
AcDbLine
 10
8.775
 20
-24.65
 30
0.0
 11
8.775
 21
-24.65
 31
0.0
  0
LINE
  5
2B3
330
B8
100
AcDbEntity
  8
PEN1
  6
LTY1
100
AcDbLine
 10
8.775
 20
-24.65
 30
0.0
 11
8.775
 21
-24.625
 31
0.0
  0
LINE
  5
2B4
330
B8
100
AcDbEntity
  8
PEN1
  6
LTY1
100
AcDbLine
 10
8.025
 20
-19.075
 30
0.0
 11
8.025
 21
-19.075
 31
0.0
  0
LINE
  5
2B5
330
B8
100
AcDbEntity
  8
PEN1
  6
LTY1
100
AcDbLine
 10
8.025
 20
-19.075
 30
0.0
 11
8.225
 21
-19.075
 31
0.0
  0
LINE
  5
2B6
330
B8
100
AcDbEntity
  8
PEN1
  6
LTY1
100
AcDbLine
 10
8.225
 20
-19.075
 30
0.0
 11
8.225
 21
-19.075
 31
0.0
  0
LINE
  5
2B7
330
B8
100
AcDbEntity
  8
PEN1
  6
LTY1
100
AcDbLine
 10
8.225
 20
-19.075
 30
0.0
 11
8.425
 21
-19.05
 31
0.0
  0
LINE
  5
2B8
330
B8
100
AcDbEntity
  8
PEN1
  6
LTY1
100
AcDbLine
 10
8.425
 20
-19.05
 30
0.0
 11
8.425
 21
-19.05
 31
0.0
  0
LINE
  5
2B9
330
B8
100
AcDbEntity
  8
PEN1
  6
LTY1
100
AcDbLine
 10
8.425
 20
-19.05
 30
0.0
 11
8.525
 21
-19.025
 31
0.0
  0
LINE
  5
2BA
330
B8
100
AcDbEntity
  8
PEN1
  6
LTY1
100
AcDbLine
 10
8.525
 20
-19.025
 30
0.0
 11
8.525
 21
-19.025
 31
0.0
  0
LINE
  5
2BB
330
B8
100
AcDbEntity
  8
PEN1
  6
LTY1
100
AcDbLine
 10
8.525
 20
-19.025
 30
0.0
 11
8.625
 21
-19.0
 31
0.0
  0
LINE
  5
2BC
330
B8
100
AcDbEntity
  8
PEN1
  6
LTY1
100
AcDbLine
 10
8.625
 20
-19.0
 30
0.0
 11
8.625
 21
-19.0
 31
0.0
  0
LINE
  5
2BD
330
B8
100
AcDbEntity
  8
PEN1
  6
LTY1
100
AcDbLine
 10
8.625
 20
-19.0
 30
0.0
 11
8.7
 21
-18.975
 31
0.0
  0
LINE
  5
2BE
330
B8
100
AcDbEntity
  8
PEN1
  6
LTY1
100
AcDbLine
 10
8.7
 20
-18.975
 30
0.0
 11
8.7
 21
-18.975
 31
0.0
  0
LINE
  5
2BF
330
B8
100
AcDbEntity
  8
PEN1
  6
LTY1
100
AcDbLine
 10
8.7
 20
-18.975
 30
0.0
 11
8.75
 21
-18.925
 31
0.0
  0
LINE
  5
2C0
330
B8
100
AcDbEntity
  8
PEN1
  6
LTY1
100
AcDbLine
 10
8.75
 20
-18.925
 30
0.0
 11
8.75
 21
-18.925
 31
0.0
  0
LINE
  5
2C1
330
B8
100
AcDbEntity
  8
PEN1
  6
LTY1
100
AcDbLine
 10
8.75
 20
-18.925
 30
0.0
 11
8.775
 21
-18.875
 31
0.0
  0
LINE
  5
2C2
330
B8
100
AcDbEntity
  8
PEN1
  6
LTY1
100
AcDbLine
 10
8.775
 20
-18.875
 30
0.0
 11
8.775
 21
-18.875
 31
0.0
  0
LINE
  5
2C3
330
B8
100
AcDbEntity
  8
PEN1
  6
LTY1
100
AcDbLine
 10
8.775
 20
-18.875
 30
0.0
 11
8.775
 21
-18.875
 31
0.0
  0
LINE
  5
2C4
330
B8
100
AcDbEntity
  8
PEN1
  6
LTY1
100
AcDbLine
 10
8.025
 20
-17.35
 30
0.0
 11
8.025
 21
-17.35
 31
0.0
  0
LINE
  5
2C5
330
B8
100
AcDbEntity
  8
PEN1
  6
LTY1
100
AcDbLine
 10
8.025
 20
-17.35
 30
0.0
 11
8.1
 21
-17.35
 31
0.0
  0
LINE
  5
2C6
330
B8
100
AcDbEntity
  8
PEN1
  6
LTY1
100
AcDbLine
 10
8.1
 20
-17.35
 30
0.0
 11
8.1
 21
-17.35
 31
0.0
  0
LINE
  5
2C7
330
B8
100
AcDbEntity
  8
PEN1
  6
LTY1
100
AcDbLine
 10
8.1
 20
-17.35
 30
0.0
 11
8.175
 21
-17.325
 31
0.0
  0
LINE
  5
2C8
330
B8
100
AcDbEntity
  8
PEN1
  6
LTY1
100
AcDbLine
 10
8.175
 20
-17.325
 30
0.0
 11
8.175
 21
-17.325
 31
0.0
  0
LINE
  5
2C9
330
B8
100
AcDbEntity
  8
PEN1
  6
LTY1
100
AcDbLine
 10
8.175
 20
-17.325
 30
0.0
 11
8.3
 21
-17.275
 31
0.0
  0
LINE
  5
2CA
330
B8
100
AcDbEntity
  8
PEN1
  6
LTY1
100
AcDbLine
 10
8.3
 20
-17.275
 30
0.0
 11
8.3
 21
-17.275
 31
0.0
  0
LINE
  5
2CB
330
B8
100
AcDbEntity
  8
PEN1
  6
LTY1
100
AcDbLine
 10
8.3
 20
-17.275
 30
0.0
 11
8.425
 21
-17.175
 31
0.0
  0
LINE
  5
2CC
330
B8
100
AcDbEntity
  8
PEN1
  6
LTY1
100
AcDbLine
 10
8.425
 20
-17.175
 30
0.0
 11
8.425
 21
-17.175
 31
0.0
  0
LINE
  5
2CD
330
B8
100
AcDbEntity
  8
PEN1
  6
LTY1
100
AcDbLine
 10
8.425
 20
-17.175
 30
0.0
 11
8.55
 21
-17.05
 31
0.0
  0
LINE
  5
2CE
330
B8
100
AcDbEntity
  8
PEN1
  6
LTY1
100
AcDbLine
 10
8.55
 20
-17.05
 30
0.0
 11
8.55
 21
-17.05
 31
0.0
  0
LINE
  5
2CF
330
B8
100
AcDbEntity
  8
PEN1
  6
LTY1
100
AcDbLine
 10
8.55
 20
-17.05
 30
0.0
 11
8.625
 21
-16.9
 31
0.0
  0
LINE
  5
2D0
330
B8
100
AcDbEntity
  8
PEN1
  6
LTY1
100
AcDbLine
 10
8.625
 20
-16.9
 30
0.0
 11
8.625
 21
-16.9
 31
0.0
  0
LINE
  5
2D1
330
B8
100
AcDbEntity
  8
PEN1
  6
LTY1
100
AcDbLine
 10
8.625
 20
-16.9
 30
0.0
 11
8.7
 21
-16.75
 31
0.0
  0
LINE
  5
2D2
330
B8
100
AcDbEntity
  8
PEN1
  6
LTY1
100
AcDbLine
 10
8.7
 20
-16.75
 30
0.0
 11
8.7
 21
-16.75
 31
0.0
  0
LINE
  5
2D3
330
B8
100
AcDbEntity
  8
PEN1
  6
LTY1
100
AcDbLine
 10
8.7
 20
-16.75
 30
0.0
 11
8.75
 21
-16.525
 31
0.0
  0
LINE
  5
2D4
330
B8
100
AcDbEntity
  8
PEN1
  6
LTY1
100
AcDbLine
 10
8.75
 20
-16.525
 30
0.0
 11
8.75
 21
-16.525
 31
0.0
  0
LINE
  5
2D5
330
B8
100
AcDbEntity
  8
PEN1
  6
LTY1
100
AcDbLine
 10
8.75
 20
-16.525
 30
0.0
 11
8.775
 21
-16.4
 31
0.0
  0
LINE
  5
2D6
330
B8
100
AcDbEntity
  8
PEN1
  6
LTY1
100
AcDbLine
 10
8.775
 20
-16.4
 30
0.0
 11
8.775
 21
-16.4
 31
0.0
  0
LINE
  5
2D7
330
B8
100
AcDbEntity
  8
PEN1
  6
LTY1
100
AcDbLine
 10
8.775
 20
-16.4
 30
0.0
 11
8.775
 21
-16.2
 31
0.0
  0
LINE
  5
2D8
330
B8
100
AcDbEntity
  8
PEN1
  6
LTY1
100
AcDbLine
 10
8.025
 20
-17.3
 30
0.0
 11
8.025
 21
-17.3
 31
0.0
  0
LINE
  5
2D9
330
B8
100
AcDbEntity
  8
PEN1
  6
LTY1
100
AcDbLine
 10
8.025
 20
-17.3
 30
0.0
 11
8.1
 21
-17.275
 31
0.0
  0
LINE
  5
2DA
330
B8
100
AcDbEntity
  8
PEN1
  6
LTY1
100
AcDbLine
 10
8.1
 20
-17.275
 30
0.0
 11
8.1
 21
-17.275
 31
0.0
  0
LINE
  5
2DB
330
B8
100
AcDbEntity
  8
PEN1
  6
LTY1
100
AcDbLine
 10
8.1
 20
-17.275
 30
0.0
 11
8.225
 21
-17.25
 31
0.0
  0
LINE
  5
2DC
330
B8
100
AcDbEntity
  8
PEN1
  6
LTY1
100
AcDbLine
 10
8.225
 20
-17.25
 30
0.0
 11
8.225
 21
-17.25
 31
0.0
  0
LINE
  5
2DD
330
B8
100
AcDbEntity
  8
PEN1
  6
LTY1
100
AcDbLine
 10
8.225
 20
-17.25
 30
0.0
 11
8.325
 21
-17.2
 31
0.0
  0
LINE
  5
2DE
330
B8
100
AcDbEntity
  8
PEN1
  6
LTY1
100
AcDbLine
 10
8.325
 20
-17.2
 30
0.0
 11
8.325
 21
-17.2
 31
0.0
  0
LINE
  5
2DF
330
B8
100
AcDbEntity
  8
PEN1
  6
LTY1
100
AcDbLine
 10
8.325
 20
-17.2
 30
0.0
 11
8.425
 21
-17.1
 31
0.0
  0
LINE
  5
2E0
330
B8
100
AcDbEntity
  8
PEN1
  6
LTY1
100
AcDbLine
 10
8.425
 20
-17.1
 30
0.0
 11
8.425
 21
-17.1
 31
0.0
  0
LINE
  5
2E1
330
B8
100
AcDbEntity
  8
PEN1
  6
LTY1
100
AcDbLine
 10
8.425
 20
-17.1
 30
0.0
 11
8.525
 21
-17.0
 31
0.0
  0
LINE
  5
2E2
330
B8
100
AcDbEntity
  8
PEN1
  6
LTY1
100
AcDbLine
 10
8.525
 20
-17.0
 30
0.0
 11
8.525
 21
-17.0
 31
0.0
  0
LINE
  5
2E3
330
B8
100
AcDbEntity
  8
PEN1
  6
LTY1
100
AcDbLine
 10
8.525
 20
-17.0
 30
0.0
 11
8.625
 21
-16.85
 31
0.0
  0
LINE
  5
2E4
330
B8
100
AcDbEntity
  8
PEN1
  6
LTY1
100
AcDbLine
 10
8.625
 20
-16.85
 30
0.0
 11
8.625
 21
-16.85
 31
0.0
  0
LINE
  5
2E5
330
B8
100
AcDbEntity
  8
PEN1
  6
LTY1
100
AcDbLine
 10
8.625
 20
-16.85
 30
0.0
 11
8.7
 21
-16.675
 31
0.0
  0
LINE
  5
2E6
330
B8
100
AcDbEntity
  8
PEN1
  6
LTY1
100
AcDbLine
 10
8.7
 20
-16.675
 30
0.0
 11
8.7
 21
-16.675
 31
0.0
  0
LINE
  5
2E7
330
B8
100
AcDbEntity
  8
PEN1
  6
LTY1
100
AcDbLine
 10
8.7
 20
-16.675
 30
0.0
 11
8.75
 21
-16.475
 31
0.0
  0
LINE
  5
2E8
330
B8
100
AcDbEntity
  8
PEN1
  6
LTY1
100
AcDbLine
 10
8.75
 20
-16.475
 30
0.0
 11
8.75
 21
-16.475
 31
0.0
  0
LINE
  5
2E9
330
B8
100
AcDbEntity
  8
PEN1
  6
LTY1
100
AcDbLine
 10
8.75
 20
-16.475
 30
0.0
 11
8.775
 21
-16.275
 31
0.0
  0
LINE
  5
2EA
330
B8
100
AcDbEntity
  8
PEN1
  6
LTY1
100
AcDbLine
 10
8.775
 20
-16.275
 30
0.0
 11
8.775
 21
-16.125
 31
0.0
  0
LINE
  5
2EB
330
B8
100
AcDbEntity
  8
PEN1
  6
LTY1
100
AcDbLine
 10
0.775
 20
-24.6
 30
0.0
 11
0.775
 21
-24.6
 31
0.0
  0
LINE
  5
2EC
330
B8
100
AcDbEntity
  8
PEN1
  6
LTY1
100
AcDbLine
 10
0.775
 20
-24.6
 30
0.0
 11
0.675
 21
-24.65
 31
0.0
  0
LINE
  5
2ED
330
B8
100
AcDbEntity
  8
PEN1
  6
LTY1
100
AcDbLine
 10
0.675
 20
-24.65
 30
0.0
 11
0.675
 21
-24.65
 31
0.0
  0
LINE
  5
2EE
330
B8
100
AcDbEntity
  8
PEN1
  6
LTY1
100
AcDbLine
 10
0.675
 20
-24.65
 30
0.0
 11
0.575
 21
-24.675
 31
0.0
  0
LINE
  5
2EF
330
B8
100
AcDbEntity
  8
PEN1
  6
LTY1
100
AcDbLine
 10
0.575
 20
-24.675
 30
0.0
 11
0.575
 21
-24.675
 31
0.0
  0
LINE
  5
2F0
330
B8
100
AcDbEntity
  8
PEN1
  6
LTY1
100
AcDbLine
 10
0.575
 20
-24.675
 30
0.0
 11
0.5
 21
-24.7
 31
0.0
  0
LINE
  5
2F1
330
B8
100
AcDbEntity
  8
PEN1
  6
LTY1
100
AcDbLine
 10
0.5
 20
-24.7
 30
0.0
 11
0.5
 21
-24.7
 31
0.0
  0
LINE
  5
2F2
330
B8
100
AcDbEntity
  8
PEN1
  6
LTY1
100
AcDbLine
 10
0.5
 20
-24.7
 30
0.0
 11
0.425
 21
-24.725
 31
0.0
  0
LINE
  5
2F3
330
B8
100
AcDbEntity
  8
PEN1
  6
LTY1
100
AcDbLine
 10
0.425
 20
-24.725
 30
0.0
 11
0.375
 21
-24.725
 31
0.0
  0
LINE
  5
2F4
330
B8
100
AcDbEntity
  8
PEN1
  6
LTY1
100
AcDbLine
 10
0.125
 20
-24.725
 30
0.0
 11
0.125
 21
-24.725
 31
0.0
  0
LINE
  5
2F5
330
B8
100
AcDbEntity
  8
PEN1
  6
LTY1
100
AcDbLine
 10
0.125
 20
-24.725
 30
0.0
 11
0.1
 21
-24.725
 31
0.0
  0
LINE
  5
2F6
330
B8
100
AcDbEntity
  8
PEN1
  6
LTY1
100
AcDbLine
 10
0.1
 20
-24.725
 30
0.0
 11
0.1
 21
-24.725
 31
0.0
  0
LINE
  5
2F7
330
B8
100
AcDbEntity
  8
PEN1
  6
LTY1
100
AcDbLine
 10
0.1
 20
-24.725
 30
0.0
 11
0.075
 21
-24.7
 31
0.0
  0
LINE
  5
2F8
330
B8
100
AcDbEntity
  8
PEN1
  6
LTY1
100
AcDbLine
 10
0.075
 20
-24.7
 30
0.0
 11
0.075
 21
-24.7
 31
0.0
  0
LINE
  5
2F9
330
B8
100
AcDbEntity
  8
PEN1
  6
LTY1
100
AcDbLine
 10
0.075
 20
-24.7
 30
0.0
 11
0.075
 21
-24.7
 31
0.0
  0
LINE
  5
2FA
330
B8
100
AcDbEntity
  8
PEN1
  6
LTY1
100
AcDbLine
 10
0.075
 20
-24.7
 30
0.0
 11
0.075
 21
-24.7
 31
0.0
  0
LINE
  5
2FB
330
B8
100
AcDbEntity
  8
PEN1
  6
LTY1
100
AcDbLine
 10
0.075
 20
-24.7
 30
0.0
 11
0.05
 21
-24.675
 31
0.0
  0
LINE
  5
2FC
330
B8
100
AcDbEntity
  8
PEN1
  6
LTY1
100
AcDbLine
 10
0.05
 20
-24.675
 30
0.0
 11
0.05
 21
-24.675
 31
0.0
  0
LINE
  5
2FD
330
B8
100
AcDbEntity
  8
PEN1
  6
LTY1
100
AcDbLine
 10
0.05
 20
-24.675
 30
0.0
 11
0.05
 21
-24.675
 31
0.0
  0
LINE
  5
2FE
330
B8
100
AcDbEntity
  8
PEN1
  6
LTY1
100
AcDbLine
 10
0.05
 20
-24.675
 30
0.0
 11
0.05
 21
-24.675
 31
0.0
  0
LINE
  5
2FF
330
B8
100
AcDbEntity
  8
PEN1
  6
LTY1
100
AcDbLine
 10
0.05
 20
-24.675
 30
0.0
 11
0.05
 21
-24.675
 31
0.0
  0
LINE
  5
300
330
B8
100
AcDbEntity
  8
PEN1
  6
LTY1
100
AcDbLine
 10
0.05
 20
-24.675
 30
0.0
 11
0.05
 21
-24.675
 31
0.0
  0
LINE
  5
301
330
B8
100
AcDbEntity
  8
PEN1
  6
LTY1
100
AcDbLine
 10
0.05
 20
-24.675
 30
0.0
 11
0.025
 21
-24.65
 31
0.0
  0
LINE
  5
302
330
B8
100
AcDbEntity
  8
PEN1
  6
LTY1
100
AcDbLine
 10
0.025
 20
-24.65
 30
0.0
 11
0.025
 21
-24.65
 31
0.0
  0
LINE
  5
303
330
B8
100
AcDbEntity
  8
PEN1
  6
LTY1
100
AcDbLine
 10
0.025
 20
-24.65
 30
0.0
 11
0.025
 21
-24.625
 31
0.0
  0
LINE
  5
304
330
B8
100
AcDbEntity
  8
PEN1
  6
LTY1
100
AcDbLine
 10
0.775
 20
-19.075
 30
0.0
 11
0.775
 21
-19.075
 31
0.0
  0
LINE
  5
305
330
B8
100
AcDbEntity
  8
PEN1
  6
LTY1
100
AcDbLine
 10
0.775
 20
-19.075
 30
0.0
 11
0.575
 21
-19.075
 31
0.0
  0
LINE
  5
306
330
B8
100
AcDbEntity
  8
PEN1
  6
LTY1
100
AcDbLine
 10
0.575
 20
-19.075
 30
0.0
 11
0.575
 21
-19.075
 31
0.0
  0
LINE
  5
307
330
B8
100
AcDbEntity
  8
PEN1
  6
LTY1
100
AcDbLine
 10
0.575
 20
-19.075
 30
0.0
 11
0.375
 21
-19.05
 31
0.0
  0
LINE
  5
308
330
B8
100
AcDbEntity
  8
PEN1
  6
LTY1
100
AcDbLine
 10
0.375
 20
-19.05
 30
0.0
 11
0.375
 21
-19.05
 31
0.0
  0
LINE
  5
309
330
B8
100
AcDbEntity
  8
PEN1
  6
LTY1
100
AcDbLine
 10
0.375
 20
-19.05
 30
0.0
 11
0.3
 21
-19.025
 31
0.0
  0
LINE
  5
30A
330
B8
100
AcDbEntity
  8
PEN1
  6
LTY1
100
AcDbLine
 10
0.3
 20
-19.025
 30
0.0
 11
0.3
 21
-19.025
 31
0.0
  0
LINE
  5
30B
330
B8
100
AcDbEntity
  8
PEN1
  6
LTY1
100
AcDbLine
 10
0.3
 20
-19.025
 30
0.0
 11
0.2
 21
-19.0
 31
0.0
  0
LINE
  5
30C
330
B8
100
AcDbEntity
  8
PEN1
  6
LTY1
100
AcDbLine
 10
0.2
 20
-19.0
 30
0.0
 11
0.2
 21
-19.0
 31
0.0
  0
LINE
  5
30D
330
B8
100
AcDbEntity
  8
PEN1
  6
LTY1
100
AcDbLine
 10
0.2
 20
-19.0
 30
0.0
 11
0.125
 21
-18.975
 31
0.0
  0
LINE
  5
30E
330
B8
100
AcDbEntity
  8
PEN1
  6
LTY1
100
AcDbLine
 10
0.125
 20
-18.975
 30
0.0
 11
0.125
 21
-18.975
 31
0.0
  0
LINE
  5
30F
330
B8
100
AcDbEntity
  8
PEN1
  6
LTY1
100
AcDbLine
 10
0.125
 20
-18.975
 30
0.0
 11
0.05
 21
-18.925
 31
0.0
  0
LINE
  5
310
330
B8
100
AcDbEntity
  8
PEN1
  6
LTY1
100
AcDbLine
 10
0.05
 20
-18.925
 30
0.0
 11
0.05
 21
-18.925
 31
0.0
  0
LINE
  5
311
330
B8
100
AcDbEntity
  8
PEN1
  6
LTY1
100
AcDbLine
 10
0.05
 20
-18.925
 30
0.0
 11
0.05
 21
-18.875
 31
0.0
  0
LINE
  5
312
330
B8
100
AcDbEntity
  8
PEN1
  6
LTY1
100
AcDbLine
 10
0.05
 20
-18.875
 30
0.0
 11
0.05
 21
-18.875
 31
0.0
  0
LINE
  5
313
330
B8
100
AcDbEntity
  8
PEN1
  6
LTY1
100
AcDbLine
 10
0.05
 20
-18.875
 30
0.0
 11
0.025
 21
-18.875
 31
0.0
  0
LINE
  5
314
330
B8
100
AcDbEntity
  8
PEN1
  6
LTY1
100
AcDbLine
 10
0.775
 20
-17.35
 30
0.0
 11
0.775
 21
-17.35
 31
0.0
  0
LINE
  5
315
330
B8
100
AcDbEntity
  8
PEN1
  6
LTY1
100
AcDbLine
 10
0.775
 20
-17.35
 30
0.0
 11
0.7
 21
-17.35
 31
0.0
  0
LINE
  5
316
330
B8
100
AcDbEntity
  8
PEN1
  6
LTY1
100
AcDbLine
 10
0.7
 20
-17.35
 30
0.0
 11
0.7
 21
-17.35
 31
0.0
  0
LINE
  5
317
330
B8
100
AcDbEntity
  8
PEN1
  6
LTY1
100
AcDbLine
 10
0.7
 20
-17.35
 30
0.0
 11
0.625
 21
-17.325
 31
0.0
  0
LINE
  5
318
330
B8
100
AcDbEntity
  8
PEN1
  6
LTY1
100
AcDbLine
 10
0.625
 20
-17.325
 30
0.0
 11
0.625
 21
-17.325
 31
0.0
  0
LINE
  5
319
330
B8
100
AcDbEntity
  8
PEN1
  6
LTY1
100
AcDbLine
 10
0.625
 20
-17.325
 30
0.0
 11
0.5
 21
-17.275
 31
0.0
  0
LINE
  5
31A
330
B8
100
AcDbEntity
  8
PEN1
  6
LTY1
100
AcDbLine
 10
0.5
 20
-17.275
 30
0.0
 11
0.5
 21
-17.275
 31
0.0
  0
LINE
  5
31B
330
B8
100
AcDbEntity
  8
PEN1
  6
LTY1
100
AcDbLine
 10
0.5
 20
-17.275
 30
0.0
 11
0.375
 21
-17.175
 31
0.0
  0
LINE
  5
31C
330
B8
100
AcDbEntity
  8
PEN1
  6
LTY1
100
AcDbLine
 10
0.375
 20
-17.175
 30
0.0
 11
0.375
 21
-17.175
 31
0.0
  0
LINE
  5
31D
330
B8
100
AcDbEntity
  8
PEN1
  6
LTY1
100
AcDbLine
 10
0.375
 20
-17.175
 30
0.0
 11
0.275
 21
-17.05
 31
0.0
  0
LINE
  5
31E
330
B8
100
AcDbEntity
  8
PEN1
  6
LTY1
100
AcDbLine
 10
0.275
 20
-17.05
 30
0.0
 11
0.275
 21
-17.05
 31
0.0
  0
LINE
  5
31F
330
B8
100
AcDbEntity
  8
PEN1
  6
LTY1
100
AcDbLine
 10
0.275
 20
-17.05
 30
0.0
 11
0.175
 21
-16.9
 31
0.0
  0
LINE
  5
320
330
B8
100
AcDbEntity
  8
PEN1
  6
LTY1
100
AcDbLine
 10
0.175
 20
-16.9
 30
0.0
 11
0.175
 21
-16.9
 31
0.0
  0
LINE
  5
321
330
B8
100
AcDbEntity
  8
PEN1
  6
LTY1
100
AcDbLine
 10
0.175
 20
-16.9
 30
0.0
 11
0.125
 21
-16.75
 31
0.0
  0
LINE
  5
322
330
B8
100
AcDbEntity
  8
PEN1
  6
LTY1
100
AcDbLine
 10
0.125
 20
-16.75
 30
0.0
 11
0.125
 21
-16.75
 31
0.0
  0
LINE
  5
323
330
B8
100
AcDbEntity
  8
PEN1
  6
LTY1
100
AcDbLine
 10
0.125
 20
-16.75
 30
0.0
 11
0.05
 21
-16.525
 31
0.0
  0
LINE
  5
324
330
B8
100
AcDbEntity
  8
PEN1
  6
LTY1
100
AcDbLine
 10
0.05
 20
-16.525
 30
0.0
 11
0.05
 21
-16.525
 31
0.0
  0
LINE
  5
325
330
B8
100
AcDbEntity
  8
PEN1
  6
LTY1
100
AcDbLine
 10
0.05
 20
-16.525
 30
0.0
 11
0.05
 21
-16.4
 31
0.0
  0
LINE
  5
326
330
B8
100
AcDbEntity
  8
PEN1
  6
LTY1
100
AcDbLine
 10
0.05
 20
-16.4
 30
0.0
 11
0.05
 21
-16.4
 31
0.0
  0
LINE
  5
327
330
B8
100
AcDbEntity
  8
PEN1
  6
LTY1
100
AcDbLine
 10
0.05
 20
-16.4
 30
0.0
 11
0.025
 21
-16.2
 31
0.0
  0
LINE
  5
328
330
B8
100
AcDbEntity
  8
PEN1
  6
LTY1
100
AcDbLine
 10
0.775
 20
-17.3
 30
0.0
 11
0.775
 21
-17.3
 31
0.0
  0
LINE
  5
329
330
B8
100
AcDbEntity
  8
PEN1
  6
LTY1
100
AcDbLine
 10
0.775
 20
-17.3
 30
0.0
 11
0.7
 21
-17.275
 31
0.0
  0
LINE
  5
32A
330
B8
100
AcDbEntity
  8
PEN1
  6
LTY1
100
AcDbLine
 10
0.7
 20
-17.275
 30
0.0
 11
0.7
 21
-17.275
 31
0.0
  0
LINE
  5
32B
330
B8
100
AcDbEntity
  8
PEN1
  6
LTY1
100
AcDbLine
 10
0.7
 20
-17.275
 30
0.0
 11
0.575
 21
-17.25
 31
0.0
  0
LINE
  5
32C
330
B8
100
AcDbEntity
  8
PEN1
  6
LTY1
100
AcDbLine
 10
0.575
 20
-17.25
 30
0.0
 11
0.575
 21
-17.25
 31
0.0
  0
LINE
  5
32D
330
B8
100
AcDbEntity
  8
PEN1
  6
LTY1
100
AcDbLine
 10
0.575
 20
-17.25
 30
0.0
 11
0.475
 21
-17.2
 31
0.0
  0
LINE
  5
32E
330
B8
100
AcDbEntity
  8
PEN1
  6
LTY1
100
AcDbLine
 10
0.475
 20
-17.2
 30
0.0
 11
0.475
 21
-17.2
 31
0.0
  0
LINE
  5
32F
330
B8
100
AcDbEntity
  8
PEN1
  6
LTY1
100
AcDbLine
 10
0.475
 20
-17.2
 30
0.0
 11
0.375
 21
-17.1
 31
0.0
  0
LINE
  5
330
330
B8
100
AcDbEntity
  8
PEN1
  6
LTY1
100
AcDbLine
 10
0.375
 20
-17.1
 30
0.0
 11
0.375
 21
-17.1
 31
0.0
  0
LINE
  5
331
330
B8
100
AcDbEntity
  8
PEN1
  6
LTY1
100
AcDbLine
 10
0.375
 20
-17.1
 30
0.0
 11
0.275
 21
-17.0
 31
0.0
  0
LINE
  5
332
330
B8
100
AcDbEntity
  8
PEN1
  6
LTY1
100
AcDbLine
 10
0.275
 20
-17.0
 30
0.0
 11
0.275
 21
-17.0
 31
0.0
  0
LINE
  5
333
330
B8
100
AcDbEntity
  8
PEN1
  6
LTY1
100
AcDbLine
 10
0.275
 20
-17.0
 30
0.0
 11
0.175
 21
-16.85
 31
0.0
  0
LINE
  5
334
330
B8
100
AcDbEntity
  8
PEN1
  6
LTY1
100
AcDbLine
 10
0.175
 20
-16.85
 30
0.0
 11
0.175
 21
-16.85
 31
0.0
  0
LINE
  5
335
330
B8
100
AcDbEntity
  8
PEN1
  6
LTY1
100
AcDbLine
 10
0.175
 20
-16.85
 30
0.0
 11
0.125
 21
-16.675
 31
0.0
  0
LINE
  5
336
330
B8
100
AcDbEntity
  8
PEN1
  6
LTY1
100
AcDbLine
 10
0.125
 20
-16.675
 30
0.0
 11
0.125
 21
-16.675
 31
0.0
  0
LINE
  5
337
330
B8
100
AcDbEntity
  8
PEN1
  6
LTY1
100
AcDbLine
 10
0.125
 20
-16.675
 30
0.0
 11
0.05
 21
-16.475
 31
0.0
  0
LINE
  5
338
330
B8
100
AcDbEntity
  8
PEN1
  6
LTY1
100
AcDbLine
 10
0.05
 20
-16.475
 30
0.0
 11
0.05
 21
-16.475
 31
0.0
  0
LINE
  5
339
330
B8
100
AcDbEntity
  8
PEN1
  6
LTY1
100
AcDbLine
 10
0.05
 20
-16.475
 30
0.0
 11
0.05
 21
-16.275
 31
0.0
  0
LINE
  5
33A
330
B8
100
AcDbEntity
  8
PEN1
  6
LTY1
100
AcDbLine
 10
0.05
 20
-16.275
 30
0.0
 11
0.025
 21
-16.125
 31
0.0
  0
ATTDEF
  5
33B
330
B8
100
AcDbEntity
  8
PEN4
100
AcDbText
 10
6.975
 20
-13.8
 30
0.0
 40
1.8
  1

  7
NORMSCHRIFT
 72
     2
 11
6.975
 21
-13.8
 31
0.0
100
AcDbAttributeDefinition
  3
BMK
  2
CODE_4
 70
     8
280
     0
  0
ATTDEF
  5
33C
330
B8
100
AcDbEntity
  8
PEN4
100
AcDbText
 10
2.0
 20
-18.75
 30
0.0
 40
2.0
  1
9170
  7
NORMSCHRIFT
 72
     1
 11
4.6
 21
-18.75
 31
0.0
100
AcDbAttributeDefinition
  3
Text - Typ
  2
CODE_51
 70
     8
280
     0
  0
ENDBLK
  5
770
330
B8
100
AcDbEntity
  8
0
100
AcDbBlockEnd
  0
BLOCK
  5
771
330
33F
100
AcDbEntity
  8
0
100
AcDbBlockBegin
  2
STAHL94
 70
     0
 10
0.0
 20
0.0
 30
0.0
  3
STAHL94
  1

  0
LINE
  5
340
330
33F
100
AcDbEntity
  8
PEN1
  6
LTY1
100
AcDbLine
 10
18.175
 20
18.175
 30
0.0
 11
0.0
 21
18.175
 31
0.0
  0
LINE
  5
341
330
33F
100
AcDbEntity
  8
PEN1
  6
LTY1
100
AcDbLine
 10
0.0
 20
18.175
 30
0.0
 11
0.0
 21
9.075
 31
0.0
  0
LINE
  5
342
330
33F
100
AcDbEntity
  8
PEN1
  6
LTY1
100
AcDbLine
 10
0.0
 20
9.075
 30
0.0
 11
0.625
 21
9.075
 31
0.0
  0
LINE
  5
343
330
33F
100
AcDbEntity
  8
PEN1
  6
LTY1
100
AcDbLine
 10
0.625
 20
9.075
 30
0.0
 11
0.625
 21
11.825
 31
0.0
  0
LINE
  5
344
330
33F
100
AcDbEntity
  8
PEN1
  6
LTY1
100
AcDbLine
 10
0.625
 20
11.825
 30
0.0
 11
4.4
 21
14.025
 31
0.0
  0
LINE
  5
345
330
33F
100
AcDbEntity
  8
PEN1
  6
LTY1
100
AcDbLine
 10
4.4
 20
14.025
 30
0.0
 11
13.775
 21
14.025
 31
0.0
  0
LINE
  5
346
330
33F
100
AcDbEntity
  8
PEN1
  6
LTY1
100
AcDbLine
 10
13.775
 20
14.025
 30
0.0
 11
17.525
 21
11.825
 31
0.0
  0
LINE
  5
347
330
33F
100
AcDbEntity
  8
PEN1
  6
LTY1
100
AcDbLine
 10
17.525
 20
11.825
 30
0.0
 11
17.525
 21
6.35
 31
0.0
  0
LINE
  5
348
330
33F
100
AcDbEntity
  8
PEN1
  6
LTY1
100
AcDbLine
 10
17.525
 20
6.35
 30
0.0
 11
13.775
 21
4.15
 31
0.0
  0
LINE
  5
349
330
33F
100
AcDbEntity
  8
PEN1
  6
LTY1
100
AcDbLine
 10
13.775
 20
4.15
 30
0.0
 11
4.4
 21
4.15
 31
0.0
  0
LINE
  5
34A
330
33F
100
AcDbEntity
  8
PEN1
  6
LTY1
100
AcDbLine
 10
4.4
 20
4.15
 30
0.0
 11
0.625
 21
6.35
 31
0.0
  0
LINE
  5
34B
330
33F
100
AcDbEntity
  8
PEN1
  6
LTY1
100
AcDbLine
 10
0.625
 20
6.35
 30
0.0
 11
0.625
 21
9.075
 31
0.0
  0
LINE
  5
34C
330
33F
100
AcDbEntity
  8
PEN1
  6
LTY1
100
AcDbLine
 10
0.625
 20
9.075
 30
0.0
 11
0.0
 21
9.075
 31
0.0
  0
LINE
  5
34D
330
33F
100
AcDbEntity
  8
PEN1
  6
LTY1
100
AcDbLine
 10
0.0
 20
9.075
 30
0.0
 11
0.0
 21
0.0
 31
0.0
  0
LINE
  5
34E
330
33F
100
AcDbEntity
  8
PEN1
  6
LTY1
100
AcDbLine
 10
0.0
 20
0.0
 30
0.0
 11
18.175
 21
0.0
 31
0.0
  0
LINE
  5
34F
330
33F
100
AcDbEntity
  8
PEN1
  6
LTY1
100
AcDbLine
 10
18.175
 20
0.0
 30
0.0
 11
18.175
 21
18.175
 31
0.0
  0
LINE
  5
350
330
33F
100
AcDbEntity
  8
PEN1
  6
LTY1
100
AcDbLine
 10
0.0
 20
0.225
 30
0.0
 11
18.175
 21
0.225
 31
0.0
  0
LINE
  5
351
330
33F
100
AcDbEntity
  8
PEN1
  6
LTY1
100
AcDbLine
 10
0.0
 20
0.45
 30
0.0
 11
18.175
 21
0.45
 31
0.0
  0
LINE
  5
352
330
33F
100
AcDbEntity
  8
PEN1
  6
LTY1
100
AcDbLine
 10
0.0
 20
0.675
 30
0.0
 11
18.175
 21
0.675
 31
0.0
  0
LINE
  5
353
330
33F
100
AcDbEntity
  8
PEN1
  6
LTY1
100
AcDbLine
 10
0.0
 20
0.9
 30
0.0
 11
18.175
 21
0.9
 31
0.0
  0
LINE
  5
354
330
33F
100
AcDbEntity
  8
PEN1
  6
LTY1
100
AcDbLine
 10
0.0
 20
1.125
 30
0.0
 11
18.175
 21
1.125
 31
0.0
  0
LINE
  5
355
330
33F
100
AcDbEntity
  8
PEN1
  6
LTY1
100
AcDbLine
 10
0.0
 20
1.35
 30
0.0
 11
18.175
 21
1.35
 31
0.0
  0
LINE
  5
356
330
33F
100
AcDbEntity
  8
PEN1
  6
LTY1
100
AcDbLine
 10
0.0
 20
1.575
 30
0.0
 11
18.175
 21
1.575
 31
0.0
  0
LINE
  5
357
330
33F
100
AcDbEntity
  8
PEN1
  6
LTY1
100
AcDbLine
 10
0.0
 20
1.8
 30
0.0
 11
18.175
 21
1.8
 31
0.0
  0
LINE
  5
358
330
33F
100
AcDbEntity
  8
PEN1
  6
LTY1
100
AcDbLine
 10
0.0
 20
2.025
 30
0.0
 11
18.175
 21
2.025
 31
0.0
  0
LINE
  5
359
330
33F
100
AcDbEntity
  8
PEN1
  6
LTY1
100
AcDbLine
 10
0.0
 20
2.25
 30
0.0
 11
18.175
 21
2.25
 31
0.0
  0
LINE
  5
35A
330
33F
100
AcDbEntity
  8
PEN1
  6
LTY1
100
AcDbLine
 10
0.0
 20
2.5
 30
0.0
 11
18.175
 21
2.5
 31
0.0
  0
LINE
  5
35B
330
33F
100
AcDbEntity
  8
PEN1
  6
LTY1
100
AcDbLine
 10
0.0
 20
2.725
 30
0.0
 11
18.175
 21
2.725
 31
0.0
  0
LINE
  5
35C
330
33F
100
AcDbEntity
  8
PEN1
  6
LTY1
100
AcDbLine
 10
0.0
 20
2.95
 30
0.0
 11
18.175
 21
2.95
 31
0.0
  0
LINE
  5
35D
330
33F
100
AcDbEntity
  8
PEN1
  6
LTY1
100
AcDbLine
 10
0.0
 20
3.175
 30
0.0
 11
18.175
 21
3.175
 31
0.0
  0
LINE
  5
35E
330
33F
100
AcDbEntity
  8
PEN1
  6
LTY1
100
AcDbLine
 10
0.0
 20
3.4
 30
0.0
 11
18.175
 21
3.4
 31
0.0
  0
LINE
  5
35F
330
33F
100
AcDbEntity
  8
PEN1
  6
LTY1
100
AcDbLine
 10
0.0
 20
3.625
 30
0.0
 11
18.175
 21
3.625
 31
0.0
  0
LINE
  5
360
330
33F
100
AcDbEntity
  8
PEN1
  6
LTY1
100
AcDbLine
 10
0.0
 20
3.85
 30
0.0
 11
18.175
 21
3.85
 31
0.0
  0
LINE
  5
361
330
33F
100
AcDbEntity
  8
PEN1
  6
LTY1
100
AcDbLine
 10
0.0
 20
4.075
 30
0.0
 11
18.175
 21
4.075
 31
0.0
  0
LINE
  5
362
330
33F
100
AcDbEntity
  8
PEN1
  6
LTY1
100
AcDbLine
 10
0.0
 20
4.3
 30
0.0
 11
4.125
 21
4.3
 31
0.0
  0
LINE
  5
363
330
33F
100
AcDbEntity
  8
PEN1
  6
LTY1
100
AcDbLine
 10
14.025
 20
4.3
 30
0.0
 11
18.175
 21
4.3
 31
0.0
  0
LINE
  5
364
330
33F
100
AcDbEntity
  8
PEN1
  6
LTY1
100
AcDbLine
 10
0.0
 20
4.525
 30
0.0
 11
3.725
 21
4.525
 31
0.0
  0
LINE
  5
365
330
33F
100
AcDbEntity
  8
PEN1
  6
LTY1
100
AcDbLine
 10
14.425
 20
4.525
 30
0.0
 11
18.175
 21
4.525
 31
0.0
  0
LINE
  5
366
330
33F
100
AcDbEntity
  8
PEN1
  6
LTY1
100
AcDbLine
 10
0.0
 20
4.775
 30
0.0
 11
3.325
 21
4.775
 31
0.0
  0
LINE
  5
367
330
33F
100
AcDbEntity
  8
PEN1
  6
LTY1
100
AcDbLine
 10
14.8
 20
4.775
 30
0.0
 11
18.175
 21
4.775
 31
0.0
  0
LINE
  5
368
330
33F
100
AcDbEntity
  8
PEN1
  6
LTY1
100
AcDbLine
 10
0.0
 20
5.0
 30
0.0
 11
2.95
 21
5.0
 31
0.0
  0
LINE
  5
369
330
33F
100
AcDbEntity
  8
PEN1
  6
LTY1
100
AcDbLine
 10
15.2
 20
5.0
 30
0.0
 11
18.175
 21
5.0
 31
0.0
  0
LINE
  5
36A
330
33F
100
AcDbEntity
  8
PEN1
  6
LTY1
100
AcDbLine
 10
0.0
 20
5.225
 30
0.0
 11
2.55
 21
5.225
 31
0.0
  0
LINE
  5
36B
330
33F
100
AcDbEntity
  8
PEN1
  6
LTY1
100
AcDbLine
 10
15.575
 20
5.225
 30
0.0
 11
18.175
 21
5.225
 31
0.0
  0
LINE
  5
36C
330
33F
100
AcDbEntity
  8
PEN1
  6
LTY1
100
AcDbLine
 10
0.0
 20
5.45
 30
0.0
 11
2.175
 21
5.45
 31
0.0
  0
LINE
  5
36D
330
33F
100
AcDbEntity
  8
PEN1
  6
LTY1
100
AcDbLine
 10
15.975
 20
5.45
 30
0.0
 11
18.175
 21
5.45
 31
0.0
  0
LINE
  5
36E
330
33F
100
AcDbEntity
  8
PEN1
  6
LTY1
100
AcDbLine
 10
0.0
 20
5.675
 30
0.0
 11
1.775
 21
5.675
 31
0.0
  0
LINE
  5
36F
330
33F
100
AcDbEntity
  8
PEN1
  6
LTY1
100
AcDbLine
 10
16.375
 20
5.675
 30
0.0
 11
18.175
 21
5.675
 31
0.0
  0
LINE
  5
370
330
33F
100
AcDbEntity
  8
PEN1
  6
LTY1
100
AcDbLine
 10
0.0
 20
5.9
 30
0.0
 11
1.375
 21
5.9
 31
0.0
  0
LINE
  5
371
330
33F
100
AcDbEntity
  8
PEN1
  6
LTY1
100
AcDbLine
 10
16.75
 20
5.9
 30
0.0
 11
18.175
 21
5.9
 31
0.0
  0
LINE
  5
372
330
33F
100
AcDbEntity
  8
PEN1
  6
LTY1
100
AcDbLine
 10
0.0
 20
6.125
 30
0.0
 11
1.0
 21
6.125
 31
0.0
  0
LINE
  5
373
330
33F
100
AcDbEntity
  8
PEN1
  6
LTY1
100
AcDbLine
 10
17.15
 20
6.125
 30
0.0
 11
18.175
 21
6.125
 31
0.0
  0
LINE
  5
374
330
33F
100
AcDbEntity
  8
PEN1
  6
LTY1
100
AcDbLine
 10
0.0
 20
6.35
 30
0.0
 11
0.625
 21
6.35
 31
0.0
  0
LINE
  5
375
330
33F
100
AcDbEntity
  8
PEN1
  6
LTY1
100
AcDbLine
 10
17.525
 20
6.35
 30
0.0
 11
18.175
 21
6.35
 31
0.0
  0
LINE
  5
376
330
33F
100
AcDbEntity
  8
PEN1
  6
LTY1
100
AcDbLine
 10
0.0
 20
6.575
 30
0.0
 11
0.625
 21
6.575
 31
0.0
  0
LINE
  5
377
330
33F
100
AcDbEntity
  8
PEN1
  6
LTY1
100
AcDbLine
 10
17.525
 20
6.575
 30
0.0
 11
18.175
 21
6.575
 31
0.0
  0
LINE
  5
378
330
33F
100
AcDbEntity
  8
PEN1
  6
LTY1
100
AcDbLine
 10
0.0
 20
6.8
 30
0.0
 11
0.625
 21
6.8
 31
0.0
  0
LINE
  5
379
330
33F
100
AcDbEntity
  8
PEN1
  6
LTY1
100
AcDbLine
 10
17.525
 20
6.8
 30
0.0
 11
18.175
 21
6.8
 31
0.0
  0
LINE
  5
37A
330
33F
100
AcDbEntity
  8
PEN1
  6
LTY1
100
AcDbLine
 10
0.0
 20
7.05
 30
0.0
 11
0.625
 21
7.05
 31
0.0
  0
LINE
  5
37B
330
33F
100
AcDbEntity
  8
PEN1
  6
LTY1
100
AcDbLine
 10
17.525
 20
7.05
 30
0.0
 11
18.175
 21
7.05
 31
0.0
  0
LINE
  5
37C
330
33F
100
AcDbEntity
  8
PEN1
  6
LTY1
100
AcDbLine
 10
0.0
 20
7.275
 30
0.0
 11
0.625
 21
7.275
 31
0.0
  0
LINE
  5
37D
330
33F
100
AcDbEntity
  8
PEN1
  6
LTY1
100
AcDbLine
 10
17.525
 20
7.275
 30
0.0
 11
18.175
 21
7.275
 31
0.0
  0
LINE
  5
37E
330
33F
100
AcDbEntity
  8
PEN1
  6
LTY1
100
AcDbLine
 10
0.0
 20
7.5
 30
0.0
 11
0.625
 21
7.5
 31
0.0
  0
LINE
  5
37F
330
33F
100
AcDbEntity
  8
PEN1
  6
LTY1
100
AcDbLine
 10
17.525
 20
7.5
 30
0.0
 11
18.175
 21
7.5
 31
0.0
  0
LINE
  5
380
330
33F
100
AcDbEntity
  8
PEN1
  6
LTY1
100
AcDbLine
 10
0.0
 20
7.725
 30
0.0
 11
0.625
 21
7.725
 31
0.0
  0
LINE
  5
381
330
33F
100
AcDbEntity
  8
PEN1
  6
LTY1
100
AcDbLine
 10
17.525
 20
7.725
 30
0.0
 11
18.175
 21
7.725
 31
0.0
  0
LINE
  5
382
330
33F
100
AcDbEntity
  8
PEN1
  6
LTY1
100
AcDbLine
 10
0.0
 20
7.95
 30
0.0
 11
0.625
 21
7.95
 31
0.0
  0
LINE
  5
383
330
33F
100
AcDbEntity
  8
PEN1
  6
LTY1
100
AcDbLine
 10
17.525
 20
7.95
 30
0.0
 11
18.175
 21
7.95
 31
0.0
  0
LINE
  5
384
330
33F
100
AcDbEntity
  8
PEN1
  6
LTY1
100
AcDbLine
 10
0.0
 20
8.175
 30
0.0
 11
0.625
 21
8.175
 31
0.0
  0
LINE
  5
385
330
33F
100
AcDbEntity
  8
PEN1
  6
LTY1
100
AcDbLine
 10
17.525
 20
8.175
 30
0.0
 11
18.175
 21
8.175
 31
0.0
  0
LINE
  5
386
330
33F
100
AcDbEntity
  8
PEN1
  6
LTY1
100
AcDbLine
 10
0.0
 20
8.4
 30
0.0
 11
0.625
 21
8.4
 31
0.0
  0
LINE
  5
387
330
33F
100
AcDbEntity
  8
PEN1
  6
LTY1
100
AcDbLine
 10
17.525
 20
8.4
 30
0.0
 11
18.175
 21
8.4
 31
0.0
  0
LINE
  5
388
330
33F
100
AcDbEntity
  8
PEN1
  6
LTY1
100
AcDbLine
 10
0.0
 20
8.625
 30
0.0
 11
0.625
 21
8.625
 31
0.0
  0
LINE
  5
389
330
33F
100
AcDbEntity
  8
PEN1
  6
LTY1
100
AcDbLine
 10
17.525
 20
8.625
 30
0.0
 11
18.175
 21
8.625
 31
0.0
  0
LINE
  5
38A
330
33F
100
AcDbEntity
  8
PEN1
  6
LTY1
100
AcDbLine
 10
0.0
 20
8.85
 30
0.0
 11
0.625
 21
8.85
 31
0.0
  0
LINE
  5
38B
330
33F
100
AcDbEntity
  8
PEN1
  6
LTY1
100
AcDbLine
 10
17.525
 20
8.85
 30
0.0
 11
18.175
 21
8.85
 31
0.0
  0
LINE
  5
38C
330
33F
100
AcDbEntity
  8
PEN1
  6
LTY1
100
AcDbLine
 10
0.0
 20
9.075
 30
0.0
 11
0.625
 21
9.075
 31
0.0
  0
LINE
  5
38D
330
33F
100
AcDbEntity
  8
PEN1
  6
LTY1
100
AcDbLine
 10
17.525
 20
9.075
 30
0.0
 11
18.175
 21
9.075
 31
0.0
  0
LINE
  5
38E
330
33F
100
AcDbEntity
  8
PEN1
  6
LTY1
100
AcDbLine
 10
0.0
 20
9.325
 30
0.0
 11
0.625
 21
9.325
 31
0.0
  0
LINE
  5
38F
330
33F
100
AcDbEntity
  8
PEN1
  6
LTY1
100
AcDbLine
 10
17.525
 20
9.325
 30
0.0
 11
18.175
 21
9.325
 31
0.0
  0
LINE
  5
390
330
33F
100
AcDbEntity
  8
PEN1
  6
LTY1
100
AcDbLine
 10
0.0
 20
9.55
 30
0.0
 11
0.625
 21
9.55
 31
0.0
  0
LINE
  5
391
330
33F
100
AcDbEntity
  8
PEN1
  6
LTY1
100
AcDbLine
 10
17.525
 20
9.55
 30
0.0
 11
18.175
 21
9.55
 31
0.0
  0
LINE
  5
392
330
33F
100
AcDbEntity
  8
PEN1
  6
LTY1
100
AcDbLine
 10
0.0
 20
9.775
 30
0.0
 11
0.625
 21
9.775
 31
0.0
  0
LINE
  5
393
330
33F
100
AcDbEntity
  8
PEN1
  6
LTY1
100
AcDbLine
 10
17.525
 20
9.775
 30
0.0
 11
18.175
 21
9.775
 31
0.0
  0
LINE
  5
394
330
33F
100
AcDbEntity
  8
PEN1
  6
LTY1
100
AcDbLine
 10
0.0
 20
10.0
 30
0.0
 11
0.625
 21
10.0
 31
0.0
  0
LINE
  5
395
330
33F
100
AcDbEntity
  8
PEN1
  6
LTY1
100
AcDbLine
 10
17.525
 20
10.0
 30
0.0
 11
18.175
 21
10.0
 31
0.0
  0
LINE
  5
396
330
33F
100
AcDbEntity
  8
PEN1
  6
LTY1
100
AcDbLine
 10
0.0
 20
10.225
 30
0.0
 11
0.625
 21
10.225
 31
0.0
  0
LINE
  5
397
330
33F
100
AcDbEntity
  8
PEN1
  6
LTY1
100
AcDbLine
 10
17.525
 20
10.225
 30
0.0
 11
18.175
 21
10.225
 31
0.0
  0
LINE
  5
398
330
33F
100
AcDbEntity
  8
PEN1
  6
LTY1
100
AcDbLine
 10
0.0
 20
10.45
 30
0.0
 11
0.625
 21
10.45
 31
0.0
  0
LINE
  5
399
330
33F
100
AcDbEntity
  8
PEN1
  6
LTY1
100
AcDbLine
 10
17.525
 20
10.45
 30
0.0
 11
18.175
 21
10.45
 31
0.0
  0
LINE
  5
39A
330
33F
100
AcDbEntity
  8
PEN1
  6
LTY1
100
AcDbLine
 10
0.0
 20
10.675
 30
0.0
 11
0.625
 21
10.675
 31
0.0
  0
LINE
  5
39B
330
33F
100
AcDbEntity
  8
PEN1
  6
LTY1
100
AcDbLine
 10
17.525
 20
10.675
 30
0.0
 11
18.175
 21
10.675
 31
0.0
  0
LINE
  5
39C
330
33F
100
AcDbEntity
  8
PEN1
  6
LTY1
100
AcDbLine
 10
0.0
 20
10.9
 30
0.0
 11
0.625
 21
10.9
 31
0.0
  0
LINE
  5
39D
330
33F
100
AcDbEntity
  8
PEN1
  6
LTY1
100
AcDbLine
 10
17.525
 20
10.9
 30
0.0
 11
18.175
 21
10.9
 31
0.0
  0
LINE
  5
39E
330
33F
100
AcDbEntity
  8
PEN1
  6
LTY1
100
AcDbLine
 10
0.0
 20
11.125
 30
0.0
 11
0.625
 21
11.125
 31
0.0
  0
LINE
  5
39F
330
33F
100
AcDbEntity
  8
PEN1
  6
LTY1
100
AcDbLine
 10
17.525
 20
11.125
 30
0.0
 11
18.175
 21
11.125
 31
0.0
  0
LINE
  5
3A0
330
33F
100
AcDbEntity
  8
PEN1
  6
LTY1
100
AcDbLine
 10
0.0
 20
11.35
 30
0.0
 11
0.625
 21
11.35
 31
0.0
  0
LINE
  5
3A1
330
33F
100
AcDbEntity
  8
PEN1
  6
LTY1
100
AcDbLine
 10
17.525
 20
11.35
 30
0.0
 11
18.175
 21
11.35
 31
0.0
  0
LINE
  5
3A2
330
33F
100
AcDbEntity
  8
PEN1
  6
LTY1
100
AcDbLine
 10
0.0
 20
11.6
 30
0.0
 11
0.625
 21
11.6
 31
0.0
  0
LINE
  5
3A3
330
33F
100
AcDbEntity
  8
PEN1
  6
LTY1
100
AcDbLine
 10
17.525
 20
11.6
 30
0.0
 11
18.175
 21
11.6
 31
0.0
  0
LINE
  5
3A4
330
33F
100
AcDbEntity
  8
PEN1
  6
LTY1
100
AcDbLine
 10
0.0
 20
11.825
 30
0.0
 11
0.625
 21
11.825
 31
0.0
  0
LINE
  5
3A5
330
33F
100
AcDbEntity
  8
PEN1
  6
LTY1
100
AcDbLine
 10
17.525
 20
11.825
 30
0.0
 11
18.175
 21
11.825
 31
0.0
  0
LINE
  5
3A6
330
33F
100
AcDbEntity
  8
PEN1
  6
LTY1
100
AcDbLine
 10
0.0
 20
12.05
 30
0.0
 11
1.0
 21
12.05
 31
0.0
  0
LINE
  5
3A7
330
33F
100
AcDbEntity
  8
PEN1
  6
LTY1
100
AcDbLine
 10
17.15
 20
12.05
 30
0.0
 11
18.175
 21
12.05
 31
0.0
  0
LINE
  5
3A8
330
33F
100
AcDbEntity
  8
PEN1
  6
LTY1
100
AcDbLine
 10
0.0
 20
12.275
 30
0.0
 11
1.375
 21
12.275
 31
0.0
  0
LINE
  5
3A9
330
33F
100
AcDbEntity
  8
PEN1
  6
LTY1
100
AcDbLine
 10
16.75
 20
12.275
 30
0.0
 11
18.175
 21
12.275
 31
0.0
  0
LINE
  5
3AA
330
33F
100
AcDbEntity
  8
PEN1
  6
LTY1
100
AcDbLine
 10
0.0
 20
12.5
 30
0.0
 11
1.775
 21
12.5
 31
0.0
  0
LINE
  5
3AB
330
33F
100
AcDbEntity
  8
PEN1
  6
LTY1
100
AcDbLine
 10
16.375
 20
12.5
 30
0.0
 11
18.175
 21
12.5
 31
0.0
  0
LINE
  5
3AC
330
33F
100
AcDbEntity
  8
PEN1
  6
LTY1
100
AcDbLine
 10
0.0
 20
12.725
 30
0.0
 11
2.175
 21
12.725
 31
0.0
  0
LINE
  5
3AD
330
33F
100
AcDbEntity
  8
PEN1
  6
LTY1
100
AcDbLine
 10
15.975
 20
12.725
 30
0.0
 11
18.175
 21
12.725
 31
0.0
  0
LINE
  5
3AE
330
33F
100
AcDbEntity
  8
PEN1
  6
LTY1
100
AcDbLine
 10
0.0
 20
12.95
 30
0.0
 11
2.55
 21
12.95
 31
0.0
  0
LINE
  5
3AF
330
33F
100
AcDbEntity
  8
PEN1
  6
LTY1
100
AcDbLine
 10
15.575
 20
12.95
 30
0.0
 11
18.175
 21
12.95
 31
0.0
  0
LINE
  5
3B0
330
33F
100
AcDbEntity
  8
PEN1
  6
LTY1
100
AcDbLine
 10
0.0
 20
13.175
 30
0.0
 11
2.95
 21
13.175
 31
0.0
  0
LINE
  5
3B1
330
33F
100
AcDbEntity
  8
PEN1
  6
LTY1
100
AcDbLine
 10
15.2
 20
13.175
 30
0.0
 11
18.175
 21
13.175
 31
0.0
  0
LINE
  5
3B2
330
33F
100
AcDbEntity
  8
PEN1
  6
LTY1
100
AcDbLine
 10
0.0
 20
13.4
 30
0.0
 11
3.325
 21
13.4
 31
0.0
  0
LINE
  5
3B3
330
33F
100
AcDbEntity
  8
PEN1
  6
LTY1
100
AcDbLine
 10
14.8
 20
13.4
 30
0.0
 11
18.175
 21
13.4
 31
0.0
  0
LINE
  5
3B4
330
33F
100
AcDbEntity
  8
PEN1
  6
LTY1
100
AcDbLine
 10
0.0
 20
13.625
 30
0.0
 11
3.725
 21
13.625
 31
0.0
  0
LINE
  5
3B5
330
33F
100
AcDbEntity
  8
PEN1
  6
LTY1
100
AcDbLine
 10
14.425
 20
13.625
 30
0.0
 11
18.175
 21
13.625
 31
0.0
  0
LINE
  5
3B6
330
33F
100
AcDbEntity
  8
PEN1
  6
LTY1
100
AcDbLine
 10
0.0
 20
13.875
 30
0.0
 11
4.125
 21
13.875
 31
0.0
  0
LINE
  5
3B7
330
33F
100
AcDbEntity
  8
PEN1
  6
LTY1
100
AcDbLine
 10
14.025
 20
13.875
 30
0.0
 11
18.175
 21
13.875
 31
0.0
  0
LINE
  5
3B8
330
33F
100
AcDbEntity
  8
PEN1
  6
LTY1
100
AcDbLine
 10
0.0
 20
14.1
 30
0.0
 11
18.175
 21
14.1
 31
0.0
  0
LINE
  5
3B9
330
33F
100
AcDbEntity
  8
PEN1
  6
LTY1
100
AcDbLine
 10
0.0
 20
14.325
 30
0.0
 11
18.175
 21
14.325
 31
0.0
  0
LINE
  5
3BA
330
33F
100
AcDbEntity
  8
PEN1
  6
LTY1
100
AcDbLine
 10
0.0
 20
14.55
 30
0.0
 11
18.175
 21
14.55
 31
0.0
  0
LINE
  5
3BB
330
33F
100
AcDbEntity
  8
PEN1
  6
LTY1
100
AcDbLine
 10
0.0
 20
14.775
 30
0.0
 11
18.175
 21
14.775
 31
0.0
  0
LINE
  5
3BC
330
33F
100
AcDbEntity
  8
PEN1
  6
LTY1
100
AcDbLine
 10
0.0
 20
15.0
 30
0.0
 11
18.175
 21
15.0
 31
0.0
  0
LINE
  5
3BD
330
33F
100
AcDbEntity
  8
PEN1
  6
LTY1
100
AcDbLine
 10
0.0
 20
15.225
 30
0.0
 11
18.175
 21
15.225
 31
0.0
  0
LINE
  5
3BE
330
33F
100
AcDbEntity
  8
PEN1
  6
LTY1
100
AcDbLine
 10
0.0
 20
15.45
 30
0.0
 11
18.175
 21
15.45
 31
0.0
  0
LINE
  5
3BF
330
33F
100
AcDbEntity
  8
PEN1
  6
LTY1
100
AcDbLine
 10
0.0
 20
15.675
 30
0.0
 11
18.175
 21
15.675
 31
0.0
  0
LINE
  5
3C0
330
33F
100
AcDbEntity
  8
PEN1
  6
LTY1
100
AcDbLine
 10
0.0
 20
15.9
 30
0.0
 11
18.175
 21
15.9
 31
0.0
  0
LINE
  5
3C1
330
33F
100
AcDbEntity
  8
PEN1
  6
LTY1
100
AcDbLine
 10
0.0
 20
16.15
 30
0.0
 11
18.175
 21
16.15
 31
0.0
  0
LINE
  5
3C2
330
33F
100
AcDbEntity
  8
PEN1
  6
LTY1
100
AcDbLine
 10
0.0
 20
16.375
 30
0.0
 11
18.175
 21
16.375
 31
0.0
  0
LINE
  5
3C3
330
33F
100
AcDbEntity
  8
PEN1
  6
LTY1
100
AcDbLine
 10
0.0
 20
16.6
 30
0.0
 11
18.175
 21
16.6
 31
0.0
  0
LINE
  5
3C4
330
33F
100
AcDbEntity
  8
PEN1
  6
LTY1
100
AcDbLine
 10
0.0
 20
16.825
 30
0.0
 11
18.175
 21
16.825
 31
0.0
  0
LINE
  5
3C5
330
33F
100
AcDbEntity
  8
PEN1
  6
LTY1
100
AcDbLine
 10
0.0
 20
17.05
 30
0.0
 11
18.175
 21
17.05
 31
0.0
  0
LINE
  5
3C6
330
33F
100
AcDbEntity
  8
PEN1
  6
LTY1
100
AcDbLine
 10
0.0
 20
17.275
 30
0.0
 11
18.175
 21
17.275
 31
0.0
  0
LINE
  5
3C7
330
33F
100
AcDbEntity
  8
PEN1
  6
LTY1
100
AcDbLine
 10
0.0
 20
17.5
 30
0.0
 11
18.175
 21
17.5
 31
0.0
  0
LINE
  5
3C8
330
33F
100
AcDbEntity
  8
PEN1
  6
LTY1
100
AcDbLine
 10
0.0
 20
17.725
 30
0.0
 11
18.175
 21
17.725
 31
0.0
  0
LINE
  5
3C9
330
33F
100
AcDbEntity
  8
PEN1
  6
LTY1
100
AcDbLine
 10
0.0
 20
17.95
 30
0.0
 11
18.175
 21
17.95
 31
0.0
  0
LINE
  5
3CA
330
33F
100
AcDbEntity
  8
PEN1
  6
LTY1
100
AcDbLine
 10
0.0
 20
18.175
 30
0.0
 11
18.175
 21
18.175
 31
0.0
  0
LINE
  5
3CB
330
33F
100
AcDbEntity
  8
PEN2
  6
LTY1
100
AcDbLine
 10
16.625
 20
7.65
 30
0.0
 11
15.45
 21
7.65
 31
0.0
  0
LINE
  5
3CC
330
33F
100
AcDbEntity
  8
PEN2
  6
LTY1
100
AcDbLine
 10
15.45
 20
7.65
 30
0.0
 11
15.45
 21
7.65
 31
0.0
  0
LINE
  5
3CD
330
33F
100
AcDbEntity
  8
PEN2
  6
LTY1
100
AcDbLine
 10
15.45
 20
7.65
 30
0.0
 11
3.225
 21
7.65
 31
0.0
  0
LINE
  5
3CE
330
33F
100
AcDbEntity
  8
PEN2
  6
LTY1
100
AcDbLine
 10
3.225
 20
7.65
 30
0.0
 11
3.225
 21
7.65
 31
0.0
  0
LINE
  5
3CF
330
33F
100
AcDbEntity
  8
PEN2
  6
LTY1
100
AcDbLine
 10
3.225
 20
7.65
 30
0.0
 11
1.55
 21
7.65
 31
0.0
  0
LINE
  5
3D0
330
33F
100
AcDbEntity
  8
PEN2
  6
LTY1
100
AcDbLine
 10
1.55
 20
7.65
 30
0.0
 11
1.55
 21
6.95
 31
0.0
  0
LINE
  5
3D1
330
33F
100
AcDbEntity
  8
PEN2
  6
LTY1
100
AcDbLine
 10
1.55
 20
6.95
 30
0.0
 11
4.925
 21
5.05
 31
0.0
  0
LINE
  5
3D2
330
33F
100
AcDbEntity
  8
PEN2
  6
LTY1
100
AcDbLine
 10
4.925
 20
5.05
 30
0.0
 11
13.25
 21
5.05
 31
0.0
  0
LINE
  5
3D3
330
33F
100
AcDbEntity
  8
PEN2
  6
LTY1
100
AcDbLine
 10
13.25
 20
5.05
 30
0.0
 11
16.625
 21
6.95
 31
0.0
  0
LINE
  5
3D4
330
33F
100
AcDbEntity
  8
PEN2
  6
LTY1
100
AcDbLine
 10
16.625
 20
6.95
 30
0.0
 11
16.625
 21
7.65
 31
0.0
  0
LINE
  5
3D5
330
33F
100
AcDbEntity
  8
PEN2
  6
LTY1
100
AcDbLine
 10
4.625
 20
5.225
 30
0.0
 11
13.5
 21
5.225
 31
0.0
  0
LINE
  5
3D6
330
33F
100
AcDbEntity
  8
PEN2
  6
LTY1
100
AcDbLine
 10
4.35
 20
5.375
 30
0.0
 11
13.8
 21
5.375
 31
0.0
  0
LINE
  5
3D7
330
33F
100
AcDbEntity
  8
PEN2
  6
LTY1
100
AcDbLine
 10
4.05
 20
5.55
 30
0.0
 11
14.1
 21
5.55
 31
0.0
  0
LINE
  5
3D8
330
33F
100
AcDbEntity
  8
PEN2
  6
LTY1
100
AcDbLine
 10
3.75
 20
5.7
 30
0.0
 11
14.375
 21
5.7
 31
0.0
  0
LINE
  5
3D9
330
33F
100
AcDbEntity
  8
PEN2
  6
LTY1
100
AcDbLine
 10
3.475
 20
5.875
 30
0.0
 11
14.675
 21
5.875
 31
0.0
  0
LINE
  5
3DA
330
33F
100
AcDbEntity
  8
PEN2
  6
LTY1
100
AcDbLine
 10
3.175
 20
6.025
 30
0.0
 11
14.975
 21
6.025
 31
0.0
  0
LINE
  5
3DB
330
33F
100
AcDbEntity
  8
PEN2
  6
LTY1
100
AcDbLine
 10
2.875
 20
6.2
 30
0.0
 11
15.25
 21
6.2
 31
0.0
  0
LINE
  5
3DC
330
33F
100
AcDbEntity
  8
PEN2
  6
LTY1
100
AcDbLine
 10
2.575
 20
6.35
 30
0.0
 11
15.55
 21
6.35
 31
0.0
  0
LINE
  5
3DD
330
33F
100
AcDbEntity
  8
PEN2
  6
LTY1
100
AcDbLine
 10
2.3
 20
6.525
 30
0.0
 11
15.85
 21
6.525
 31
0.0
  0
LINE
  5
3DE
330
33F
100
AcDbEntity
  8
PEN2
  6
LTY1
100
AcDbLine
 10
2.0
 20
6.675
 30
0.0
 11
16.15
 21
6.675
 31
0.0
  0
LINE
  5
3DF
330
33F
100
AcDbEntity
  8
PEN2
  6
LTY1
100
AcDbLine
 10
1.7
 20
6.85
 30
0.0
 11
16.425
 21
6.85
 31
0.0
  0
LINE
  5
3E0
330
33F
100
AcDbEntity
  8
PEN2
  6
LTY1
100
AcDbLine
 10
1.55
 20
7.0
 30
0.0
 11
16.625
 21
7.0
 31
0.0
  0
LINE
  5
3E1
330
33F
100
AcDbEntity
  8
PEN2
  6
LTY1
100
AcDbLine
 10
1.55
 20
7.175
 30
0.0
 11
16.625
 21
7.175
 31
0.0
  0
LINE
  5
3E2
330
33F
100
AcDbEntity
  8
PEN2
  6
LTY1
100
AcDbLine
 10
1.55
 20
7.325
 30
0.0
 11
16.625
 21
7.325
 31
0.0
  0
LINE
  5
3E3
330
33F
100
AcDbEntity
  8
PEN2
  6
LTY1
100
AcDbLine
 10
1.55
 20
7.5
 30
0.0
 11
16.625
 21
7.5
 31
0.0
  0
LINE
  5
3E4
330
33F
100
AcDbEntity
  8
PEN2
  6
LTY1
100
AcDbLine
 10
1.55
 20
7.65
 30
0.0
 11
3.225
 21
7.65
 31
0.0
  0
LINE
  5
3E5
330
33F
100
AcDbEntity
  8
PEN2
  6
LTY1
100
AcDbLine
 10
3.225
 20
7.65
 30
0.0
 11
15.45
 21
7.65
 31
0.0
  0
LINE
  5
3E6
330
33F
100
AcDbEntity
  8
PEN2
  6
LTY1
100
AcDbLine
 10
15.45
 20
7.65
 30
0.0
 11
16.625
 21
7.65
 31
0.0
  0
LINE
  5
3E7
330
33F
100
AcDbEntity
  8
PEN2
  6
LTY1
100
AcDbLine
 10
16.625
 20
7.65
 30
0.0
 11
15.45
 21
7.65
 31
0.0
  0
LINE
  5
3E8
330
33F
100
AcDbEntity
  8
PEN2
  6
LTY1
100
AcDbLine
 10
15.45
 20
7.65
 30
0.0
 11
15.45
 21
8.575
 31
0.0
  0
LINE
  5
3E9
330
33F
100
AcDbEntity
  8
PEN2
  6
LTY1
100
AcDbLine
 10
15.45
 20
8.575
 30
0.0
 11
14.15
 21
8.575
 31
0.0
  0
LINE
  5
3EA
330
33F
100
AcDbEntity
  8
PEN2
  6
LTY1
100
AcDbLine
 10
14.15
 20
8.575
 30
0.0
 11
14.15
 21
10.525
 31
0.0
  0
LINE
  5
3EB
330
33F
100
AcDbEntity
  8
PEN2
  6
LTY1
100
AcDbLine
 10
14.15
 20
10.525
 30
0.0
 11
12.325
 21
10.525
 31
0.0
  0
LINE
  5
3EC
330
33F
100
AcDbEntity
  8
PEN2
  6
LTY1
100
AcDbLine
 10
12.325
 20
10.525
 30
0.0
 11
12.325
 21
9.475
 31
0.0
  0
LINE
  5
3ED
330
33F
100
AcDbEntity
  8
PEN2
  6
LTY1
100
AcDbLine
 10
12.325
 20
9.475
 30
0.0
 11
11.55
 21
9.475
 31
0.0
  0
LINE
  5
3EE
330
33F
100
AcDbEntity
  8
PEN2
  6
LTY1
100
AcDbLine
 10
11.55
 20
9.475
 30
0.0
 11
11.55
 21
10.525
 31
0.0
  0
LINE
  5
3EF
330
33F
100
AcDbEntity
  8
PEN2
  6
LTY1
100
AcDbLine
 10
11.55
 20
10.525
 30
0.0
 11
10.65
 21
10.525
 31
0.0
  0
LINE
  5
3F0
330
33F
100
AcDbEntity
  8
PEN2
  6
LTY1
100
AcDbLine
 10
10.65
 20
10.525
 30
0.0
 11
10.65
 21
7.65
 31
0.0
  0
LINE
  5
3F1
330
33F
100
AcDbEntity
  8
PEN2
  6
LTY1
100
AcDbLine
 10
10.65
 20
7.65
 30
0.0
 11
9.875
 21
10.525
 31
0.0
  0
LINE
  5
3F2
330
33F
100
AcDbEntity
  8
PEN2
  6
LTY1
100
AcDbLine
 10
9.875
 20
10.525
 30
0.0
 11
8.825
 21
10.525
 31
0.0
  0
LINE
  5
3F3
330
33F
100
AcDbEntity
  8
PEN2
  6
LTY1
100
AcDbLine
 10
8.825
 20
10.525
 30
0.0
 11
8.05
 21
7.65
 31
0.0
  0
LINE
  5
3F4
330
33F
100
AcDbEntity
  8
PEN2
  6
LTY1
100
AcDbLine
 10
8.05
 20
7.65
 30
0.0
 11
7.4
 21
7.65
 31
0.0
  0
LINE
  5
3F5
330
33F
100
AcDbEntity
  8
PEN2
  6
LTY1
100
AcDbLine
 10
7.4
 20
7.65
 30
0.0
 11
7.4
 21
9.725
 31
0.0
  0
LINE
  5
3F6
330
33F
100
AcDbEntity
  8
PEN2
  6
LTY1
100
AcDbLine
 10
7.4
 20
9.725
 30
0.0
 11
8.3
 21
9.725
 31
0.0
  0
LINE
  5
3F7
330
33F
100
AcDbEntity
  8
PEN2
  6
LTY1
100
AcDbLine
 10
8.3
 20
9.725
 30
0.0
 11
8.3
 21
10.525
 31
0.0
  0
LINE
  5
3F8
330
33F
100
AcDbEntity
  8
PEN2
  6
LTY1
100
AcDbLine
 10
8.3
 20
10.525
 30
0.0
 11
3.225
 21
10.525
 31
0.0
  0
LINE
  5
3F9
330
33F
100
AcDbEntity
  8
PEN2
  6
LTY1
100
AcDbLine
 10
3.225
 20
10.525
 30
0.0
 11
3.225
 21
7.65
 31
0.0
  0
LINE
  5
3FA
330
33F
100
AcDbEntity
  8
PEN2
  6
LTY1
100
AcDbLine
 10
3.225
 20
7.65
 30
0.0
 11
1.55
 21
7.65
 31
0.0
  0
LINE
  5
3FB
330
33F
100
AcDbEntity
  8
PEN2
  6
LTY1
100
AcDbLine
 10
1.55
 20
7.65
 30
0.0
 11
1.55
 21
11.225
 31
0.0
  0
LINE
  5
3FC
330
33F
100
AcDbEntity
  8
PEN2
  6
LTY1
100
AcDbLine
 10
1.55
 20
11.225
 30
0.0
 11
4.925
 21
13.125
 31
0.0
  0
LINE
  5
3FD
330
33F
100
AcDbEntity
  8
PEN2
  6
LTY1
100
AcDbLine
 10
4.925
 20
13.125
 30
0.0
 11
13.25
 21
13.125
 31
0.0
  0
LINE
  5
3FE
330
33F
100
AcDbEntity
  8
PEN2
  6
LTY1
100
AcDbLine
 10
13.25
 20
13.125
 30
0.0
 11
16.625
 21
11.225
 31
0.0
  0
LINE
  5
3FF
330
33F
100
AcDbEntity
  8
PEN2
  6
LTY1
100
AcDbLine
 10
16.625
 20
11.225
 30
0.0
 11
16.625
 21
7.65
 31
0.0
  0
LINE
  5
400
330
33F
100
AcDbEntity
  8
PEN2
  6
LTY1
100
AcDbLine
 10
1.55
 20
7.825
 30
0.0
 11
3.225
 21
7.825
 31
0.0
  0
LINE
  5
401
330
33F
100
AcDbEntity
  8
PEN2
  6
LTY1
100
AcDbLine
 10
7.4
 20
7.825
 30
0.0
 11
8.075
 21
7.825
 31
0.0
  0
LINE
  5
402
330
33F
100
AcDbEntity
  8
PEN2
  6
LTY1
100
AcDbLine
 10
10.575
 20
7.825
 30
0.0
 11
10.65
 21
7.825
 31
0.0
  0
LINE
  5
403
330
33F
100
AcDbEntity
  8
PEN2
  6
LTY1
100
AcDbLine
 10
15.45
 20
7.825
 30
0.0
 11
16.625
 21
7.825
 31
0.0
  0
LINE
  5
404
330
33F
100
AcDbEntity
  8
PEN2
  6
LTY1
100
AcDbLine
 10
1.55
 20
7.975
 30
0.0
 11
3.225
 21
7.975
 31
0.0
  0
LINE
  5
405
330
33F
100
AcDbEntity
  8
PEN2
  6
LTY1
100
AcDbLine
 10
7.4
 20
7.975
 30
0.0
 11
8.1
 21
7.975
 31
0.0
  0
LINE
  5
406
330
33F
100
AcDbEntity
  8
PEN2
  6
LTY1
100
AcDbLine
 10
10.55
 20
7.975
 30
0.0
 11
10.65
 21
7.975
 31
0.0
  0
LINE
  5
407
330
33F
100
AcDbEntity
  8
PEN2
  6
LTY1
100
AcDbLine
 10
15.45
 20
7.975
 30
0.0
 11
16.625
 21
7.975
 31
0.0
  0
LINE
  5
408
330
33F
100
AcDbEntity
  8
PEN2
  6
LTY1
100
AcDbLine
 10
1.55
 20
8.15
 30
0.0
 11
3.225
 21
8.15
 31
0.0
  0
LINE
  5
409
330
33F
100
AcDbEntity
  8
PEN2
  6
LTY1
100
AcDbLine
 10
7.4
 20
8.15
 30
0.0
 11
8.175
 21
8.15
 31
0.0
  0
LINE
  5
40A
330
33F
100
AcDbEntity
  8
PEN2
  6
LTY1
100
AcDbLine
 10
10.475
 20
8.15
 30
0.0
 11
10.65
 21
8.15
 31
0.0
  0
LINE
  5
40B
330
33F
100
AcDbEntity
  8
PEN2
  6
LTY1
100
AcDbLine
 10
15.45
 20
8.15
 30
0.0
 11
16.625
 21
8.15
 31
0.0
  0
LINE
  5
40C
330
33F
100
AcDbEntity
  8
PEN2
  6
LTY1
100
AcDbLine
 10
1.55
 20
8.3
 30
0.0
 11
3.225
 21
8.3
 31
0.0
  0
LINE
  5
40D
330
33F
100
AcDbEntity
  8
PEN2
  6
LTY1
100
AcDbLine
 10
7.4
 20
8.3
 30
0.0
 11
8.2
 21
8.3
 31
0.0
  0
LINE
  5
40E
330
33F
100
AcDbEntity
  8
PEN2
  6
LTY1
100
AcDbLine
 10
10.45
 20
8.3
 30
0.0
 11
10.65
 21
8.3
 31
0.0
  0
LINE
  5
40F
330
33F
100
AcDbEntity
  8
PEN2
  6
LTY1
100
AcDbLine
 10
15.45
 20
8.3
 30
0.0
 11
16.625
 21
8.3
 31
0.0
  0
LINE
  5
410
330
33F
100
AcDbEntity
  8
PEN2
  6
LTY1
100
AcDbLine
 10
1.55
 20
8.475
 30
0.0
 11
3.225
 21
8.475
 31
0.0
  0
LINE
  5
411
330
33F
100
AcDbEntity
  8
PEN2
  6
LTY1
100
AcDbLine
 10
7.4
 20
8.475
 30
0.0
 11
8.25
 21
8.475
 31
0.0
  0
LINE
  5
412
330
33F
100
AcDbEntity
  8
PEN2
  6
LTY1
100
AcDbLine
 10
10.425
 20
8.475
 30
0.0
 11
10.65
 21
8.475
 31
0.0
  0
LINE
  5
413
330
33F
100
AcDbEntity
  8
PEN2
  6
LTY1
100
AcDbLine
 10
15.45
 20
8.475
 30
0.0
 11
16.625
 21
8.475
 31
0.0
  0
LINE
  5
414
330
33F
100
AcDbEntity
  8
PEN2
  6
LTY1
100
AcDbLine
 10
1.55
 20
8.625
 30
0.0
 11
3.225
 21
8.625
 31
0.0
  0
LINE
  5
415
330
33F
100
AcDbEntity
  8
PEN2
  6
LTY1
100
AcDbLine
 10
7.4
 20
8.625
 30
0.0
 11
8.3
 21
8.625
 31
0.0
  0
LINE
  5
416
330
33F
100
AcDbEntity
  8
PEN2
  6
LTY1
100
AcDbLine
 10
10.35
 20
8.625
 30
0.0
 11
10.65
 21
8.625
 31
0.0
  0
LINE
  5
417
330
33F
100
AcDbEntity
  8
PEN2
  6
LTY1
100
AcDbLine
 10
14.15
 20
8.625
 30
0.0
 11
16.625
 21
8.625
 31
0.0
  0
LINE
  5
418
330
33F
100
AcDbEntity
  8
PEN2
  6
LTY1
100
AcDbLine
 10
1.55
 20
8.8
 30
0.0
 11
3.225
 21
8.8
 31
0.0
  0
LINE
  5
419
330
33F
100
AcDbEntity
  8
PEN2
  6
LTY1
100
AcDbLine
 10
7.4
 20
8.8
 30
0.0
 11
8.35
 21
8.8
 31
0.0
  0
LINE
  5
41A
330
33F
100
AcDbEntity
  8
PEN2
  6
LTY1
100
AcDbLine
 10
10.325
 20
8.8
 30
0.0
 11
10.65
 21
8.8
 31
0.0
  0
LINE
  5
41B
330
33F
100
AcDbEntity
  8
PEN2
  6
LTY1
100
AcDbLine
 10
14.15
 20
8.8
 30
0.0
 11
16.625
 21
8.8
 31
0.0
  0
LINE
  5
41C
330
33F
100
AcDbEntity
  8
PEN2
  6
LTY1
100
AcDbLine
 10
1.55
 20
8.95
 30
0.0
 11
3.225
 21
8.95
 31
0.0
  0
LINE
  5
41D
330
33F
100
AcDbEntity
  8
PEN2
  6
LTY1
100
AcDbLine
 10
7.4
 20
8.95
 30
0.0
 11
8.375
 21
8.95
 31
0.0
  0
LINE
  5
41E
330
33F
100
AcDbEntity
  8
PEN2
  6
LTY1
100
AcDbLine
 10
10.3
 20
8.95
 30
0.0
 11
10.65
 21
8.95
 31
0.0
  0
LINE
  5
41F
330
33F
100
AcDbEntity
  8
PEN2
  6
LTY1
100
AcDbLine
 10
14.15
 20
8.95
 30
0.0
 11
16.625
 21
8.95
 31
0.0
  0
LINE
  5
420
330
33F
100
AcDbEntity
  8
PEN2
  6
LTY1
100
AcDbLine
 10
1.55
 20
9.125
 30
0.0
 11
3.225
 21
9.125
 31
0.0
  0
LINE
  5
421
330
33F
100
AcDbEntity
  8
PEN2
  6
LTY1
100
AcDbLine
 10
7.4
 20
9.125
 30
0.0
 11
8.425
 21
9.125
 31
0.0
  0
LINE
  5
422
330
33F
100
AcDbEntity
  8
PEN2
  6
LTY1
100
AcDbLine
 10
10.225
 20
9.125
 30
0.0
 11
10.65
 21
9.125
 31
0.0
  0
LINE
  5
423
330
33F
100
AcDbEntity
  8
PEN2
  6
LTY1
100
AcDbLine
 10
14.15
 20
9.125
 30
0.0
 11
16.625
 21
9.125
 31
0.0
  0
LINE
  5
424
330
33F
100
AcDbEntity
  8
PEN2
  6
LTY1
100
AcDbLine
 10
1.55
 20
9.275
 30
0.0
 11
3.225
 21
9.275
 31
0.0
  0
LINE
  5
425
330
33F
100
AcDbEntity
  8
PEN2
  6
LTY1
100
AcDbLine
 10
7.4
 20
9.275
 30
0.0
 11
8.475
 21
9.275
 31
0.0
  0
LINE
  5
426
330
33F
100
AcDbEntity
  8
PEN2
  6
LTY1
100
AcDbLine
 10
10.2
 20
9.275
 30
0.0
 11
10.65
 21
9.275
 31
0.0
  0
LINE
  5
427
330
33F
100
AcDbEntity
  8
PEN2
  6
LTY1
100
AcDbLine
 10
14.15
 20
9.275
 30
0.0
 11
16.625
 21
9.275
 31
0.0
  0
LINE
  5
428
330
33F
100
AcDbEntity
  8
PEN2
  6
LTY1
100
AcDbLine
 10
1.55
 20
9.45
 30
0.0
 11
3.225
 21
9.45
 31
0.0
  0
LINE
  5
429
330
33F
100
AcDbEntity
  8
PEN2
  6
LTY1
100
AcDbLine
 10
7.4
 20
9.45
 30
0.0
 11
8.525
 21
9.45
 31
0.0
  0
LINE
  5
42A
330
33F
100
AcDbEntity
  8
PEN2
  6
LTY1
100
AcDbLine
 10
10.15
 20
9.45
 30
0.0
 11
10.65
 21
9.45
 31
0.0
  0
LINE
  5
42B
330
33F
100
AcDbEntity
  8
PEN2
  6
LTY1
100
AcDbLine
 10
14.15
 20
9.45
 30
0.0
 11
16.625
 21
9.45
 31
0.0
  0
LINE
  5
42C
330
33F
100
AcDbEntity
  8
PEN2
  6
LTY1
100
AcDbLine
 10
1.55
 20
9.6
 30
0.0
 11
3.225
 21
9.6
 31
0.0
  0
LINE
  5
42D
330
33F
100
AcDbEntity
  8
PEN2
  6
LTY1
100
AcDbLine
 10
7.4
 20
9.6
 30
0.0
 11
8.575
 21
9.6
 31
0.0
  0
LINE
  5
42E
330
33F
100
AcDbEntity
  8
PEN2
  6
LTY1
100
AcDbLine
 10
10.1
 20
9.6
 30
0.0
 11
10.65
 21
9.6
 31
0.0
  0
LINE
  5
42F
330
33F
100
AcDbEntity
  8
PEN2
  6
LTY1
100
AcDbLine
 10
11.55
 20
9.6
 30
0.0
 11
12.325
 21
9.6
 31
0.0
  0
LINE
  5
430
330
33F
100
AcDbEntity
  8
PEN2
  6
LTY1
100
AcDbLine
 10
14.15
 20
9.6
 30
0.0
 11
16.625
 21
9.6
 31
0.0
  0
LINE
  5
431
330
33F
100
AcDbEntity
  8
PEN2
  6
LTY1
100
AcDbLine
 10
1.55
 20
9.775
 30
0.0
 11
3.225
 21
9.775
 31
0.0
  0
LINE
  5
432
330
33F
100
AcDbEntity
  8
PEN2
  6
LTY1
100
AcDbLine
 10
8.3
 20
9.775
 30
0.0
 11
8.6
 21
9.775
 31
0.0
  0
LINE
  5
433
330
33F
100
AcDbEntity
  8
PEN2
  6
LTY1
100
AcDbLine
 10
10.05
 20
9.775
 30
0.0
 11
10.65
 21
9.775
 31
0.0
  0
LINE
  5
434
330
33F
100
AcDbEntity
  8
PEN2
  6
LTY1
100
AcDbLine
 10
11.55
 20
9.775
 30
0.0
 11
12.325
 21
9.775
 31
0.0
  0
LINE
  5
435
330
33F
100
AcDbEntity
  8
PEN2
  6
LTY1
100
AcDbLine
 10
14.15
 20
9.775
 30
0.0
 11
16.625
 21
9.775
 31
0.0
  0
LINE
  5
436
330
33F
100
AcDbEntity
  8
PEN2
  6
LTY1
100
AcDbLine
 10
1.55
 20
9.925
 30
0.0
 11
3.225
 21
9.925
 31
0.0
  0
LINE
  5
437
330
33F
100
AcDbEntity
  8
PEN2
  6
LTY1
100
AcDbLine
 10
8.3
 20
9.925
 30
0.0
 11
8.675
 21
9.925
 31
0.0
  0
LINE
  5
438
330
33F
100
AcDbEntity
  8
PEN2
  6
LTY1
100
AcDbLine
 10
10.0
 20
9.925
 30
0.0
 11
10.65
 21
9.925
 31
0.0
  0
LINE
  5
439
330
33F
100
AcDbEntity
  8
PEN2
  6
LTY1
100
AcDbLine
 10
11.55
 20
9.925
 30
0.0
 11
12.325
 21
9.925
 31
0.0
  0
LINE
  5
43A
330
33F
100
AcDbEntity
  8
PEN2
  6
LTY1
100
AcDbLine
 10
14.15
 20
9.925
 30
0.0
 11
16.625
 21
9.925
 31
0.0
  0
LINE
  5
43B
330
33F
100
AcDbEntity
  8
PEN2
  6
LTY1
100
AcDbLine
 10
1.55
 20
10.1
 30
0.0
 11
3.225
 21
10.1
 31
0.0
  0
LINE
  5
43C
330
33F
100
AcDbEntity
  8
PEN2
  6
LTY1
100
AcDbLine
 10
8.3
 20
10.1
 30
0.0
 11
8.7
 21
10.1
 31
0.0
  0
LINE
  5
43D
330
33F
100
AcDbEntity
  8
PEN2
  6
LTY1
100
AcDbLine
 10
9.975
 20
10.1
 30
0.0
 11
10.65
 21
10.1
 31
0.0
  0
LINE
  5
43E
330
33F
100
AcDbEntity
  8
PEN2
  6
LTY1
100
AcDbLine
 10
11.55
 20
10.1
 30
0.0
 11
12.325
 21
10.1
 31
0.0
  0
LINE
  5
43F
330
33F
100
AcDbEntity
  8
PEN2
  6
LTY1
100
AcDbLine
 10
14.15
 20
10.1
 30
0.0
 11
16.625
 21
10.1
 31
0.0
  0
LINE
  5
440
330
33F
100
AcDbEntity
  8
PEN2
  6
LTY1
100
AcDbLine
 10
1.55
 20
10.25
 30
0.0
 11
3.225
 21
10.25
 31
0.0
  0
LINE
  5
441
330
33F
100
AcDbEntity
  8
PEN2
  6
LTY1
100
AcDbLine
 10
8.3
 20
10.25
 30
0.0
 11
8.725
 21
10.25
 31
0.0
  0
LINE
  5
442
330
33F
100
AcDbEntity
  8
PEN2
  6
LTY1
100
AcDbLine
 10
9.925
 20
10.25
 30
0.0
 11
10.65
 21
10.25
 31
0.0
  0
LINE
  5
443
330
33F
100
AcDbEntity
  8
PEN2
  6
LTY1
100
AcDbLine
 10
11.55
 20
10.25
 30
0.0
 11
12.325
 21
10.25
 31
0.0
  0
LINE
  5
444
330
33F
100
AcDbEntity
  8
PEN2
  6
LTY1
100
AcDbLine
 10
14.15
 20
10.25
 30
0.0
 11
16.625
 21
10.25
 31
0.0
  0
LINE
  5
445
330
33F
100
AcDbEntity
  8
PEN2
  6
LTY1
100
AcDbLine
 10
1.55
 20
10.425
 30
0.0
 11
3.225
 21
10.425
 31
0.0
  0
LINE
  5
446
330
33F
100
AcDbEntity
  8
PEN2
  6
LTY1
100
AcDbLine
 10
8.3
 20
10.425
 30
0.0
 11
8.8
 21
10.425
 31
0.0
  0
LINE
  5
447
330
33F
100
AcDbEntity
  8
PEN2
  6
LTY1
100
AcDbLine
 10
9.875
 20
10.425
 30
0.0
 11
10.65
 21
10.425
 31
0.0
  0
LINE
  5
448
330
33F
100
AcDbEntity
  8
PEN2
  6
LTY1
100
AcDbLine
 10
11.55
 20
10.425
 30
0.0
 11
12.325
 21
10.425
 31
0.0
  0
LINE
  5
449
330
33F
100
AcDbEntity
  8
PEN2
  6
LTY1
100
AcDbLine
 10
14.15
 20
10.425
 30
0.0
 11
16.625
 21
10.425
 31
0.0
  0
LINE
  5
44A
330
33F
100
AcDbEntity
  8
PEN2
  6
LTY1
100
AcDbLine
 10
1.55
 20
10.575
 30
0.0
 11
16.625
 21
10.575
 31
0.0
  0
LINE
  5
44B
330
33F
100
AcDbEntity
  8
PEN2
  6
LTY1
100
AcDbLine
 10
1.55
 20
10.75
 30
0.0
 11
16.625
 21
10.75
 31
0.0
  0
LINE
  5
44C
330
33F
100
AcDbEntity
  8
PEN2
  6
LTY1
100
AcDbLine
 10
1.55
 20
10.9
 30
0.0
 11
16.625
 21
10.9
 31
0.0
  0
LINE
  5
44D
330
33F
100
AcDbEntity
  8
PEN2
  6
LTY1
100
AcDbLine
 10
1.55
 20
11.075
 30
0.0
 11
16.625
 21
11.075
 31
0.0
  0
LINE
  5
44E
330
33F
100
AcDbEntity
  8
PEN2
  6
LTY1
100
AcDbLine
 10
1.55
 20
11.225
 30
0.0
 11
16.625
 21
11.225
 31
0.0
  0
LINE
  5
44F
330
33F
100
AcDbEntity
  8
PEN2
  6
LTY1
100
AcDbLine
 10
1.8
 20
11.4
 30
0.0
 11
16.325
 21
11.4
 31
0.0
  0
LINE
  5
450
330
33F
100
AcDbEntity
  8
PEN2
  6
LTY1
100
AcDbLine
 10
2.1
 20
11.55
 30
0.0
 11
16.05
 21
11.55
 31
0.0
  0
LINE
  5
451
330
33F
100
AcDbEntity
  8
PEN2
  6
LTY1
100
AcDbLine
 10
2.4
 20
11.725
 30
0.0
 11
15.75
 21
11.725
 31
0.0
  0
LINE
  5
452
330
33F
100
AcDbEntity
  8
PEN2
  6
LTY1
100
AcDbLine
 10
2.675
 20
11.875
 30
0.0
 11
15.45
 21
11.875
 31
0.0
  0
LINE
  5
453
330
33F
100
AcDbEntity
  8
PEN2
  6
LTY1
100
AcDbLine
 10
2.975
 20
12.05
 30
0.0
 11
15.175
 21
12.05
 31
0.0
  0
LINE
  5
454
330
33F
100
AcDbEntity
  8
PEN2
  6
LTY1
100
AcDbLine
 10
3.275
 20
12.2
 30
0.0
 11
14.875
 21
12.2
 31
0.0
  0
LINE
  5
455
330
33F
100
AcDbEntity
  8
PEN2
  6
LTY1
100
AcDbLine
 10
3.55
 20
12.375
 30
0.0
 11
14.575
 21
12.375
 31
0.0
  0
LINE
  5
456
330
33F
100
AcDbEntity
  8
PEN2
  6
LTY1
100
AcDbLine
 10
3.85
 20
12.525
 30
0.0
 11
14.275
 21
12.525
 31
0.0
  0
LINE
  5
457
330
33F
100
AcDbEntity
  8
PEN2
  6
LTY1
100
AcDbLine
 10
4.15
 20
12.7
 30
0.0
 11
14.0
 21
12.7
 31
0.0
  0
LINE
  5
458
330
33F
100
AcDbEntity
  8
PEN2
  6
LTY1
100
AcDbLine
 10
4.45
 20
12.85
 30
0.0
 11
13.7
 21
12.85
 31
0.0
  0
LINE
  5
459
330
33F
100
AcDbEntity
  8
PEN2
  6
LTY1
100
AcDbLine
 10
4.725
 20
13.025
 30
0.0
 11
13.4
 21
13.025
 31
0.0
  0
LINE
  5
45A
330
33F
100
AcDbEntity
  8
PEN2
  6
LTY1
100
AcDbLine
 10
15.45
 20
7.65
 30
0.0
 11
12.325
 21
7.65
 31
0.0
  0
LINE
  5
45B
330
33F
100
AcDbEntity
  8
PEN2
  6
LTY1
100
AcDbLine
 10
12.325
 20
7.65
 30
0.0
 11
12.325
 21
8.7
 31
0.0
  0
LINE
  5
45C
330
33F
100
AcDbEntity
  8
PEN2
  6
LTY1
100
AcDbLine
 10
12.325
 20
8.7
 30
0.0
 11
11.55
 21
8.7
 31
0.0
  0
LINE
  5
45D
330
33F
100
AcDbEntity
  8
PEN2
  6
LTY1
100
AcDbLine
 10
11.55
 20
8.7
 30
0.0
 11
11.55
 21
7.65
 31
0.0
  0
LINE
  5
45E
330
33F
100
AcDbEntity
  8
PEN2
  6
LTY1
100
AcDbLine
 10
11.55
 20
7.65
 30
0.0
 11
9.725
 21
7.65
 31
0.0
  0
LINE
  5
45F
330
33F
100
AcDbEntity
  8
PEN2
  6
LTY1
100
AcDbLine
 10
9.725
 20
7.65
 30
0.0
 11
9.6
 21
8.175
 31
0.0
  0
LINE
  5
460
330
33F
100
AcDbEntity
  8
PEN2
  6
LTY1
100
AcDbLine
 10
9.6
 20
8.175
 30
0.0
 11
9.075
 21
8.175
 31
0.0
  0
LINE
  5
461
330
33F
100
AcDbEntity
  8
PEN2
  6
LTY1
100
AcDbLine
 10
9.075
 20
8.175
 30
0.0
 11
8.95
 21
7.65
 31
0.0
  0
LINE
  5
462
330
33F
100
AcDbEntity
  8
PEN2
  6
LTY1
100
AcDbLine
 10
8.95
 20
7.65
 30
0.0
 11
6.625
 21
7.65
 31
0.0
  0
LINE
  5
463
330
33F
100
AcDbEntity
  8
PEN2
  6
LTY1
100
AcDbLine
 10
6.625
 20
7.65
 30
0.0
 11
6.625
 21
9.725
 31
0.0
  0
LINE
  5
464
330
33F
100
AcDbEntity
  8
PEN2
  6
LTY1
100
AcDbLine
 10
6.625
 20
9.725
 30
0.0
 11
5.7
 21
9.725
 31
0.0
  0
LINE
  5
465
330
33F
100
AcDbEntity
  8
PEN2
  6
LTY1
100
AcDbLine
 10
5.7
 20
9.725
 30
0.0
 11
5.7
 21
7.65
 31
0.0
  0
LINE
  5
466
330
33F
100
AcDbEntity
  8
PEN2
  6
LTY1
100
AcDbLine
 10
5.7
 20
7.65
 30
0.0
 11
3.225
 21
7.65
 31
0.0
  0
LINE
  5
467
330
33F
100
AcDbEntity
  8
PEN2
  6
LTY1
100
AcDbLine
 10
3.225
 20
7.65
 30
0.0
 11
3.225
 21
7.65
 31
0.0
  0
LINE
  5
468
330
33F
100
AcDbEntity
  8
PEN2
  6
LTY1
100
AcDbLine
 10
3.225
 20
7.65
 30
0.0
 11
15.45
 21
7.65
 31
0.0
  0
LINE
  5
469
330
33F
100
AcDbEntity
  8
PEN2
  6
LTY1
100
AcDbLine
 10
15.45
 20
7.65
 30
0.0
 11
15.45
 21
7.65
 31
0.0
  0
LINE
  5
46A
330
33F
100
AcDbEntity
  8
PEN2
  6
LTY1
100
AcDbLine
 10
5.7
 20
7.825
 30
0.0
 11
6.625
 21
7.825
 31
0.0
  0
LINE
  5
46B
330
33F
100
AcDbEntity
  8
PEN2
  6
LTY1
100
AcDbLine
 10
9.0
 20
7.825
 30
0.0
 11
9.675
 21
7.825
 31
0.0
  0
LINE
  5
46C
330
33F
100
AcDbEntity
  8
PEN2
  6
LTY1
100
AcDbLine
 10
11.55
 20
7.825
 30
0.0
 11
12.325
 21
7.825
 31
0.0
  0
LINE
  5
46D
330
33F
100
AcDbEntity
  8
PEN2
  6
LTY1
100
AcDbLine
 10
5.7
 20
7.975
 30
0.0
 11
6.625
 21
7.975
 31
0.0
  0
LINE
  5
46E
330
33F
100
AcDbEntity
  8
PEN2
  6
LTY1
100
AcDbLine
 10
9.025
 20
7.975
 30
0.0
 11
9.65
 21
7.975
 31
0.0
  0
LINE
  5
46F
330
33F
100
AcDbEntity
  8
PEN2
  6
LTY1
100
AcDbLine
 10
11.55
 20
7.975
 30
0.0
 11
12.325
 21
7.975
 31
0.0
  0
LINE
  5
470
330
33F
100
AcDbEntity
  8
PEN2
  6
LTY1
100
AcDbLine
 10
5.7
 20
8.15
 30
0.0
 11
6.625
 21
8.15
 31
0.0
  0
LINE
  5
471
330
33F
100
AcDbEntity
  8
PEN2
  6
LTY1
100
AcDbLine
 10
9.05
 20
8.15
 30
0.0
 11
9.6
 21
8.15
 31
0.0
  0
LINE
  5
472
330
33F
100
AcDbEntity
  8
PEN2
  6
LTY1
100
AcDbLine
 10
11.55
 20
8.15
 30
0.0
 11
12.325
 21
8.15
 31
0.0
  0
LINE
  5
473
330
33F
100
AcDbEntity
  8
PEN2
  6
LTY1
100
AcDbLine
 10
5.7
 20
8.3
 30
0.0
 11
6.625
 21
8.3
 31
0.0
  0
LINE
  5
474
330
33F
100
AcDbEntity
  8
PEN2
  6
LTY1
100
AcDbLine
 10
11.55
 20
8.3
 30
0.0
 11
12.325
 21
8.3
 31
0.0
  0
LINE
  5
475
330
33F
100
AcDbEntity
  8
PEN2
  6
LTY1
100
AcDbLine
 10
5.7
 20
8.475
 30
0.0
 11
6.625
 21
8.475
 31
0.0
  0
LINE
  5
476
330
33F
100
AcDbEntity
  8
PEN2
  6
LTY1
100
AcDbLine
 10
11.55
 20
8.475
 30
0.0
 11
12.325
 21
8.475
 31
0.0
  0
LINE
  5
477
330
33F
100
AcDbEntity
  8
PEN2
  6
LTY1
100
AcDbLine
 10
5.7
 20
8.625
 30
0.0
 11
6.625
 21
8.625
 31
0.0
  0
LINE
  5
478
330
33F
100
AcDbEntity
  8
PEN2
  6
LTY1
100
AcDbLine
 10
11.55
 20
8.625
 30
0.0
 11
12.325
 21
8.625
 31
0.0
  0
LINE
  5
479
330
33F
100
AcDbEntity
  8
PEN2
  6
LTY1
100
AcDbLine
 10
5.7
 20
8.8
 30
0.0
 11
6.625
 21
8.8
 31
0.0
  0
LINE
  5
47A
330
33F
100
AcDbEntity
  8
PEN2
  6
LTY1
100
AcDbLine
 10
5.7
 20
8.95
 30
0.0
 11
6.625
 21
8.95
 31
0.0
  0
LINE
  5
47B
330
33F
100
AcDbEntity
  8
PEN2
  6
LTY1
100
AcDbLine
 10
5.7
 20
9.125
 30
0.0
 11
6.625
 21
9.125
 31
0.0
  0
LINE
  5
47C
330
33F
100
AcDbEntity
  8
PEN2
  6
LTY1
100
AcDbLine
 10
5.7
 20
9.275
 30
0.0
 11
6.625
 21
9.275
 31
0.0
  0
LINE
  5
47D
330
33F
100
AcDbEntity
  8
PEN2
  6
LTY1
100
AcDbLine
 10
5.7
 20
9.45
 30
0.0
 11
6.625
 21
9.45
 31
0.0
  0
LINE
  5
47E
330
33F
100
AcDbEntity
  8
PEN2
  6
LTY1
100
AcDbLine
 10
5.7
 20
9.6
 30
0.0
 11
6.625
 21
9.6
 31
0.0
  0
LINE
  5
47F
330
33F
100
AcDbEntity
  8
PEN2
  6
LTY1
100
AcDbLine
 10
13.25
 20
7.65
 30
0.0
 11
13.25
 21
10.525
 31
0.0
  0
LINE
  5
480
330
33F
100
AcDbEntity
  8
PEN2
  6
LTY1
100
AcDbLine
 10
9.35
 20
8.95
 30
0.0
 11
9.35
 21
9.35
 31
0.0
  0
LINE
  5
481
330
33F
100
AcDbEntity
  8
PEN2
  6
LTY1
100
AcDbLine
 10
5.7
 20
10.525
 30
0.0
 11
5.7
 21
9.6
 31
0.0
  0
LINE
  5
482
330
33F
100
AcDbEntity
  8
PEN2
  6
LTY1
100
AcDbLine
 10
5.7
 20
9.6
 30
0.0
 11
4.15
 21
9.6
 31
0.0
  0
LINE
  5
483
330
33F
100
AcDbEntity
  8
PEN2
  6
LTY1
100
AcDbLine
 10
4.15
 20
9.6
 30
0.0
 11
4.15
 21
9.475
 31
0.0
  0
LINE
  5
484
330
33F
100
AcDbEntity
  8
PEN2
  6
LTY1
100
AcDbLine
 10
4.15
 20
9.475
 30
0.0
 11
5.7
 21
9.475
 31
0.0
  0
LINE
  5
485
330
33F
100
AcDbEntity
  8
PEN2
  6
LTY1
100
AcDbLine
 10
3.225
 20
8.575
 30
0.0
 11
4.8
 21
8.575
 31
0.0
  0
LINE
  5
486
330
33F
100
AcDbEntity
  8
PEN2
  6
LTY1
100
AcDbLine
 10
4.8
 20
8.575
 30
0.0
 11
4.8
 21
8.425
 31
0.0
  0
LINE
  5
487
330
33F
100
AcDbEntity
  8
PEN2
  6
LTY1
100
AcDbLine
 10
4.8
 20
8.425
 30
0.0
 11
3.225
 21
8.425
 31
0.0
  0
LINE
  5
488
330
33F
100
AcDbEntity
  8
PEN2
  6
LTY1
100
AcDbLine
 10
8.3
 20
10.525
 30
0.0
 11
12.325
 21
10.525
 31
0.0
  0
ENDBLK
  5
772
330
33F
100
AcDbEntity
  8
0
100
AcDbBlockEnd
  0
ENDSEC
  0
SECTION
  2
ENTITIES
  0
INSERT
  5
48A
330
1F
100
AcDbEntity
  8
SF
100
AcDbBlockReference
 66
     1
  2
SF_KORA7_00
 10
0.0
 20
0.0
 30
0.0
  0
ATTRIB
  5
48B
330
48A
100
AcDbEntity
  8
PEN1
100
AcDbText
 10
289.35
 20
0.0
 30
0.0
 40
3.5
  1
Eplan
  7
NORMSCHRIFT
100
AcDbAttribute
  2
CODE_60
 70
     1
280
     0
  0
ATTRIB
  5
48C
330
48A
100
AcDbEntity
  8
PEN1
100
AcDbText
 10
289.35
 20
0.0
 30
0.0
 40
3.5
  1
MSR
  7
NORMSCHRIFT
100
AcDbAttribute
  2
CODE_61
 70
     1
280
     0
  0
ATTRIB
  5
48D
330
48A
100
AcDbEntity
  8
PEN2
100
AcDbText
 10
373.65
 20
5.0
 30
0.0
 40
2.5
  1
IS_PAC_7
  7
NORMSCHRIFT
 72
     2
 11
392.75
 21
5.0
 31
0.0
100
AcDbAttribute
  2
CODE_62
 70
     0
280
     0
  0
ATTRIB
  5
48E
330
48A
100
AcDbEntity
  8
PEN4
100
AcDbText
 10
0.0
 20
0.0
 30
0.0
 40
0.2
  1

  7
NORMSCHRIFT
100
AcDbAttribute
  2
CODE_63
 70
     1
280
     0
  0
ATTRIB
  5
48F
330
48A
100
AcDbEntity
  8
PEN2
100
AcDbText
 10
207.25
 20
15.0
 30
0.0
 40
2.5
  1

  7
NORMSCHRIFT
100
AcDbAttribute
  2
CODE_77
 70
     0
280
     0
  0
ATTRIB
  5
490
330
48A
100
AcDbEntity
  8
PEN1
100
AcDbText
 10
206.85
 20
7.5
 30
0.0
 40
3.5
  1

  7
NORMSCHRIFT
100
AcDbAttribute
  2
CODE_66
 70
     0
280
     0
  0
ATTRIB
  5
491
330
48A
100
AcDbEntity
  8
PEN1
100
AcDbText
 10
206.85
 20
0.5
 30
0.0
 40
3.5
  1

  7
NORMSCHRIFT
100
AcDbAttribute
  2
CODE_65
 70
     0
280
     0
  0
ATTRIB
  5
492
330
48A
100
AcDbEntity
  8
PEN2
100
AcDbText
 10
183.75
 20
15.0
 30
0.0
 40
2.5
  1

  7
NORMSCHRIFT
 72
     2
 11
183.75
 21
15.0
 31
0.0
100
AcDbAttribute
  2
CODE_68
 70
     1
280
     0
  0
ATTRIB
  5
493
330
48A
100
AcDbEntity
  8
PEN2
100
AcDbText
 10
183.75
 20
15.0
 30
0.0
 40
2.5
  1

  7
NORMSCHRIFT
 72
     2
 11
183.75
 21
15.0
 31
0.0
100
AcDbAttribute
  2
CODE_160
 70
     1
280
     0
  0
ATTRIB
  5
494
330
48A
100
AcDbEntity
  8
PEN1
100
AcDbText
 10
322.35
 20
11.5
 30
0.0
 40
3.5
  1

  7
NORMSCHRIFT
100
AcDbAttribute
  2
CODE_3
 70
     0
280
     0
  0
ATTRIB
  5
495
330
48A
100
AcDbEntity
  8
PEN2
100
AcDbText
 10
183.75
 20
10.0
 30
0.0
 40
2.5
  1

  7
NORMSCHRIFT
 72
     2
 11
183.75
 21
10.0
 31
0.0
100
AcDbAttribute
  2
CODE_67
 70
     0
280
     0
  0
ATTRIB
  5
496
330
48A
100
AcDbEntity
  8
PEN2
100
AcDbText
 10
183.75
 20
5.0
 30
0.0
 40
2.5
  1

  7
NORMSCHRIFT
 72
     2
 11
183.75
 21
5.0
 31
0.0
100
AcDbAttribute
  2
CODE_78
 70
     0
280
     0
  0
ATTRIB
  5
497
330
48A
100
AcDbEntity
  8
PEN2
100
AcDbText
 10
84.25
 20
14.5
 30
0.0
 40
2.5
  1
14.04.2010
  7
NORMSCHRIFT
100
AcDbAttribute
  2
CODE_72
 70
     0
280
     0
  0
ATTRIB
  5
498
330
48A
100
AcDbEntity
  8
PEN2
100
AcDbText
 10
84.25
 20
9.5
 30
0.0
 40
2.5
  1

  7
NORMSCHRIFT
100
AcDbAttribute
  2
CODE_424
 70
     0
280
     0
  0
ATTRIB
  5
499
330
48A
100
AcDbEntity
  8
PEN2
100
AcDbText
 10
84.25
 20
4.5
 30
0.0
 40
2.5
  1

  7
NORMSCHRIFT
100
AcDbAttribute
  2
CODE_423
 70
     0
280
     0
  0
ATTRIB
  5
49A
330
48A
100
AcDbEntity
  8
PEN2
100
AcDbText
 10
84.25
 20
0.0
 30
0.0
 40
2.5
  1

  7
NORMSCHRIFT
100
AcDbAttribute
  2
CODE_425
 70
     0
280
     0
  0
ATTRIB
  5
49B
330
48A
100
AcDbEntity
  8
PEN2
100
AcDbText
 10
390.375
 20
0.0
 30
0.0
 40
2.5
  1
9
  7
NORMSCHRIFT
 72
     2
 11
392.75
 21
0.0
 31
0.0
100
AcDbAttribute
  2
CODE_71
 70
     0
280
     0
  0
ATTRIB
  5
49C
330
48A
100
AcDbEntity
  8
PEN4
100
AcDbText
 10
4.2
 20
5.0
 30
0.0
 40
2.0
  1

  7
NORMSCHRIFT
100
AcDbAttribute
  2
CODE_430
 70
     0
280
     0
  0
ATTRIB
  5
49D
330
48A
100
AcDbEntity
  8
PEN4
100
AcDbText
 10
38.7
 20
5.0
 30
0.0
 40
2.0
  1

  7
NORMSCHRIFT
100
AcDbAttribute
  2
CODE_431
 70
     0
280
     0
  0
ATTRIB
  5
49E
330
48A
100
AcDbEntity
  8
PEN4
100
AcDbText
 10
53.2
 20
5.0
 30
0.0
 40
2.0
  1

  7
NORMSCHRIFT
100
AcDbAttribute
  2
CODE_432
 70
     0
280
     0
  0
ATTRIB
  5
49F
330
48A
100
AcDbEntity
  8
PEN4
100
AcDbText
 10
4.2
 20
10.0
 30
0.0
 40
2.0
  1

  7
NORMSCHRIFT
100
AcDbAttribute
  2
CODE_433
 70
     0
280
     0
  0
ATTRIB
  5
4A0
330
48A
100
AcDbEntity
  8
PEN4
100
AcDbText
 10
38.7
 20
10.0
 30
0.0
 40
2.0
  1

  7
NORMSCHRIFT
100
AcDbAttribute
  2
CODE_434
 70
     0
280
     0
  0
ATTRIB
  5
4A1
330
48A
100
AcDbEntity
  8
PEN4
100
AcDbText
 10
53.2
 20
10.0
 30
0.0
 40
2.0
  1

  7
NORMSCHRIFT
100
AcDbAttribute
  2
CODE_435
 70
     0
280
     0
  0
ATTRIB
  5
4A2
330
48A
100
AcDbEntity
  8
PEN4
100
AcDbText
 10
4.2
 20
15.0
 30
0.0
 40
2.0
  1

  7
NORMSCHRIFT
100
AcDbAttribute
  2
CODE_436
 70
     0
280
     0
  0
ATTRIB
  5
4A3
330
48A
100
AcDbEntity
  8
PEN4
100
AcDbText
 10
38.7
 20
15.0
 30
0.0
 40
2.0
  1

  7
NORMSCHRIFT
100
AcDbAttribute
  2
CODE_437
 70
     0
280
     0
  0
ATTRIB
  5
4A4
330
48A
100
AcDbEntity
  8
PEN4
100
AcDbText
 10
53.2
 20
15.0
 30
0.0
 40
2.0
  1

  7
NORMSCHRIFT
100
AcDbAttribute
  2
CODE_438
 70
     0
280
     0
  0
ATTRIB
  5
4A5
330
48A
100
AcDbEntity
  8
PEN1
100
AcDbText
 10
374.5
 20
10.5
 30
0.0
 40
3.5
  1

  7
NORMSCHRIFT
 72
     1
 11
374.5
 21
10.5
 31
0.0
100
AcDbAttribute
  2
CODE_1
 70
     1
280
     0
  0
ATTRIB
  5
4A6
330
48A
100
AcDbEntity
  8
PEN1
100
AcDbText
 10
374.5
 20
10.5
 30
0.0
 40
3.5
  1

  7
NORMSCHRIFT
 72
     1
 11
374.5
 21
10.5
 31
0.0
100
AcDbAttribute
  2
CODE_2
 70
     1
280
     0
  0
ATTRIB
  5
4A7
330
48A
100
AcDbEntity
  8
PEN4
100
AcDbText
 10
107.2
 20
0.5
 30
0.0
 40
2.0
  1

  7
NORMSCHRIFT
100
AcDbAttribute
  2
CODE_73
 70
     0
280
     0
  0
ATTRIB
  5
4A8
330
48A
100
AcDbEntity
  8
PEN4
100
AcDbText
 10
140.0
 20
0.5
 30
0.0
 40
2.0
  1

  7
NORMSCHRIFT
 72
     1
 11
140.0
 21
0.5
 31
0.0
100
AcDbAttribute
  2
CODE_74
 70
     0
280
     0
  0
ATTRIB
  5
4A9
330
48A
100
AcDbEntity
  8
PEN4
100
AcDbText
 10
183.9
 20
0.5
 30
0.0
 40
2.0
  1

  7
NORMSCHRIFT
 72
     2
 11
183.9
 21
0.5
 31
0.0
100
AcDbAttribute
  2
CODE_75
 70
     0
280
     0
  0
ATTRIB
  5
4AA
330
48A
100
AcDbEntity
  8
PEN4
100
AcDbText
 10
0.0
 20
0.0
 30
0.0
 40
0.2
  1
60
  7
NORMSCHRIFT
100
AcDbAttribute
  2
CODE_2000
 70
     1
280
     0
  0
ATTRIB
  5
4AB
330
48A
100
AcDbEntity
  8
PEN4
100
AcDbText
 10
0.0
 20
0.0
 30
0.0
 40
0.2
  1
61
  7
NORMSCHRIFT
100
AcDbAttribute
  2
CODE_2001
 70
     1
280
     0
  0
ATTRIB
  5
4AC
330
48A
100
AcDbEntity
  8
PEN4
100
AcDbText
 10
0.0
 20
0.0
 30
0.0
 40
0.2
  1
62
  7
NORMSCHRIFT
100
AcDbAttribute
  2
CODE_2002
 70
     1
280
     0
  0
ATTRIB
  5
4AD
330
48A
100
AcDbEntity
  8
PEN4
100
AcDbText
 10
0.0
 20
0.0
 30
0.0
 40
0.2
  1
63
  7
NORMSCHRIFT
100
AcDbAttribute
  2
CODE_2003
 70
     1
280
     0
  0
ATTRIB
  5
4AE
330
48A
100
AcDbEntity
  8
PEN4
100
AcDbText
 10
0.0
 20
0.0
 30
0.0
 40
0.2
  1
Anlage ............
  7
NORMSCHRIFT
100
AcDbAttribute
  2
CODE_2005
 70
     1
280
     0
  0
ATTRIB
  5
4AF
330
48A
100
AcDbEntity
  8
PEN4
100
AcDbText
 10
0.0
 20
0.0
 30
0.0
 40
0.2
  1
Gruppe ............
  7
NORMSCHRIFT
100
AcDbAttribute
  2
CODE_2006
 70
     1
280
     0
  0
ATTRIB
  5
4B0
330
48A
100
AcDbEntity
  8
PEN4
100
AcDbText
 10
0.0
 20
0.0
 30
0.0
 40
0.2
  1
Blatt .............
  7
NORMSCHRIFT
100
AcDbAttribute
  2
CODE_2007
 70
     1
280
     0
  0
ATTRIB
  5
4B1
330
48A
100
AcDbEntity
  8
PEN4
100
AcDbText
 10
0.0
 20
0.0
 30
0.0
 40
0.2
  1
Variante ..........
  7
NORMSCHRIFT
100
AcDbAttribute
  2
CODE_2008
 70
     1
280
     0
  0
ATTRIB
  5
4B2
330
48A
100
AcDbEntity
  8
PEN4
100
AcDbText
 10
0.0
 20
0.0
 30
0.0
 40
0.2
  1
110
  7
NORMSCHRIFT
100
AcDbAttribute
  2
CODE_2011
 70
     1
280
     0
  0
ATTRIB
  5
4B3
330
48A
100
AcDbEntity
  8
PEN4
100
AcDbText
 10
0.0
 20
0.0
 30
0.0
 40
0.2
  1
N
  7
NORMSCHRIFT
100
AcDbAttribute
  2
CODE_2010
 70
     1
280
     0
  0
ATTRIB
  5
4B4
330
48A
100
AcDbEntity
  8
PEN4
100
AcDbText
 10
0.0
 20
0.0
 30
0.0
 40
0.2
  1
J
  7
NORMSCHRIFT
100
AcDbAttribute
  2
CODE_2012
 70
     1
280
     0
  0
ATTRIB
  5
4B5
330
48A
100
AcDbEntity
  8
PEN4
100
AcDbText
 10
0.0
 20
0.0
 30
0.0
 40
0.2
  1
24.5
  7
NORMSCHRIFT
100
AcDbAttribute
  2
CODE_2013
 70
     1
280
     0
  0
ATTRIB
  5
4B6
330
48A
100
AcDbEntity
  8
PEN4
100
AcDbText
 10
0.0
 20
0.0
 30
0.0
 40
0.2
  1
3.5
  7
NORMSCHRIFT
100
AcDbAttribute
  2
CODE_2014
 70
     1
280
     0
  0
ATTRIB
  5
4B7
330
48A
100
AcDbEntity
  8
PEN4
100
AcDbText
 10
0.0
 20
0.0
 30
0.0
 40
0.2
  1
/C0
  7
NORMSCHRIFT
100
AcDbAttribute
  2
CODE_2015
 70
     1
280
     0
  0
ATTRIB
  5
4B8
330
48A
100
AcDbEntity
  8
PEN4
100
AcDbText
 10
0.0
 20
0.0
 30
0.0
 40
0.2
  1
400.000
  7
NORMSCHRIFT
100
AcDbAttribute
  2
CODE_2130
 70
     1
280
     0
  0
ATTRIB
  5
4B9
330
48A
100
AcDbEntity
  8
PEN4
100
AcDbText
 10
0.0
 20
0.0
 30
0.0
 40
0.2
  1
270.000
  7
NORMSCHRIFT
100
AcDbAttribute
  2
CODE_2131
 70
     1
280
     0
  0
ATTRIB
  5
4BA
330
48A
100
AcDbEntity
  8
PEN4
100
AcDbText
 10
0.0
 20
0.0
 30
0.0
 40
0.2
  1
20.000
  7
NORMSCHRIFT
100
AcDbAttribute
  2
CODE_2132
 70
     1
280
     0
  0
ATTRIB
  5
4BB
330
48A
100
AcDbEntity
  8
PEN4
100
AcDbText
 10
0.0
 20
0.0
 30
0.0
 40
0.2
  1
100.000
  7
NORMSCHRIFT
100
AcDbAttribute
  2
CODE_2133
 70
     1
280
     0
  0
ATTRIB
  5
4BC
330
48A
100
AcDbEntity
  8
PEN4
100
AcDbText
 10
0.0
 20
0.0
 30
0.0
 40
0.2
  1
10.000
  7
NORMSCHRIFT
100
AcDbAttribute
  2
CODE_2134
 70
     1
280
     0
  0
ATTRIB
  5
4BD
330
48A
100
AcDbEntity
  8
PEN4
100
AcDbText
 10
0.0
 20
0.0
 30
0.0
 40
0.2
  1
J
  7
NORMSCHRIFT
100
AcDbAttribute
  2
CODE_2016
 70
     1
280
     0
  0
ATTRIB
  5
4BE
330
48A
100
AcDbEntity
  8
PEN4
100
AcDbText
 10
0.0
 20
0.0
 30
0.0
 40
0.2
  1
60
  7
NORMSCHRIFT
100
AcDbAttribute
  2
CODE_2011
 70
     1
280
     0
  0
ATTRIB
  5
4BF
330
48A
100
AcDbEntity
  8
PEN4
100
AcDbText
 10
0.0
 20
0.0
 30
0.0
 40
0.2
  1
245
  7
NORMSCHRIFT
100
AcDbAttribute
  2
CODE_2017
 70
     1
280
     0
  0
ATTRIB
  5
4C0
330
48A
100
AcDbEntity
  8
PEN4
100
AcDbText
 10
0.0
 20
0.0
 30
0.0
 40
0.2
  1
3.5
  7
NORMSCHRIFT
100
AcDbAttribute
  2
CODE_2018
 70
     1
280
     0
  0
ATTRIB
  5
4C1
330
48A
100
AcDbEntity
  8
PEN4
100
AcDbText
 10
0.0
 20
0.0
 30
0.0
 40
0.2
  1
A20
  7
NORMSCHRIFT
100
AcDbAttribute
  2
CODE_2019
 70
     1
280
     0
  0
ATTRIB
  5
4C2
330
48A
100
AcDbEntity
  8
PEN4
100
AcDbText
 10
300.98
 20
6.0
 30
0.0
 40
2.0
  1
Engineering Base Gross
  7
NORMSCHRIFT
 72
     2
 11
337.1
 21
6.0
 31
0.0
100
AcDbAttribute
  2
CODE_51
 70
     1
280
     0
  0
ATTRIB
  5
4C3
330
48A
100
AcDbEntity
  8
PEN4
100
AcDbText
 10
0.0
 20
0.0
 30
0.0
 40
0.2
  1
1:2
  7
NORMSCHRIFT
100
AcDbAttribute
  2
CODE_4006
 70
     1
280
     0
  0
ATTRIB
  5
4C4
330
48A
100
AcDbEntity
  8
PEN2
100
AcDbText
 10
400.0
 20
4.75
 30
0.0
 40
2.5
  1
20.04.2010
 50
90.0
  7
NORMSCHRIFT
100
AcDbAttribute
  2
CODE_4901
 70
     1
280
     0
  0
ATTRIB
  5
4C5
330
48A
100
AcDbEntity
  8
PEN2
100
AcDbText
 10
400.0
 20
4.75
 30
0.0
 40
2.5
  1
grossph
 50
90.0
  7
NORMSCHRIFT
100
AcDbAttribute
  2
CODE_4902
 70
     1
280
     0
  0
ATTRIB
  5
4C6
330
48A
100
AcDbEntity
  8
PEN2
100
AcDbText
 10
400.0
 20
4.75
 30
0.0
 40
2.5
  1
7.3.2 SP1
 50
90.0
  7
NORMSCHRIFT
100
AcDbAttribute
  2
CODE_4903
 70
     1
280
     0
  0
ATTRIB
  5
4C7
330
48A
100
AcDbEntity
  8
PEN4
100
AcDbText
 10
0.59
 20
5.0
 30
0.0
 40
2.0
  1
a
  7
NORMSCHRIFT
 72
     1
 11
1.5
 21
5.0
 31
0.0
100
AcDbAttribute
  2
CODE_4800
 70
     0
280
     0
  0
ATTRIB
  5
4C8
330
48A
100
AcDbEntity
  8
PEN4
100
AcDbText
 10
0.59
 20
10.0
 30
0.0
 40
2.0
  1
b
  7
NORMSCHRIFT
 72
     1
 11
1.5
 21
10.0
 31
0.0
100
AcDbAttribute
  2
CODE_4800
 70
     0
280
     0
  0
ATTRIB
  5
4C9
330
48A
100
AcDbEntity
  8
PEN4
100
AcDbText
 10
0.65
 20
15.0
 30
0.0
 40
2.0
  1
c
  7
NORMSCHRIFT
 72
     1
 11
1.5
 21
15.0
 31
0.0
100
AcDbAttribute
  2
CODE_4800
 70
     0
280
     0
  0
SEQEND
  5
780
330
48A
100
AcDbEntity
  8
SF
  0
TEXT
  5
4CB
330
1F
100
AcDbEntity
  8
PEN2
100
AcDbText
 10
400.0
 20
4.75
 30
0.0
 40
2.5
  1
gedruckt am / printed : 20.04.2010         durch /by: grossph         ELCAD Version:7.3.2 SP1
 50
90.0
  7
NORMSCHRIFT
100
AcDbText
  0
TEXT
  5
4CC
330
1F
100
AcDbEntity
  8
PEN2
100
AcDbText
 10
173.75
 20
15.0
 30
0.0
 40
2.5
  1
 / 
  7
NORMSCHRIFT
 72
     2
 11
183.75
 21
15.0
 31
0.0
100
AcDbText
  0
TEXT
  5
4CD
330
1F
100
AcDbEntity
  8
PEN1
100
AcDbText
 10
289.35
 20
0.0
 30
0.0
 40
3.5
  1
Eplan - MSR
  7
NORMSCHRIFT
100
AcDbText
  0
TEXT
  5
4CE
330
1F
100
AcDbEntity
  8
PEN4
100
AcDbText
 10
308.92
 20
6.0
 30
0.0
 40
2.0
  1
Project: Engineering Base Gross
  7
NORMSCHRIFT
 72
     2
 11
365.9
 21
6.0
 31
0.0
100
AcDbText
  0
TEXT
  5
4CF
330
1F
100
AcDbEntity
  8
PEN1
100
AcDbText
 10
374.5
 20
10.5
 30
0.0
 40
3.5
  1

  7
NORMSCHRIFT
 72
     1
 11
374.5
 21
10.5
 31
0.0
100
AcDbText
  0
CIRCLE
  5
4D4
330
1F
100
AcDbEntity
  8
PEN1
  6
LTY1
100
AcDbCircle
 10
200.4
 20
129.95
 30
0.0
 40
3.0
  0
CIRCLE
  5
4D5
330
1F
100
AcDbEntity
  8
PEN1
  6
LTY1
100
AcDbCircle
 10
200.4
 20
149.95
 30
0.0
 40
3.0
  0
LINE
  5
4DC
330
1F
100
AcDbEntity
  8
PEN1
  6
LTY1
100
AcDbLine
 10
203.925
 20
158.225
 30
0.0
 11
196.875
 21
158.225
 31
0.0
  0
LINE
  5
4DD
330
1F
100
AcDbEntity
  8
PEN1
  6
LTY1
100
AcDbLine
 10
196.875
 20
158.225
 30
0.0
 11
196.875
 21
121.525
 31
0.0
  0
LINE
  5
4DE
330
1F
100
AcDbEntity
  8
PEN1
  6
LTY1
100
AcDbLine
 10
196.875
 20
121.525
 30
0.0
 11
203.925
 21
121.525
 31
0.0
  0
LINE
  5
4DF
330
1F
100
AcDbEntity
  8
PEN1
  6
LTY1
100
AcDbLine
 10
203.925
 20
121.525
 30
0.0
 11
203.925
 21
158.225
 31
0.0
  0
LINE
  5
4E0
330
1F
100
AcDbEntity
  8
PEN1
  6
LTY1
100
AcDbLine
 10
203.925
 20
158.225
 30
0.0
 11
203.925
 21
158.225
 31
0.0
  0
LINE
  5
4E1
330
1F
100
AcDbEntity
  8
PEN1
  6
LTY1
100
AcDbLine
 10
202.15
 20
153.975
 30
0.0
 11
198.65
 21
153.975
 31
0.0
  0
LINE
  5
4E2
330
1F
100
AcDbEntity
  8
PEN1
  6
LTY1
100
AcDbLine
 10
202.15
 20
157.475
 30
0.0
 11
202.15
 21
153.975
 31
0.0
  0
LINE
  5
4E3
330
1F
100
AcDbEntity
  8
PEN1
  6
LTY1
100
AcDbLine
 10
198.65
 20
157.475
 30
0.0
 11
202.15
 21
157.475
 31
0.0
  0
LINE
  5
4E4
330
1F
100
AcDbEntity
  8
PEN1
  6
LTY1
100
AcDbLine
 10
198.65
 20
153.975
 30
0.0
 11
198.65
 21
157.475
 31
0.0
  0
LINE
  5
4E5
330
1F
100
AcDbEntity
  8
PEN1
  6
LTY1
100
AcDbLine
 10
198.925
 20
155.325
 30
0.0
 11
198.925
 21
156.15
 31
0.0
  0
LINE
  5
4E6
330
1F
100
AcDbEntity
  8
PEN1
  6
LTY1
100
AcDbLine
 10
198.925
 20
156.15
 30
0.0
 11
199.575
 21
156.525
 31
0.0
  0
LINE
  5
4E7
330
1F
100
AcDbEntity
  8
PEN1
  6
LTY1
100
AcDbLine
 10
199.575
 20
156.525
 30
0.0
 11
201.25
 21
156.525
 31
0.0
  0
LINE
  5
4E8
330
1F
100
AcDbEntity
  8
PEN1
  6
LTY1
100
AcDbLine
 10
201.25
 20
156.525
 30
0.0
 11
201.9
 21
156.15
 31
0.0
  0
LINE
  5
4E9
330
1F
100
AcDbEntity
  8
PEN1
  6
LTY1
100
AcDbLine
 10
201.9
 20
155.325
 30
0.0
 11
201.9
 21
156.15
 31
0.0
  0
LINE
  5
4EA
330
1F
100
AcDbEntity
  8
PEN1
  6
LTY1
100
AcDbLine
 10
201.9
 20
155.325
 30
0.0
 11
201.25
 21
154.975
 31
0.0
  0
LINE
  5
4EB
330
1F
100
AcDbEntity
  8
PEN1
  6
LTY1
100
AcDbLine
 10
201.25
 20
154.975
 30
0.0
 11
199.575
 21
154.975
 31
0.0
  0
LINE
  5
4EC
330
1F
100
AcDbEntity
  8
PEN1
  6
LTY1
100
AcDbLine
 10
199.575
 20
154.975
 30
0.0
 11
198.925
 21
155.325
 31
0.0
  0
LINE
  5
4ED
330
1F
100
AcDbEntity
  8
PEN1
  6
LTY1
100
AcDbLine
 10
201.475
 20
155.5
 30
0.0
 11
201.3
 21
155.5
 31
0.0
  0
LINE
  5
4EE
330
1F
100
AcDbEntity
  8
PEN1
  6
LTY1
100
AcDbLine
 10
200.725
 20
155.75
 30
0.0
 11
200.725
 21
155.5
 31
0.0
  0
LINE
  5
4EF
330
1F
100
AcDbEntity
  8
PEN1
  6
LTY1
100
AcDbLine
 10
200.225
 20
155.675
 30
0.0
 11
200.325
 21
155.95
 31
0.0
  0
LINE
  5
4F0
330
1F
100
AcDbEntity
  8
PEN1
  6
LTY1
100
AcDbLine
 10
200.4
 20
155.95
 30
0.0
 11
200.325
 21
155.95
 31
0.0
  0
LINE
  5
4F1
330
1F
100
AcDbEntity
  8
PEN1
  6
LTY1
100
AcDbLine
 10
200.475
 20
155.675
 30
0.0
 11
200.525
 21
155.5
 31
0.0
  0
LINE
  5
4F2
330
1F
100
AcDbEntity
  8
PEN1
  6
LTY1
100
AcDbLine
 10
200.05
 20
155.95
 30
0.0
 11
199.925
 21
155.95
 31
0.0
  0
LINE
  5
4F3
330
1F
100
AcDbEntity
  8
PEN1
  6
LTY1
100
AcDbLine
 10
199.925
 20
155.95
 30
0.0
 11
199.775
 21
155.95
 31
0.0
  0
LINE
  5
4F4
330
1F
100
AcDbEntity
  8
PEN1
  6
LTY1
100
AcDbLine
 10
199.925
 20
155.5
 30
0.0
 11
199.925
 21
155.95
 31
0.0
  0
LINE
  5
4F5
330
1F
100
AcDbEntity
  8
PEN1
  6
LTY1
100
AcDbLine
 10
200.725
 20
155.75
 30
0.0
 11
201.0
 21
155.75
 31
0.0
  0
LINE
  5
4F6
330
1F
100
AcDbEntity
  8
PEN1
  6
LTY1
100
AcDbLine
 10
201.0
 20
155.5
 30
0.0
 11
201.0
 21
155.75
 31
0.0
  0
LINE
  5
4F7
330
1F
100
AcDbEntity
  8
PEN1
  6
LTY1
100
AcDbLine
 10
201.0
 20
155.95
 30
0.0
 11
201.0
 21
155.75
 31
0.0
  0
LINE
  5
4F8
330
1F
100
AcDbEntity
  8
PEN1
  6
LTY1
100
AcDbLine
 10
200.725
 20
155.95
 30
0.0
 11
200.725
 21
155.75
 31
0.0
  0
LINE
  5
4F9
330
1F
100
AcDbEntity
  8
PEN1
  6
LTY1
100
AcDbLine
 10
201.3
 20
155.95
 30
0.0
 11
201.3
 21
155.5
 31
0.0
  0
LINE
  5
4FA
330
1F
100
AcDbEntity
  8
PEN1
  6
LTY1
100
AcDbLine
 10
199.4
 20
155.8
 30
0.0
 11
199.55
 21
155.7
 31
0.0
  0
LINE
  5
4FB
330
1F
100
AcDbEntity
  8
PEN1
  6
LTY1
100
AcDbLine
 10
200.475
 20
155.675
 30
0.0
 11
200.225
 21
155.675
 31
0.0
  0
LINE
  5
4FC
330
1F
100
AcDbEntity
  8
PEN1
  6
LTY1
100
AcDbLine
 10
200.2
 20
155.5
 30
0.0
 11
200.225
 21
155.675
 31
0.0
  0
LINE
  5
4FD
330
1F
100
AcDbEntity
  8
PEN1
  6
LTY1
100
AcDbLine
 10
200.4
 20
155.95
 30
0.0
 11
200.475
 21
155.675
 31
0.0
  0
LINE
  5
4FE
330
1F
100
AcDbEntity
  8
PEN1
  6
LTY1
100
AcDbLine
 10
200.575
 20
137.7
 30
0.0
 11
200.575
 21
142.175
 31
0.0
  0
LINE
  5
4FF
330
1F
100
AcDbEntity
  8
PEN1
  6
LTY1
100
AcDbLine
 10
200.075
 20
142.675
 30
0.0
 11
198.825
 21
142.675
 31
0.0
  0
LINE
  5
500
330
1F
100
AcDbEntity
  8
PEN1
  6
LTY1
100
AcDbLine
 10
198.325
 20
142.175
 30
0.0
 11
198.325
 21
137.7
 31
0.0
  0
LINE
  5
501
330
1F
100
AcDbEntity
  8
PEN1
  6
LTY1
100
AcDbLine
 10
198.825
 20
137.2
 30
0.0
 11
200.075
 21
137.2
 31
0.0
  0
LINE
  5
502
330
1F
100
AcDbEntity
  8
PEN1
  6
LTY1
100
AcDbLine
 10
199.325
 20
155.875
 30
0.0
 11
199.325
 21
155.875
 31
0.0
  0
LINE
  5
503
330
1F
100
AcDbEntity
  8
PEN1
  6
LTY1
100
AcDbLine
 10
199.325
 20
155.875
 30
0.0
 11
199.325
 21
155.875
 31
0.0
  0
LINE
  5
504
330
1F
100
AcDbEntity
  8
PEN1
  6
LTY1
100
AcDbLine
 10
199.325
 20
155.875
 30
0.0
 11
199.325
 21
155.875
 31
0.0
  0
LINE
  5
505
330
1F
100
AcDbEntity
  8
PEN1
  6
LTY1
100
AcDbLine
 10
199.325
 20
155.875
 30
0.0
 11
199.35
 21
155.85
 31
0.0
  0
LINE
  5
506
330
1F
100
AcDbEntity
  8
PEN1
  6
LTY1
100
AcDbLine
 10
199.35
 20
155.85
 30
0.0
 11
199.35
 21
155.85
 31
0.0
  0
LINE
  5
507
330
1F
100
AcDbEntity
  8
PEN1
  6
LTY1
100
AcDbLine
 10
199.35
 20
155.85
 30
0.0
 11
199.35
 21
155.825
 31
0.0
  0
LINE
  5
508
330
1F
100
AcDbEntity
  8
PEN1
  6
LTY1
100
AcDbLine
 10
199.35
 20
155.825
 30
0.0
 11
199.35
 21
155.825
 31
0.0
  0
LINE
  5
509
330
1F
100
AcDbEntity
  8
PEN1
  6
LTY1
100
AcDbLine
 10
199.35
 20
155.825
 30
0.0
 11
199.375
 21
155.8
 31
0.0
  0
LINE
  5
50A
330
1F
100
AcDbEntity
  8
PEN1
  6
LTY1
100
AcDbLine
 10
199.375
 20
155.8
 30
0.0
 11
199.375
 21
155.8
 31
0.0
  0
LINE
  5
50B
330
1F
100
AcDbEntity
  8
PEN1
  6
LTY1
100
AcDbLine
 10
199.375
 20
155.8
 30
0.0
 11
199.4
 21
155.8
 31
0.0
  0
LINE
  5
50C
330
1F
100
AcDbEntity
  8
PEN1
  6
LTY1
100
AcDbLine
 10
199.4
 20
156.0
 30
0.0
 11
199.4
 21
156.0
 31
0.0
  0
LINE
  5
50D
330
1F
100
AcDbEntity
  8
PEN1
  6
LTY1
100
AcDbLine
 10
199.4
 20
156.0
 30
0.0
 11
199.4
 21
155.975
 31
0.0
  0
LINE
  5
50E
330
1F
100
AcDbEntity
  8
PEN1
  6
LTY1
100
AcDbLine
 10
199.4
 20
155.975
 30
0.0
 11
199.4
 21
155.975
 31
0.0
  0
LINE
  5
50F
330
1F
100
AcDbEntity
  8
PEN1
  6
LTY1
100
AcDbLine
 10
199.4
 20
155.975
 30
0.0
 11
199.375
 21
155.975
 31
0.0
  0
LINE
  5
510
330
1F
100
AcDbEntity
  8
PEN1
  6
LTY1
100
AcDbLine
 10
199.375
 20
155.975
 30
0.0
 11
199.375
 21
155.975
 31
0.0
  0
LINE
  5
511
330
1F
100
AcDbEntity
  8
PEN1
  6
LTY1
100
AcDbLine
 10
199.375
 20
155.975
 30
0.0
 11
199.35
 21
155.95
 31
0.0
  0
LINE
  5
512
330
1F
100
AcDbEntity
  8
PEN1
  6
LTY1
100
AcDbLine
 10
199.35
 20
155.95
 30
0.0
 11
199.35
 21
155.95
 31
0.0
  0
LINE
  5
513
330
1F
100
AcDbEntity
  8
PEN1
  6
LTY1
100
AcDbLine
 10
199.35
 20
155.95
 30
0.0
 11
199.325
 21
155.95
 31
0.0
  0
LINE
  5
514
330
1F
100
AcDbEntity
  8
PEN1
  6
LTY1
100
AcDbLine
 10
199.325
 20
155.95
 30
0.0
 11
199.325
 21
155.95
 31
0.0
  0
LINE
  5
515
330
1F
100
AcDbEntity
  8
PEN1
  6
LTY1
100
AcDbLine
 10
199.325
 20
155.95
 30
0.0
 11
199.325
 21
155.95
 31
0.0
  0
LINE
  5
516
330
1F
100
AcDbEntity
  8
PEN1
  6
LTY1
100
AcDbLine
 10
199.325
 20
155.95
 30
0.0
 11
199.325
 21
155.95
 31
0.0
  0
LINE
  5
517
330
1F
100
AcDbEntity
  8
PEN1
  6
LTY1
100
AcDbLine
 10
199.325
 20
155.95
 30
0.0
 11
199.325
 21
155.925
 31
0.0
  0
LINE
  5
518
330
1F
100
AcDbEntity
  8
PEN1
  6
LTY1
100
AcDbLine
 10
199.325
 20
155.925
 30
0.0
 11
199.325
 21
155.925
 31
0.0
  0
LINE
  5
519
330
1F
100
AcDbEntity
  8
PEN1
  6
LTY1
100
AcDbLine
 10
199.325
 20
155.925
 30
0.0
 11
199.325
 21
155.9
 31
0.0
  0
LINE
  5
51A
330
1F
100
AcDbEntity
  8
PEN1
  6
LTY1
100
AcDbLine
 10
199.325
 20
155.9
 30
0.0
 11
199.325
 21
155.9
 31
0.0
  0
LINE
  5
51B
330
1F
100
AcDbEntity
  8
PEN1
  6
LTY1
100
AcDbLine
 10
199.325
 20
155.9
 30
0.0
 11
199.325
 21
155.875
 31
0.0
  0
LINE
  5
51C
330
1F
100
AcDbEntity
  8
PEN1
  6
LTY1
100
AcDbLine
 10
199.45
 20
156.0
 30
0.0
 11
199.45
 21
156.0
 31
0.0
  0
LINE
  5
51D
330
1F
100
AcDbEntity
  8
PEN1
  6
LTY1
100
AcDbLine
 10
199.45
 20
156.0
 30
0.0
 11
199.425
 21
156.0
 31
0.0
  0
LINE
  5
51E
330
1F
100
AcDbEntity
  8
PEN1
  6
LTY1
100
AcDbLine
 10
199.425
 20
156.0
 30
0.0
 11
199.425
 21
156.0
 31
0.0
  0
LINE
  5
51F
330
1F
100
AcDbEntity
  8
PEN1
  6
LTY1
100
AcDbLine
 10
199.425
 20
156.0
 30
0.0
 11
199.4
 21
156.0
 31
0.0
  0
LINE
  5
520
330
1F
100
AcDbEntity
  8
PEN1
  6
LTY1
100
AcDbLine
 10
199.4
 20
156.0
 30
0.0
 11
199.4
 21
156.0
 31
0.0
  0
LINE
  5
521
330
1F
100
AcDbEntity
  8
PEN1
  6
LTY1
100
AcDbLine
 10
199.55
 20
155.975
 30
0.0
 11
199.55
 21
155.975
 31
0.0
  0
LINE
  5
522
330
1F
100
AcDbEntity
  8
PEN1
  6
LTY1
100
AcDbLine
 10
199.55
 20
155.975
 30
0.0
 11
199.5
 21
156.0
 31
0.0
  0
LINE
  5
523
330
1F
100
AcDbEntity
  8
PEN1
  6
LTY1
100
AcDbLine
 10
199.5
 20
156.0
 30
0.0
 11
199.5
 21
156.0
 31
0.0
  0
LINE
  5
524
330
1F
100
AcDbEntity
  8
PEN1
  6
LTY1
100
AcDbLine
 10
199.5
 20
156.0
 30
0.0
 11
199.475
 21
156.0
 31
0.0
  0
LINE
  5
525
330
1F
100
AcDbEntity
  8
PEN1
  6
LTY1
100
AcDbLine
 10
199.475
 20
156.0
 30
0.0
 11
199.475
 21
156.0
 31
0.0
  0
LINE
  5
526
330
1F
100
AcDbEntity
  8
PEN1
  6
LTY1
100
AcDbLine
 10
199.475
 20
156.0
 30
0.0
 11
199.45
 21
156.0
 31
0.0
  0
LINE
  5
527
330
1F
100
AcDbEntity
  8
PEN1
  6
LTY1
100
AcDbLine
 10
199.575
 20
155.9
 30
0.0
 11
199.575
 21
155.9
 31
0.0
  0
LINE
  5
528
330
1F
100
AcDbEntity
  8
PEN1
  6
LTY1
100
AcDbLine
 10
199.575
 20
155.9
 30
0.0
 11
199.575
 21
155.925
 31
0.0
  0
LINE
  5
529
330
1F
100
AcDbEntity
  8
PEN1
  6
LTY1
100
AcDbLine
 10
199.575
 20
155.925
 30
0.0
 11
199.575
 21
155.925
 31
0.0
  0
LINE
  5
52A
330
1F
100
AcDbEntity
  8
PEN1
  6
LTY1
100
AcDbLine
 10
199.575
 20
155.925
 30
0.0
 11
199.575
 21
155.925
 31
0.0
  0
LINE
  5
52B
330
1F
100
AcDbEntity
  8
PEN1
  6
LTY1
100
AcDbLine
 10
199.575
 20
155.925
 30
0.0
 11
199.575
 21
155.925
 31
0.0
  0
LINE
  5
52C
330
1F
100
AcDbEntity
  8
PEN1
  6
LTY1
100
AcDbLine
 10
199.575
 20
155.925
 30
0.0
 11
199.575
 21
155.95
 31
0.0
  0
LINE
  5
52D
330
1F
100
AcDbEntity
  8
PEN1
  6
LTY1
100
AcDbLine
 10
199.575
 20
155.95
 30
0.0
 11
199.575
 21
155.95
 31
0.0
  0
LINE
  5
52E
330
1F
100
AcDbEntity
  8
PEN1
  6
LTY1
100
AcDbLine
 10
199.575
 20
155.95
 30
0.0
 11
199.55
 21
155.95
 31
0.0
  0
LINE
  5
52F
330
1F
100
AcDbEntity
  8
PEN1
  6
LTY1
100
AcDbLine
 10
199.55
 20
155.95
 30
0.0
 11
199.55
 21
155.95
 31
0.0
  0
LINE
  5
530
330
1F
100
AcDbEntity
  8
PEN1
  6
LTY1
100
AcDbLine
 10
199.55
 20
155.95
 30
0.0
 11
199.55
 21
155.95
 31
0.0
  0
LINE
  5
531
330
1F
100
AcDbEntity
  8
PEN1
  6
LTY1
100
AcDbLine
 10
199.55
 20
155.95
 30
0.0
 11
199.55
 21
155.975
 31
0.0
  0
LINE
  5
532
330
1F
100
AcDbEntity
  8
PEN1
  6
LTY1
100
AcDbLine
 10
199.6
 20
155.625
 30
0.0
 11
199.6
 21
155.625
 31
0.0
  0
LINE
  5
533
330
1F
100
AcDbEntity
  8
PEN1
  6
LTY1
100
AcDbLine
 10
199.6
 20
155.625
 30
0.0
 11
199.6
 21
155.625
 31
0.0
  0
LINE
  5
534
330
1F
100
AcDbEntity
  8
PEN1
  6
LTY1
100
AcDbLine
 10
199.6
 20
155.625
 30
0.0
 11
199.6
 21
155.625
 31
0.0
  0
LINE
  5
535
330
1F
100
AcDbEntity
  8
PEN1
  6
LTY1
100
AcDbLine
 10
199.6
 20
155.625
 30
0.0
 11
199.575
 21
155.65
 31
0.0
  0
LINE
  5
536
330
1F
100
AcDbEntity
  8
PEN1
  6
LTY1
100
AcDbLine
 10
199.575
 20
155.65
 30
0.0
 11
199.575
 21
155.65
 31
0.0
  0
LINE
  5
537
330
1F
100
AcDbEntity
  8
PEN1
  6
LTY1
100
AcDbLine
 10
199.575
 20
155.65
 30
0.0
 11
199.575
 21
155.675
 31
0.0
  0
LINE
  5
538
330
1F
100
AcDbEntity
  8
PEN1
  6
LTY1
100
AcDbLine
 10
199.575
 20
155.675
 30
0.0
 11
199.575
 21
155.675
 31
0.0
  0
LINE
  5
539
330
1F
100
AcDbEntity
  8
PEN1
  6
LTY1
100
AcDbLine
 10
199.575
 20
155.675
 30
0.0
 11
199.55
 21
155.675
 31
0.0
  0
LINE
  5
53A
330
1F
100
AcDbEntity
  8
PEN1
  6
LTY1
100
AcDbLine
 10
199.55
 20
155.675
 30
0.0
 11
199.55
 21
155.675
 31
0.0
  0
LINE
  5
53B
330
1F
100
AcDbEntity
  8
PEN1
  6
LTY1
100
AcDbLine
 10
199.55
 20
155.675
 30
0.0
 11
199.55
 21
155.7
 31
0.0
  0
LINE
  5
53C
330
1F
100
AcDbEntity
  8
PEN1
  6
LTY1
100
AcDbLine
 10
199.525
 20
155.5
 30
0.0
 11
199.525
 21
155.5
 31
0.0
  0
LINE
  5
53D
330
1F
100
AcDbEntity
  8
PEN1
  6
LTY1
100
AcDbLine
 10
199.525
 20
155.5
 30
0.0
 11
199.55
 21
155.5
 31
0.0
  0
LINE
  5
53E
330
1F
100
AcDbEntity
  8
PEN1
  6
LTY1
100
AcDbLine
 10
199.55
 20
155.5
 30
0.0
 11
199.55
 21
155.5
 31
0.0
  0
LINE
  5
53F
330
1F
100
AcDbEntity
  8
PEN1
  6
LTY1
100
AcDbLine
 10
199.55
 20
155.5
 30
0.0
 11
199.55
 21
155.525
 31
0.0
  0
LINE
  5
540
330
1F
100
AcDbEntity
  8
PEN1
  6
LTY1
100
AcDbLine
 10
199.55
 20
155.525
 30
0.0
 11
199.55
 21
155.525
 31
0.0
  0
LINE
  5
541
330
1F
100
AcDbEntity
  8
PEN1
  6
LTY1
100
AcDbLine
 10
199.55
 20
155.525
 30
0.0
 11
199.575
 21
155.525
 31
0.0
  0
LINE
  5
542
330
1F
100
AcDbEntity
  8
PEN1
  6
LTY1
100
AcDbLine
 10
199.575
 20
155.525
 30
0.0
 11
199.575
 21
155.525
 31
0.0
  0
LINE
  5
543
330
1F
100
AcDbEntity
  8
PEN1
  6
LTY1
100
AcDbLine
 10
199.575
 20
155.525
 30
0.0
 11
199.575
 21
155.55
 31
0.0
  0
LINE
  5
544
330
1F
100
AcDbEntity
  8
PEN1
  6
LTY1
100
AcDbLine
 10
199.575
 20
155.55
 30
0.0
 11
199.575
 21
155.55
 31
0.0
  0
LINE
  5
545
330
1F
100
AcDbEntity
  8
PEN1
  6
LTY1
100
AcDbLine
 10
199.575
 20
155.55
 30
0.0
 11
199.6
 21
155.55
 31
0.0
  0
LINE
  5
546
330
1F
100
AcDbEntity
  8
PEN1
  6
LTY1
100
AcDbLine
 10
199.6
 20
155.55
 30
0.0
 11
199.6
 21
155.55
 31
0.0
  0
LINE
  5
547
330
1F
100
AcDbEntity
  8
PEN1
  6
LTY1
100
AcDbLine
 10
199.6
 20
155.55
 30
0.0
 11
199.6
 21
155.575
 31
0.0
  0
LINE
  5
548
330
1F
100
AcDbEntity
  8
PEN1
  6
LTY1
100
AcDbLine
 10
199.6
 20
155.575
 30
0.0
 11
199.6
 21
155.575
 31
0.0
  0
LINE
  5
549
330
1F
100
AcDbEntity
  8
PEN1
  6
LTY1
100
AcDbLine
 10
199.6
 20
155.575
 30
0.0
 11
199.6
 21
155.6
 31
0.0
  0
LINE
  5
54A
330
1F
100
AcDbEntity
  8
PEN1
  6
LTY1
100
AcDbLine
 10
199.6
 20
155.6
 30
0.0
 11
199.6
 21
155.6
 31
0.0
  0
LINE
  5
54B
330
1F
100
AcDbEntity
  8
PEN1
  6
LTY1
100
AcDbLine
 10
199.6
 20
155.6
 30
0.0
 11
199.6
 21
155.625
 31
0.0
  0
LINE
  5
54C
330
1F
100
AcDbEntity
  8
PEN1
  6
LTY1
100
AcDbLine
 10
199.475
 20
155.5
 30
0.0
 11
199.475
 21
155.5
 31
0.0
  0
LINE
  5
54D
330
1F
100
AcDbEntity
  8
PEN1
  6
LTY1
100
AcDbLine
 10
199.475
 20
155.5
 30
0.0
 11
199.475
 21
155.5
 31
0.0
  0
LINE
  5
54E
330
1F
100
AcDbEntity
  8
PEN1
  6
LTY1
100
AcDbLine
 10
199.475
 20
155.5
 30
0.0
 11
199.475
 21
155.5
 31
0.0
  0
LINE
  5
54F
330
1F
100
AcDbEntity
  8
PEN1
  6
LTY1
100
AcDbLine
 10
199.475
 20
155.5
 30
0.0
 11
199.525
 21
155.5
 31
0.0
  0
LINE
  5
550
330
1F
100
AcDbEntity
  8
PEN1
  6
LTY1
100
AcDbLine
 10
199.525
 20
155.5
 30
0.0
 11
199.525
 21
155.5
 31
0.0
  0
LINE
  5
551
330
1F
100
AcDbEntity
  8
PEN1
  6
LTY1
100
AcDbLine
 10
199.4
 20
155.5
 30
0.0
 11
199.4
 21
155.5
 31
0.0
  0
LINE
  5
552
330
1F
100
AcDbEntity
  8
PEN1
  6
LTY1
100
AcDbLine
 10
199.4
 20
155.5
 30
0.0
 11
199.4
 21
155.5
 31
0.0
  0
LINE
  5
553
330
1F
100
AcDbEntity
  8
PEN1
  6
LTY1
100
AcDbLine
 10
199.4
 20
155.5
 30
0.0
 11
199.4
 21
155.5
 31
0.0
  0
LINE
  5
554
330
1F
100
AcDbEntity
  8
PEN1
  6
LTY1
100
AcDbLine
 10
199.4
 20
155.5
 30
0.0
 11
199.45
 21
155.5
 31
0.0
  0
LINE
  5
555
330
1F
100
AcDbEntity
  8
PEN1
  6
LTY1
100
AcDbLine
 10
199.45
 20
155.5
 30
0.0
 11
199.45
 21
155.5
 31
0.0
  0
LINE
  5
556
330
1F
100
AcDbEntity
  8
PEN1
  6
LTY1
100
AcDbLine
 10
199.45
 20
155.5
 30
0.0
 11
199.475
 21
155.5
 31
0.0
  0
LINE
  5
557
330
1F
100
AcDbEntity
  8
PEN1
  6
LTY1
100
AcDbLine
 10
199.35
 20
155.575
 30
0.0
 11
199.35
 21
155.575
 31
0.0
  0
LINE
  5
558
330
1F
100
AcDbEntity
  8
PEN1
  6
LTY1
100
AcDbLine
 10
199.35
 20
155.575
 30
0.0
 11
199.35
 21
155.575
 31
0.0
  0
LINE
  5
559
330
1F
100
AcDbEntity
  8
PEN1
  6
LTY1
100
AcDbLine
 10
199.35
 20
155.575
 30
0.0
 11
199.35
 21
155.575
 31
0.0
  0
LINE
  5
55A
330
1F
100
AcDbEntity
  8
PEN1
  6
LTY1
100
AcDbLine
 10
199.35
 20
155.575
 30
0.0
 11
199.35
 21
155.55
 31
0.0
  0
LINE
  5
55B
330
1F
100
AcDbEntity
  8
PEN1
  6
LTY1
100
AcDbLine
 10
199.35
 20
155.55
 30
0.0
 11
199.35
 21
155.55
 31
0.0
  0
LINE
  5
55C
330
1F
100
AcDbEntity
  8
PEN1
  6
LTY1
100
AcDbLine
 10
199.35
 20
155.55
 30
0.0
 11
199.35
 21
155.55
 31
0.0
  0
LINE
  5
55D
330
1F
100
AcDbEntity
  8
PEN1
  6
LTY1
100
AcDbLine
 10
199.35
 20
155.55
 30
0.0
 11
199.35
 21
155.55
 31
0.0
  0
LINE
  5
55E
330
1F
100
AcDbEntity
  8
PEN1
  6
LTY1
100
AcDbLine
 10
199.35
 20
155.55
 30
0.0
 11
199.35
 21
155.55
 31
0.0
  0
LINE
  5
55F
330
1F
100
AcDbEntity
  8
PEN1
  6
LTY1
100
AcDbLine
 10
199.35
 20
155.55
 30
0.0
 11
199.35
 21
155.55
 31
0.0
  0
LINE
  5
560
330
1F
100
AcDbEntity
  8
PEN1
  6
LTY1
100
AcDbLine
 10
199.35
 20
155.55
 30
0.0
 11
199.375
 21
155.525
 31
0.0
  0
LINE
  5
561
330
1F
100
AcDbEntity
  8
PEN1
  6
LTY1
100
AcDbLine
 10
199.375
 20
155.525
 30
0.0
 11
199.375
 21
155.525
 31
0.0
  0
LINE
  5
562
330
1F
100
AcDbEntity
  8
PEN1
  6
LTY1
100
AcDbLine
 10
200.075
 20
142.675
 30
0.0
 11
200.075
 21
142.675
 31
0.0
  0
LINE
  5
563
330
1F
100
AcDbEntity
  8
PEN1
  6
LTY1
100
AcDbLine
 10
200.075
 20
142.675
 30
0.0
 11
200.2
 21
142.65
 31
0.0
  0
LINE
  5
564
330
1F
100
AcDbEntity
  8
PEN1
  6
LTY1
100
AcDbLine
 10
200.2
 20
142.65
 30
0.0
 11
200.275
 21
142.6
 31
0.0
  0
LINE
  5
565
330
1F
100
AcDbEntity
  8
PEN1
  6
LTY1
100
AcDbLine
 10
200.275
 20
142.6
 30
0.0
 11
200.375
 21
142.55
 31
0.0
  0
LINE
  5
566
330
1F
100
AcDbEntity
  8
PEN1
  6
LTY1
100
AcDbLine
 10
200.375
 20
142.55
 30
0.0
 11
200.45
 21
142.475
 31
0.0
  0
LINE
  5
567
330
1F
100
AcDbEntity
  8
PEN1
  6
LTY1
100
AcDbLine
 10
200.45
 20
142.475
 30
0.0
 11
200.525
 21
142.375
 31
0.0
  0
LINE
  5
568
330
1F
100
AcDbEntity
  8
PEN1
  6
LTY1
100
AcDbLine
 10
200.525
 20
142.375
 30
0.0
 11
200.55
 21
142.275
 31
0.0
  0
LINE
  5
569
330
1F
100
AcDbEntity
  8
PEN1
  6
LTY1
100
AcDbLine
 10
200.55
 20
142.275
 30
0.0
 11
200.575
 21
142.175
 31
0.0
  0
LINE
  5
56A
330
1F
100
AcDbEntity
  8
PEN1
  6
LTY1
100
AcDbLine
 10
198.325
 20
142.175
 30
0.0
 11
198.325
 21
142.175
 31
0.0
  0
LINE
  5
56B
330
1F
100
AcDbEntity
  8
PEN1
  6
LTY1
100
AcDbLine
 10
198.325
 20
142.175
 30
0.0
 11
198.325
 21
142.275
 31
0.0
  0
LINE
  5
56C
330
1F
100
AcDbEntity
  8
PEN1
  6
LTY1
100
AcDbLine
 10
198.325
 20
142.275
 30
0.0
 11
198.375
 21
142.375
 31
0.0
  0
LINE
  5
56D
330
1F
100
AcDbEntity
  8
PEN1
  6
LTY1
100
AcDbLine
 10
198.375
 20
142.375
 30
0.0
 11
198.425
 21
142.475
 31
0.0
  0
LINE
  5
56E
330
1F
100
AcDbEntity
  8
PEN1
  6
LTY1
100
AcDbLine
 10
198.425
 20
142.475
 30
0.0
 11
198.5
 21
142.55
 31
0.0
  0
LINE
  5
56F
330
1F
100
AcDbEntity
  8
PEN1
  6
LTY1
100
AcDbLine
 10
198.5
 20
142.55
 30
0.0
 11
198.6
 21
142.6
 31
0.0
  0
LINE
  5
570
330
1F
100
AcDbEntity
  8
PEN1
  6
LTY1
100
AcDbLine
 10
198.6
 20
142.6
 30
0.0
 11
198.725
 21
142.65
 31
0.0
  0
LINE
  5
571
330
1F
100
AcDbEntity
  8
PEN1
  6
LTY1
100
AcDbLine
 10
198.725
 20
142.65
 30
0.0
 11
198.825
 21
142.675
 31
0.0
  0
LINE
  5
572
330
1F
100
AcDbEntity
  8
PEN1
  6
LTY1
100
AcDbLine
 10
198.825
 20
137.2
 30
0.0
 11
198.825
 21
137.2
 31
0.0
  0
LINE
  5
573
330
1F
100
AcDbEntity
  8
PEN1
  6
LTY1
100
AcDbLine
 10
198.825
 20
137.2
 30
0.0
 11
198.725
 21
137.225
 31
0.0
  0
LINE
  5
574
330
1F
100
AcDbEntity
  8
PEN1
  6
LTY1
100
AcDbLine
 10
198.725
 20
137.225
 30
0.0
 11
198.6
 21
137.25
 31
0.0
  0
LINE
  5
575
330
1F
100
AcDbEntity
  8
PEN1
  6
LTY1
100
AcDbLine
 10
198.6
 20
137.25
 30
0.0
 11
198.5
 21
137.325
 31
0.0
  0
LINE
  5
576
330
1F
100
AcDbEntity
  8
PEN1
  6
LTY1
100
AcDbLine
 10
198.5
 20
137.325
 30
0.0
 11
198.425
 21
137.4
 31
0.0
  0
LINE
  5
577
330
1F
100
AcDbEntity
  8
PEN1
  6
LTY1
100
AcDbLine
 10
198.425
 20
137.4
 30
0.0
 11
198.375
 21
137.5
 31
0.0
  0
LINE
  5
578
330
1F
100
AcDbEntity
  8
PEN1
  6
LTY1
100
AcDbLine
 10
198.375
 20
137.5
 30
0.0
 11
198.325
 21
137.575
 31
0.0
  0
LINE
  5
579
330
1F
100
AcDbEntity
  8
PEN1
  6
LTY1
100
AcDbLine
 10
198.325
 20
137.575
 30
0.0
 11
198.325
 21
137.7
 31
0.0
  0
LINE
  5
57A
330
1F
100
AcDbEntity
  8
PEN1
  6
LTY1
100
AcDbLine
 10
200.575
 20
137.7
 30
0.0
 11
200.575
 21
137.7
 31
0.0
  0
LINE
  5
57B
330
1F
100
AcDbEntity
  8
PEN1
  6
LTY1
100
AcDbLine
 10
200.575
 20
137.7
 30
0.0
 11
200.55
 21
137.575
 31
0.0
  0
LINE
  5
57C
330
1F
100
AcDbEntity
  8
PEN1
  6
LTY1
100
AcDbLine
 10
200.55
 20
137.575
 30
0.0
 11
200.525
 21
137.5
 31
0.0
  0
LINE
  5
57D
330
1F
100
AcDbEntity
  8
PEN1
  6
LTY1
100
AcDbLine
 10
200.525
 20
137.5
 30
0.0
 11
200.45
 21
137.4
 31
0.0
  0
LINE
  5
57E
330
1F
100
AcDbEntity
  8
PEN1
  6
LTY1
100
AcDbLine
 10
200.45
 20
137.4
 30
0.0
 11
200.375
 21
137.325
 31
0.0
  0
LINE
  5
57F
330
1F
100
AcDbEntity
  8
PEN1
  6
LTY1
100
AcDbLine
 10
200.375
 20
137.325
 30
0.0
 11
200.275
 21
137.25
 31
0.0
  0
LINE
  5
580
330
1F
100
AcDbEntity
  8
PEN1
  6
LTY1
100
AcDbLine
 10
200.275
 20
137.25
 30
0.0
 11
200.2
 21
137.225
 31
0.0
  0
LINE
  5
581
330
1F
100
AcDbEntity
  8
PEN1
  6
LTY1
100
AcDbLine
 10
200.2
 20
137.225
 30
0.0
 11
200.075
 21
137.2
 31
0.0
  0
LINE
  5
582
330
1F
100
AcDbEntity
  8
PEN1
  6
LTY1
100
AcDbLine
 10
196.125
 20
164.875
 30
0.0
 11
204.675
 21
164.875
 31
0.0
  0
LINE
  5
583
330
1F
100
AcDbEntity
  8
PEN1
  6
LTY1
100
AcDbLine
 10
204.675
 20
115.275
 30
0.0
 11
196.125
 21
115.275
 31
0.0
  0
LINE
  5
584
330
1F
100
AcDbEntity
  8
PEN1
  6
LTY1
100
AcDbLine
 10
196.825
 20
158.375
 30
0.0
 11
196.85
 21
158.375
 31
0.0
  0
LINE
  5
585
330
1F
100
AcDbEntity
  8
PEN1
  6
LTY1
100
AcDbLine
 10
196.85
 20
157.7
 30
0.0
 11
196.825
 21
157.7
 31
0.0
  0
LINE
  5
586
330
1F
100
AcDbEntity
  8
PEN1
  6
LTY1
100
AcDbLine
 10
204.025
 20
122.65
 30
0.0
 11
203.975
 21
122.65
 31
0.0
  0
LINE
  5
587
330
1F
100
AcDbEntity
  8
PEN1
  6
LTY1
100
AcDbLine
 10
201.65
 20
120.925
 30
0.0
 11
204.025
 21
120.925
 31
0.0
  0
LINE
  5
588
330
1F
100
AcDbEntity
  8
PEN1
  6
LTY1
100
AcDbLine
 10
201.65
 20
115.275
 30
0.0
 11
201.65
 21
121.275
 31
0.0
  0
LINE
  5
589
330
1F
100
AcDbEntity
  8
PEN1
  6
LTY1
100
AcDbLine
 10
203.975
 20
121.2
 30
0.0
 11
203.975
 21
122.7
 31
0.0
  0
LINE
  5
58A
330
1F
100
AcDbEntity
  8
PEN1
  6
LTY1
100
AcDbLine
 10
201.65
 20
121.2
 30
0.0
 11
203.975
 21
121.2
 31
0.0
  0
LINE
  5
58B
330
1F
100
AcDbEntity
  8
PEN1
  6
LTY1
100
AcDbLine
 10
203.975
 20
158.725
 30
0.0
 11
196.825
 21
158.725
 31
0.0
  0
LINE
  5
58C
330
1F
100
AcDbEntity
  8
PEN1
  6
LTY1
100
AcDbLine
 10
204.025
 20
158.975
 30
0.0
 11
196.775
 21
158.975
 31
0.0
  0
LINE
  5
58D
330
1F
100
AcDbEntity
  8
PEN1
  6
LTY1
100
AcDbLine
 10
203.975
 20
121.225
 30
0.0
 11
201.65
 21
121.225
 31
0.0
  0
LINE
  5
58E
330
1F
100
AcDbEntity
  8
PEN1
  6
LTY1
100
AcDbLine
 10
201.65
 20
158.675
 30
0.0
 11
203.975
 21
158.675
 31
0.0
  0
LINE
  5
58F
330
1F
100
AcDbEntity
  8
PEN1
  6
LTY1
100
AcDbLine
 10
203.975
 20
121.3
 30
0.0
 11
203.95
 21
121.3
 31
0.0
  0
LINE
  5
590
330
1F
100
AcDbEntity
  8
PEN1
  6
LTY1
100
AcDbLine
 10
201.65
 20
158.65
 30
0.0
 11
201.65
 21
164.875
 31
0.0
  0
LINE
  5
591
330
1F
100
AcDbEntity
  8
PEN1
  6
LTY1
100
AcDbLine
 10
196.775
 20
157.275
 30
0.0
 11
196.825
 21
157.275
 31
0.0
  0
LINE
  5
592
330
1F
100
AcDbEntity
  8
PEN1
  6
LTY1
100
AcDbLine
 10
196.825
 20
158.725
 30
0.0
 11
196.825
 21
157.175
 31
0.0
  0
LINE
  5
593
330
1F
100
AcDbEntity
  8
PEN1
  6
LTY1
100
AcDbLine
 10
196.825
 20
121.2
 30
0.0
 11
199.425
 21
121.2
 31
0.0
  0
LINE
  5
594
330
1F
100
AcDbEntity
  8
PEN1
  6
LTY1
100
AcDbLine
 10
199.425
 20
121.275
 30
0.0
 11
199.425
 21
120.6
 31
0.0
  0
LINE
  5
595
330
1F
100
AcDbEntity
  8
PEN1
  6
LTY1
100
AcDbLine
 10
199.425
 20
120.925
 30
0.0
 11
196.775
 21
120.925
 31
0.0
  0
LINE
  5
596
330
1F
100
AcDbEntity
  8
PEN1
  6
LTY1
100
AcDbLine
 10
196.775
 20
122.65
 30
0.0
 11
196.825
 21
122.65
 31
0.0
  0
LINE
  5
597
330
1F
100
AcDbEntity
  8
PEN1
  6
LTY1
100
AcDbLine
 10
196.825
 20
121.2
 30
0.0
 11
196.825
 21
122.7
 31
0.0
  0
LINE
  5
598
330
1F
100
AcDbEntity
  8
PEN1
  6
LTY1
100
AcDbLine
 10
201.65
 20
120.6
 30
0.0
 11
199.425
 21
120.6
 31
0.0
  0
LINE
  5
599
330
1F
100
AcDbEntity
  8
PEN1
  6
LTY1
100
AcDbLine
 10
197.025
 20
162.75
 30
0.0
 11
196.775
 21
162.75
 31
0.0
  0
LINE
  5
59A
330
1F
100
AcDbEntity
  8
PEN1
  6
LTY1
100
AcDbLine
 10
197.025
 20
162.75
 30
0.0
 11
197.025
 21
164.025
 31
0.0
  0
LINE
  5
59B
330
1F
100
AcDbEntity
  8
PEN1
  6
LTY1
100
AcDbLine
 10
196.825
 20
121.225
 30
0.0
 11
199.425
 21
121.225
 31
0.0
  0
LINE
  5
59C
330
1F
100
AcDbEntity
  8
PEN1
  6
LTY1
100
AcDbLine
 10
199.425
 20
158.725
 30
0.0
 11
199.425
 21
158.65
 31
0.0
  0
LINE
  5
59D
330
1F
100
AcDbEntity
  8
PEN1
  6
LTY1
100
AcDbLine
 10
199.425
 20
158.675
 30
0.0
 11
196.825
 21
158.675
 31
0.0
  0
LINE
  5
59E
330
1F
100
AcDbEntity
  8
PEN1
  6
LTY1
100
AcDbLine
 10
196.85
 20
121.3
 30
0.0
 11
196.825
 21
121.3
 31
0.0
  0
LINE
  5
59F
330
1F
100
AcDbEntity
  8
PEN1
  6
LTY1
100
AcDbLine
 10
196.825
 20
158.575
 30
0.0
 11
196.85
 21
158.575
 31
0.0
  0
LINE
  5
5A0
330
1F
100
AcDbEntity
  8
PEN1
  6
LTY1
100
AcDbLine
 10
196.025
 20
162.975
 30
0.0
 11
197.025
 21
162.975
 31
0.0
  0
LINE
  5
5A1
330
1F
100
AcDbEntity
  8
PEN1
  6
LTY1
100
AcDbLine
 10
196.025
 20
163.3
 30
0.0
 11
197.025
 21
163.3
 31
0.0
  0
LINE
  5
5A2
330
1F
100
AcDbEntity
  8
PEN1
  6
LTY1
100
AcDbLine
 10
203.95
 20
122.7
 30
0.0
 11
204.025
 21
122.7
 31
0.0
  0
LINE
  5
5A3
330
1F
100
AcDbEntity
  8
PEN1
  6
LTY1
100
AcDbLine
 10
203.95
 20
121.275
 30
0.0
 11
203.95
 21
122.7
 31
0.0
  0
LINE
  5
5A4
330
1F
100
AcDbEntity
  8
PEN1
  6
LTY1
100
AcDbLine
 10
196.85
 20
121.275
 30
0.0
 11
203.95
 21
121.275
 31
0.0
  0
LINE
  5
5A5
330
1F
100
AcDbEntity
  8
PEN1
  6
LTY1
100
AcDbLine
 10
196.85
 20
122.7
 30
0.0
 11
196.85
 21
121.275
 31
0.0
  0
LINE
  5
5A6
330
1F
100
AcDbEntity
  8
PEN1
  6
LTY1
100
AcDbLine
 10
196.85
 20
122.7
 30
0.0
 11
196.775
 21
122.7
 31
0.0
  0
LINE
  5
5A7
330
1F
100
AcDbEntity
  8
PEN1
  6
LTY1
100
AcDbLine
 10
196.775
 20
157.175
 30
0.0
 11
196.85
 21
157.175
 31
0.0
  0
LINE
  5
5A8
330
1F
100
AcDbEntity
  8
PEN1
  6
LTY1
100
AcDbLine
 10
196.85
 20
158.65
 30
0.0
 11
196.85
 21
157.175
 31
0.0
  0
LINE
  5
5A9
330
1F
100
AcDbEntity
  8
PEN1
  6
LTY1
100
AcDbLine
 10
203.95
 20
158.65
 30
0.0
 11
196.85
 21
158.65
 31
0.0
  0
LINE
  5
5AA
330
1F
100
AcDbEntity
  8
PEN1
  6
LTY1
100
AcDbLine
 10
196.025
 20
115.375
 30
0.0
 11
196.025
 21
164.775
 31
0.0
  0
LINE
  5
5AB
330
1F
100
AcDbEntity
  8
PEN1
  6
LTY1
100
AcDbLine
 10
204.775
 20
164.775
 30
0.0
 11
204.775
 21
115.375
 31
0.0
  0
LINE
  5
5AC
330
1F
100
AcDbEntity
  8
PEN1
  6
LTY1
100
AcDbLine
 10
200.425
 20
164.9
 30
0.0
 11
198.975
 21
164.875
 31
0.0
  0
LINE
  5
5AD
330
1F
100
AcDbEntity
  8
PEN1
  6
LTY1
100
AcDbLine
 10
201.8
 20
164.875
 30
0.0
 11
200.425
 21
164.9
 31
0.0
  0
LINE
  5
5AE
330
1F
100
AcDbEntity
  8
PEN1
  6
LTY1
100
AcDbLine
 10
204.025
 20
115.4
 30
0.0
 11
204.025
 21
122.65
 31
0.0
  0
LINE
  5
5AF
330
1F
100
AcDbEntity
  8
PEN1
  6
LTY1
100
AcDbLine
 10
196.775
 20
164.775
 30
0.0
 11
204.025
 21
164.775
 31
0.0
  0
LINE
  5
5B0
330
1F
100
AcDbEntity
  8
PEN1
  6
LTY1
100
AcDbLine
 10
204.025
 20
115.4
 30
0.0
 11
196.775
 21
115.4
 31
0.0
  0
LINE
  5
5B1
330
1F
100
AcDbEntity
  8
PEN1
  6
LTY1
100
AcDbLine
 10
196.775
 20
162.75
 30
0.0
 11
196.775
 21
157.275
 31
0.0
  0
LINE
  5
5B2
330
1F
100
AcDbEntity
  8
PEN1
  6
LTY1
100
AcDbLine
 10
196.775
 20
122.65
 30
0.0
 11
196.775
 21
115.4
 31
0.0
  0
LINE
  5
5B3
330
1F
100
AcDbEntity
  8
PEN1
  6
LTY1
100
AcDbLine
 10
197.025
 20
164.025
 30
0.0
 11
196.775
 21
164.025
 31
0.0
  0
LINE
  5
5B4
330
1F
100
AcDbEntity
  8
PEN1
  6
LTY1
100
AcDbLine
 10
196.775
 20
164.775
 30
0.0
 11
196.775
 21
164.025
 31
0.0
  0
LINE
  5
5B5
330
1F
100
AcDbEntity
  8
PEN1
  6
LTY1
100
AcDbLine
 10
196.325
 20
163.85
 30
0.0
 11
197.025
 21
163.85
 31
0.0
  0
LINE
  5
5B6
330
1F
100
AcDbEntity
  8
PEN1
  6
LTY1
100
AcDbLine
 10
196.85
 20
158.5
 30
0.0
 11
203.95
 21
158.5
 31
0.0
  0
LINE
  5
5B7
330
1F
100
AcDbEntity
  8
PEN1
  6
LTY1
100
AcDbLine
 10
204.025
 20
157.175
 30
0.0
 11
204.025
 21
122.7
 31
0.0
  0
LINE
  5
5B8
330
1F
100
AcDbEntity
  8
PEN1
  6
LTY1
100
AcDbLine
 10
196.775
 20
157.175
 30
0.0
 11
196.775
 21
122.7
 31
0.0
  0
LINE
  5
5B9
330
1F
100
AcDbEntity
  8
PEN1
  6
LTY1
100
AcDbLine
 10
203.95
 20
158.375
 30
0.0
 11
203.975
 21
158.375
 31
0.0
  0
LINE
  5
5BA
330
1F
100
AcDbEntity
  8
PEN1
  6
LTY1
100
AcDbLine
 10
203.975
 20
157.7
 30
0.0
 11
203.95
 21
157.7
 31
0.0
  0
LINE
  5
5BB
330
1F
100
AcDbEntity
  8
PEN1
  6
LTY1
100
AcDbLine
 10
203.975
 20
157.275
 30
0.0
 11
204.025
 21
157.275
 31
0.0
  0
LINE
  5
5BC
330
1F
100
AcDbEntity
  8
PEN1
  6
LTY1
100
AcDbLine
 10
203.975
 20
157.175
 30
0.0
 11
203.975
 21
158.725
 31
0.0
  0
LINE
  5
5BD
330
1F
100
AcDbEntity
  8
PEN1
  6
LTY1
100
AcDbLine
 10
204.025
 20
162.75
 30
0.0
 11
203.775
 21
162.75
 31
0.0
  0
LINE
  5
5BE
330
1F
100
AcDbEntity
  8
PEN1
  6
LTY1
100
AcDbLine
 10
203.775
 20
164.025
 30
0.0
 11
203.775
 21
162.75
 31
0.0
  0
LINE
  5
5BF
330
1F
100
AcDbEntity
  8
PEN1
  6
LTY1
100
AcDbLine
 10
203.95
 20
158.575
 30
0.0
 11
203.975
 21
158.575
 31
0.0
  0
LINE
  5
5C0
330
1F
100
AcDbEntity
  8
PEN1
  6
LTY1
100
AcDbLine
 10
203.775
 20
162.975
 30
0.0
 11
204.775
 21
162.975
 31
0.0
  0
LINE
  5
5C1
330
1F
100
AcDbEntity
  8
PEN1
  6
LTY1
100
AcDbLine
 10
203.775
 20
163.3
 30
0.0
 11
204.775
 21
163.3
 31
0.0
  0
LINE
  5
5C2
330
1F
100
AcDbEntity
  8
PEN1
  6
LTY1
100
AcDbLine
 10
203.95
 20
157.175
 30
0.0
 11
204.025
 21
157.175
 31
0.0
  0
LINE
  5
5C3
330
1F
100
AcDbEntity
  8
PEN1
  6
LTY1
100
AcDbLine
 10
203.95
 20
157.175
 30
0.0
 11
203.95
 21
158.65
 31
0.0
  0
LINE
  5
5C4
330
1F
100
AcDbEntity
  8
PEN1
  6
LTY1
100
AcDbLine
 10
204.025
 20
157.275
 30
0.0
 11
204.025
 21
162.75
 31
0.0
  0
LINE
  5
5C5
330
1F
100
AcDbEntity
  8
PEN1
  6
LTY1
100
AcDbLine
 10
204.025
 20
164.025
 30
0.0
 11
203.775
 21
164.025
 31
0.0
  0
LINE
  5
5C6
330
1F
100
AcDbEntity
  8
PEN1
  6
LTY1
100
AcDbLine
 10
204.025
 20
164.025
 30
0.0
 11
204.025
 21
164.775
 31
0.0
  0
LINE
  5
5C7
330
1F
100
AcDbEntity
  8
PEN1
  6
LTY1
100
AcDbLine
 10
203.775
 20
163.85
 30
0.0
 11
204.475
 21
163.85
 31
0.0
  0
LINE
  5
5C8
330
1F
100
AcDbEntity
  8
PEN1
  6
LTY1
100
AcDbLine
 10
200.425
 20
115.25
 30
0.0
 11
201.8
 21
115.275
 31
0.0
  0
LINE
  5
5C9
330
1F
100
AcDbEntity
  8
PEN1
  6
LTY1
100
AcDbLine
 10
198.975
 20
115.275
 30
0.0
 11
200.425
 21
115.25
 31
0.0
  0
LINE
  5
5CA
330
1F
100
AcDbEntity
  8
PEN1
  6
LTY1
100
AcDbLine
 10
203.95
 20
122.25
 30
0.0
 11
203.95
 21
122.25
 31
0.0
  0
LINE
  5
5CB
330
1F
100
AcDbEntity
  8
PEN1
  6
LTY1
100
AcDbLine
 10
203.95
 20
122.25
 30
0.0
 11
203.975
 21
122.25
 31
0.0
  0
LINE
  5
5CC
330
1F
100
AcDbEntity
  8
PEN1
  6
LTY1
100
AcDbLine
 10
203.975
 20
121.5
 30
0.0
 11
203.975
 21
121.5
 31
0.0
  0
LINE
  5
5CD
330
1F
100
AcDbEntity
  8
PEN1
  6
LTY1
100
AcDbLine
 10
203.975
 20
121.5
 30
0.0
 11
203.95
 21
121.5
 31
0.0
  0
LINE
  5
5CE
330
1F
100
AcDbEntity
  8
PEN1
  6
LTY1
100
AcDbLine
 10
196.85
 20
121.5
 30
0.0
 11
196.85
 21
121.5
 31
0.0
  0
LINE
  5
5CF
330
1F
100
AcDbEntity
  8
PEN1
  6
LTY1
100
AcDbLine
 10
196.85
 20
121.5
 30
0.0
 11
196.825
 21
121.5
 31
0.0
  0
LINE
  5
5D0
330
1F
100
AcDbEntity
  8
PEN1
  6
LTY1
100
AcDbLine
 10
196.825
 20
122.25
 30
0.0
 11
196.825
 21
122.25
 31
0.0
  0
LINE
  5
5D1
330
1F
100
AcDbEntity
  8
PEN1
  6
LTY1
100
AcDbLine
 10
196.825
 20
122.25
 30
0.0
 11
196.85
 21
122.25
 31
0.0
  0
LINE
  5
5D2
330
1F
100
AcDbEntity
  8
PEN1
  6
LTY1
100
AcDbLine
 10
196.775
 20
164.775
 30
0.0
 11
196.775
 21
164.775
 31
0.0
  0
LINE
  5
5D3
330
1F
100
AcDbEntity
  8
PEN1
  6
LTY1
100
AcDbLine
 10
196.775
 20
164.775
 30
0.0
 11
196.675
 21
164.8
 31
0.0
  0
LINE
  5
5D4
330
1F
100
AcDbEntity
  8
PEN1
  6
LTY1
100
AcDbLine
 10
196.675
 20
164.8
 30
0.0
 11
196.675
 21
164.8
 31
0.0
  0
LINE
  5
5D5
330
1F
100
AcDbEntity
  8
PEN1
  6
LTY1
100
AcDbLine
 10
196.675
 20
164.8
 30
0.0
 11
196.575
 21
164.85
 31
0.0
  0
LINE
  5
5D6
330
1F
100
AcDbEntity
  8
PEN1
  6
LTY1
100
AcDbLine
 10
196.575
 20
164.85
 30
0.0
 11
196.575
 21
164.85
 31
0.0
  0
LINE
  5
5D7
330
1F
100
AcDbEntity
  8
PEN1
  6
LTY1
100
AcDbLine
 10
196.575
 20
164.85
 30
0.0
 11
196.5
 21
164.85
 31
0.0
  0
LINE
  5
5D8
330
1F
100
AcDbEntity
  8
PEN1
  6
LTY1
100
AcDbLine
 10
196.5
 20
164.85
 30
0.0
 11
196.5
 21
164.85
 31
0.0
  0
LINE
  5
5D9
330
1F
100
AcDbEntity
  8
PEN1
  6
LTY1
100
AcDbLine
 10
196.5
 20
164.85
 30
0.0
 11
196.425
 21
164.875
 31
0.0
  0
LINE
  5
5DA
330
1F
100
AcDbEntity
  8
PEN1
  6
LTY1
100
AcDbLine
 10
196.425
 20
164.875
 30
0.0
 11
196.375
 21
164.875
 31
0.0
  0
LINE
  5
5DB
330
1F
100
AcDbEntity
  8
PEN1
  6
LTY1
100
AcDbLine
 10
196.125
 20
164.875
 30
0.0
 11
196.125
 21
164.875
 31
0.0
  0
LINE
  5
5DC
330
1F
100
AcDbEntity
  8
PEN1
  6
LTY1
100
AcDbLine
 10
196.125
 20
164.875
 30
0.0
 11
196.1
 21
164.875
 31
0.0
  0
LINE
  5
5DD
330
1F
100
AcDbEntity
  8
PEN1
  6
LTY1
100
AcDbLine
 10
196.1
 20
164.875
 30
0.0
 11
196.1
 21
164.875
 31
0.0
  0
LINE
  5
5DE
330
1F
100
AcDbEntity
  8
PEN1
  6
LTY1
100
AcDbLine
 10
196.1
 20
164.875
 30
0.0
 11
196.075
 21
164.85
 31
0.0
  0
LINE
  5
5DF
330
1F
100
AcDbEntity
  8
PEN1
  6
LTY1
100
AcDbLine
 10
196.075
 20
164.85
 30
0.0
 11
196.075
 21
164.85
 31
0.0
  0
LINE
  5
5E0
330
1F
100
AcDbEntity
  8
PEN1
  6
LTY1
100
AcDbLine
 10
196.075
 20
164.85
 30
0.0
 11
196.075
 21
164.85
 31
0.0
  0
LINE
  5
5E1
330
1F
100
AcDbEntity
  8
PEN1
  6
LTY1
100
AcDbLine
 10
196.075
 20
164.85
 30
0.0
 11
196.075
 21
164.85
 31
0.0
  0
LINE
  5
5E2
330
1F
100
AcDbEntity
  8
PEN1
  6
LTY1
100
AcDbLine
 10
196.075
 20
164.85
 30
0.0
 11
196.05
 21
164.85
 31
0.0
  0
LINE
  5
5E3
330
1F
100
AcDbEntity
  8
PEN1
  6
LTY1
100
AcDbLine
 10
196.05
 20
164.85
 30
0.0
 11
196.05
 21
164.85
 31
0.0
  0
LINE
  5
5E4
330
1F
100
AcDbEntity
  8
PEN1
  6
LTY1
100
AcDbLine
 10
196.05
 20
164.85
 30
0.0
 11
196.05
 21
164.825
 31
0.0
  0
LINE
  5
5E5
330
1F
100
AcDbEntity
  8
PEN1
  6
LTY1
100
AcDbLine
 10
196.05
 20
164.825
 30
0.0
 11
196.05
 21
164.825
 31
0.0
  0
LINE
  5
5E6
330
1F
100
AcDbEntity
  8
PEN1
  6
LTY1
100
AcDbLine
 10
196.05
 20
164.825
 30
0.0
 11
196.05
 21
164.8
 31
0.0
  0
LINE
  5
5E7
330
1F
100
AcDbEntity
  8
PEN1
  6
LTY1
100
AcDbLine
 10
196.05
 20
164.8
 30
0.0
 11
196.05
 21
164.8
 31
0.0
  0
LINE
  5
5E8
330
1F
100
AcDbEntity
  8
PEN1
  6
LTY1
100
AcDbLine
 10
196.05
 20
164.8
 30
0.0
 11
196.025
 21
164.775
 31
0.0
  0
LINE
  5
5E9
330
1F
100
AcDbEntity
  8
PEN1
  6
LTY1
100
AcDbLine
 10
196.025
 20
164.775
 30
0.0
 11
196.025
 21
164.775
 31
0.0
  0
LINE
  5
5EA
330
1F
100
AcDbEntity
  8
PEN1
  6
LTY1
100
AcDbLine
 10
196.025
 20
164.775
 30
0.0
 11
196.025
 21
164.775
 31
0.0
  0
LINE
  5
5EB
330
1F
100
AcDbEntity
  8
PEN1
  6
LTY1
100
AcDbLine
 10
196.775
 20
164.025
 30
0.0
 11
196.775
 21
164.025
 31
0.0
  0
LINE
  5
5EC
330
1F
100
AcDbEntity
  8
PEN1
  6
LTY1
100
AcDbLine
 10
196.775
 20
164.025
 30
0.0
 11
196.575
 21
163.95
 31
0.0
  0
LINE
  5
5ED
330
1F
100
AcDbEntity
  8
PEN1
  6
LTY1
100
AcDbLine
 10
196.575
 20
163.95
 30
0.0
 11
196.575
 21
163.95
 31
0.0
  0
LINE
  5
5EE
330
1F
100
AcDbEntity
  8
PEN1
  6
LTY1
100
AcDbLine
 10
196.575
 20
163.95
 30
0.0
 11
196.45
 21
163.9
 31
0.0
  0
LINE
  5
5EF
330
1F
100
AcDbEntity
  8
PEN1
  6
LTY1
100
AcDbLine
 10
196.45
 20
163.9
 30
0.0
 11
196.45
 21
163.9
 31
0.0
  0
LINE
  5
5F0
330
1F
100
AcDbEntity
  8
PEN1
  6
LTY1
100
AcDbLine
 10
196.45
 20
163.9
 30
0.0
 11
196.375
 21
163.875
 31
0.0
  0
LINE
  5
5F1
330
1F
100
AcDbEntity
  8
PEN1
  6
LTY1
100
AcDbLine
 10
196.375
 20
163.875
 30
0.0
 11
196.375
 21
163.875
 31
0.0
  0
LINE
  5
5F2
330
1F
100
AcDbEntity
  8
PEN1
  6
LTY1
100
AcDbLine
 10
196.375
 20
163.875
 30
0.0
 11
196.325
 21
163.85
 31
0.0
  0
LINE
  5
5F3
330
1F
100
AcDbEntity
  8
PEN1
  6
LTY1
100
AcDbLine
 10
196.325
 20
163.85
 30
0.0
 11
196.325
 21
163.85
 31
0.0
  0
LINE
  5
5F4
330
1F
100
AcDbEntity
  8
PEN1
  6
LTY1
100
AcDbLine
 10
196.325
 20
163.85
 30
0.0
 11
196.3
 21
163.825
 31
0.0
  0
LINE
  5
5F5
330
1F
100
AcDbEntity
  8
PEN1
  6
LTY1
100
AcDbLine
 10
196.3
 20
163.825
 30
0.0
 11
196.3
 21
163.825
 31
0.0
  0
LINE
  5
5F6
330
1F
100
AcDbEntity
  8
PEN1
  6
LTY1
100
AcDbLine
 10
196.3
 20
163.825
 30
0.0
 11
196.25
 21
163.8
 31
0.0
  0
LINE
  5
5F7
330
1F
100
AcDbEntity
  8
PEN1
  6
LTY1
100
AcDbLine
 10
196.25
 20
163.8
 30
0.0
 11
196.25
 21
163.8
 31
0.0
  0
LINE
  5
5F8
330
1F
100
AcDbEntity
  8
PEN1
  6
LTY1
100
AcDbLine
 10
196.25
 20
163.8
 30
0.0
 11
196.15
 21
163.725
 31
0.0
  0
LINE
  5
5F9
330
1F
100
AcDbEntity
  8
PEN1
  6
LTY1
100
AcDbLine
 10
196.15
 20
163.725
 30
0.0
 11
196.15
 21
163.725
 31
0.0
  0
LINE
  5
5FA
330
1F
100
AcDbEntity
  8
PEN1
  6
LTY1
100
AcDbLine
 10
196.15
 20
163.725
 30
0.0
 11
196.075
 21
163.675
 31
0.0
  0
LINE
  5
5FB
330
1F
100
AcDbEntity
  8
PEN1
  6
LTY1
100
AcDbLine
 10
196.075
 20
163.675
 30
0.0
 11
196.075
 21
163.675
 31
0.0
  0
LINE
  5
5FC
330
1F
100
AcDbEntity
  8
PEN1
  6
LTY1
100
AcDbLine
 10
196.075
 20
163.675
 30
0.0
 11
196.05
 21
163.6
 31
0.0
  0
LINE
  5
5FD
330
1F
100
AcDbEntity
  8
PEN1
  6
LTY1
100
AcDbLine
 10
196.05
 20
163.6
 30
0.0
 11
196.05
 21
163.6
 31
0.0
  0
LINE
  5
5FE
330
1F
100
AcDbEntity
  8
PEN1
  6
LTY1
100
AcDbLine
 10
196.05
 20
163.6
 30
0.0
 11
196.025
 21
163.55
 31
0.0
  0
LINE
  5
5FF
330
1F
100
AcDbEntity
  8
PEN1
  6
LTY1
100
AcDbLine
 10
196.025
 20
163.55
 30
0.0
 11
196.025
 21
163.525
 31
0.0
  0
LINE
  5
600
330
1F
100
AcDbEntity
  8
PEN1
  6
LTY1
100
AcDbLine
 10
196.775
 20
162.75
 30
0.0
 11
196.775
 21
162.75
 31
0.0
  0
LINE
  5
601
330
1F
100
AcDbEntity
  8
PEN1
  6
LTY1
100
AcDbLine
 10
196.775
 20
162.75
 30
0.0
 11
196.55
 21
162.75
 31
0.0
  0
LINE
  5
602
330
1F
100
AcDbEntity
  8
PEN1
  6
LTY1
100
AcDbLine
 10
196.55
 20
162.75
 30
0.0
 11
196.55
 21
162.75
 31
0.0
  0
LINE
  5
603
330
1F
100
AcDbEntity
  8
PEN1
  6
LTY1
100
AcDbLine
 10
196.55
 20
162.75
 30
0.0
 11
196.4
 21
162.775
 31
0.0
  0
LINE
  5
604
330
1F
100
AcDbEntity
  8
PEN1
  6
LTY1
100
AcDbLine
 10
196.4
 20
162.775
 30
0.0
 11
196.4
 21
162.775
 31
0.0
  0
LINE
  5
605
330
1F
100
AcDbEntity
  8
PEN1
  6
LTY1
100
AcDbLine
 10
196.4
 20
162.775
 30
0.0
 11
196.275
 21
162.8
 31
0.0
  0
LINE
  5
606
330
1F
100
AcDbEntity
  8
PEN1
  6
LTY1
100
AcDbLine
 10
196.275
 20
162.8
 30
0.0
 11
196.275
 21
162.8
 31
0.0
  0
LINE
  5
607
330
1F
100
AcDbEntity
  8
PEN1
  6
LTY1
100
AcDbLine
 10
196.275
 20
162.8
 30
0.0
 11
196.15
 21
162.8
 31
0.0
  0
LINE
  5
608
330
1F
100
AcDbEntity
  8
PEN1
  6
LTY1
100
AcDbLine
 10
196.15
 20
162.8
 30
0.0
 11
196.15
 21
162.8
 31
0.0
  0
LINE
  5
609
330
1F
100
AcDbEntity
  8
PEN1
  6
LTY1
100
AcDbLine
 10
196.15
 20
162.8
 30
0.0
 11
196.1
 21
162.825
 31
0.0
  0
LINE
  5
60A
330
1F
100
AcDbEntity
  8
PEN1
  6
LTY1
100
AcDbLine
 10
196.1
 20
162.825
 30
0.0
 11
196.1
 21
162.825
 31
0.0
  0
LINE
  5
60B
330
1F
100
AcDbEntity
  8
PEN1
  6
LTY1
100
AcDbLine
 10
196.1
 20
162.825
 30
0.0
 11
196.05
 21
162.85
 31
0.0
  0
LINE
  5
60C
330
1F
100
AcDbEntity
  8
PEN1
  6
LTY1
100
AcDbLine
 10
196.05
 20
162.85
 30
0.0
 11
196.05
 21
162.85
 31
0.0
  0
LINE
  5
60D
330
1F
100
AcDbEntity
  8
PEN1
  6
LTY1
100
AcDbLine
 10
196.05
 20
162.85
 30
0.0
 11
196.05
 21
162.875
 31
0.0
  0
LINE
  5
60E
330
1F
100
AcDbEntity
  8
PEN1
  6
LTY1
100
AcDbLine
 10
196.05
 20
162.875
 30
0.0
 11
196.05
 21
162.875
 31
0.0
  0
LINE
  5
60F
330
1F
100
AcDbEntity
  8
PEN1
  6
LTY1
100
AcDbLine
 10
196.05
 20
162.875
 30
0.0
 11
196.025
 21
162.875
 31
0.0
  0
LINE
  5
610
330
1F
100
AcDbEntity
  8
PEN1
  6
LTY1
100
AcDbLine
 10
196.025
 20
162.875
 30
0.0
 11
196.025
 21
162.9
 31
0.0
  0
LINE
  5
611
330
1F
100
AcDbEntity
  8
PEN1
  6
LTY1
100
AcDbLine
 10
196.775
 20
158.975
 30
0.0
 11
196.775
 21
158.975
 31
0.0
  0
LINE
  5
612
330
1F
100
AcDbEntity
  8
PEN1
  6
LTY1
100
AcDbLine
 10
196.775
 20
158.975
 30
0.0
 11
196.575
 21
158.975
 31
0.0
  0
LINE
  5
613
330
1F
100
AcDbEntity
  8
PEN1
  6
LTY1
100
AcDbLine
 10
196.575
 20
158.975
 30
0.0
 11
196.575
 21
158.975
 31
0.0
  0
LINE
  5
614
330
1F
100
AcDbEntity
  8
PEN1
  6
LTY1
100
AcDbLine
 10
196.575
 20
158.975
 30
0.0
 11
196.375
 21
158.95
 31
0.0
  0
LINE
  5
615
330
1F
100
AcDbEntity
  8
PEN1
  6
LTY1
100
AcDbLine
 10
196.375
 20
158.95
 30
0.0
 11
196.375
 21
158.95
 31
0.0
  0
LINE
  5
616
330
1F
100
AcDbEntity
  8
PEN1
  6
LTY1
100
AcDbLine
 10
196.375
 20
158.95
 30
0.0
 11
196.3
 21
158.925
 31
0.0
  0
LINE
  5
617
330
1F
100
AcDbEntity
  8
PEN1
  6
LTY1
100
AcDbLine
 10
196.3
 20
158.925
 30
0.0
 11
196.3
 21
158.925
 31
0.0
  0
LINE
  5
618
330
1F
100
AcDbEntity
  8
PEN1
  6
LTY1
100
AcDbLine
 10
196.3
 20
158.925
 30
0.0
 11
196.2
 21
158.9
 31
0.0
  0
LINE
  5
619
330
1F
100
AcDbEntity
  8
PEN1
  6
LTY1
100
AcDbLine
 10
196.2
 20
158.9
 30
0.0
 11
196.2
 21
158.9
 31
0.0
  0
LINE
  5
61A
330
1F
100
AcDbEntity
  8
PEN1
  6
LTY1
100
AcDbLine
 10
196.2
 20
158.9
 30
0.0
 11
196.125
 21
158.875
 31
0.0
  0
LINE
  5
61B
330
1F
100
AcDbEntity
  8
PEN1
  6
LTY1
100
AcDbLine
 10
196.125
 20
158.875
 30
0.0
 11
196.125
 21
158.875
 31
0.0
  0
LINE
  5
61C
330
1F
100
AcDbEntity
  8
PEN1
  6
LTY1
100
AcDbLine
 10
196.125
 20
158.875
 30
0.0
 11
196.05
 21
158.825
 31
0.0
  0
LINE
  5
61D
330
1F
100
AcDbEntity
  8
PEN1
  6
LTY1
100
AcDbLine
 10
196.05
 20
158.825
 30
0.0
 11
196.05
 21
158.825
 31
0.0
  0
LINE
  5
61E
330
1F
100
AcDbEntity
  8
PEN1
  6
LTY1
100
AcDbLine
 10
196.05
 20
158.825
 30
0.0
 11
196.05
 21
158.8
 31
0.0
  0
LINE
  5
61F
330
1F
100
AcDbEntity
  8
PEN1
  6
LTY1
100
AcDbLine
 10
196.05
 20
158.8
 30
0.0
 11
196.05
 21
158.8
 31
0.0
  0
LINE
  5
620
330
1F
100
AcDbEntity
  8
PEN1
  6
LTY1
100
AcDbLine
 10
196.05
 20
158.8
 30
0.0
 11
196.025
 21
158.775
 31
0.0
  0
LINE
  5
621
330
1F
100
AcDbEntity
  8
PEN1
  6
LTY1
100
AcDbLine
 10
196.775
 20
157.275
 30
0.0
 11
196.775
 21
157.275
 31
0.0
  0
LINE
  5
622
330
1F
100
AcDbEntity
  8
PEN1
  6
LTY1
100
AcDbLine
 10
196.775
 20
157.275
 30
0.0
 11
196.7
 21
157.275
 31
0.0
  0
LINE
  5
623
330
1F
100
AcDbEntity
  8
PEN1
  6
LTY1
100
AcDbLine
 10
196.7
 20
157.275
 30
0.0
 11
196.7
 21
157.275
 31
0.0
  0
LINE
  5
624
330
1F
100
AcDbEntity
  8
PEN1
  6
LTY1
100
AcDbLine
 10
196.7
 20
157.275
 30
0.0
 11
196.625
 21
157.25
 31
0.0
  0
LINE
  5
625
330
1F
100
AcDbEntity
  8
PEN1
  6
LTY1
100
AcDbLine
 10
196.625
 20
157.25
 30
0.0
 11
196.625
 21
157.25
 31
0.0
  0
LINE
  5
626
330
1F
100
AcDbEntity
  8
PEN1
  6
LTY1
100
AcDbLine
 10
196.625
 20
157.25
 30
0.0
 11
196.5
 21
157.175
 31
0.0
  0
LINE
  5
627
330
1F
100
AcDbEntity
  8
PEN1
  6
LTY1
100
AcDbLine
 10
196.5
 20
157.175
 30
0.0
 11
196.5
 21
157.175
 31
0.0
  0
LINE
  5
628
330
1F
100
AcDbEntity
  8
PEN1
  6
LTY1
100
AcDbLine
 10
196.5
 20
157.175
 30
0.0
 11
196.375
 21
157.075
 31
0.0
  0
LINE
  5
629
330
1F
100
AcDbEntity
  8
PEN1
  6
LTY1
100
AcDbLine
 10
196.375
 20
157.075
 30
0.0
 11
196.375
 21
157.075
 31
0.0
  0
LINE
  5
62A
330
1F
100
AcDbEntity
  8
PEN1
  6
LTY1
100
AcDbLine
 10
196.375
 20
157.075
 30
0.0
 11
196.275
 21
156.95
 31
0.0
  0
LINE
  5
62B
330
1F
100
AcDbEntity
  8
PEN1
  6
LTY1
100
AcDbLine
 10
196.275
 20
156.95
 30
0.0
 11
196.275
 21
156.95
 31
0.0
  0
LINE
  5
62C
330
1F
100
AcDbEntity
  8
PEN1
  6
LTY1
100
AcDbLine
 10
196.275
 20
156.95
 30
0.0
 11
196.175
 21
156.8
 31
0.0
  0
LINE
  5
62D
330
1F
100
AcDbEntity
  8
PEN1
  6
LTY1
100
AcDbLine
 10
196.175
 20
156.8
 30
0.0
 11
196.175
 21
156.8
 31
0.0
  0
LINE
  5
62E
330
1F
100
AcDbEntity
  8
PEN1
  6
LTY1
100
AcDbLine
 10
196.175
 20
156.8
 30
0.0
 11
196.125
 21
156.625
 31
0.0
  0
LINE
  5
62F
330
1F
100
AcDbEntity
  8
PEN1
  6
LTY1
100
AcDbLine
 10
196.125
 20
156.625
 30
0.0
 11
196.125
 21
156.625
 31
0.0
  0
LINE
  5
630
330
1F
100
AcDbEntity
  8
PEN1
  6
LTY1
100
AcDbLine
 10
196.125
 20
156.625
 30
0.0
 11
196.05
 21
156.425
 31
0.0
  0
LINE
  5
631
330
1F
100
AcDbEntity
  8
PEN1
  6
LTY1
100
AcDbLine
 10
196.05
 20
156.425
 30
0.0
 11
196.05
 21
156.425
 31
0.0
  0
LINE
  5
632
330
1F
100
AcDbEntity
  8
PEN1
  6
LTY1
100
AcDbLine
 10
196.05
 20
156.425
 30
0.0
 11
196.05
 21
156.3
 31
0.0
  0
LINE
  5
633
330
1F
100
AcDbEntity
  8
PEN1
  6
LTY1
100
AcDbLine
 10
196.05
 20
156.3
 30
0.0
 11
196.05
 21
156.3
 31
0.0
  0
LINE
  5
634
330
1F
100
AcDbEntity
  8
PEN1
  6
LTY1
100
AcDbLine
 10
196.05
 20
156.3
 30
0.0
 11
196.025
 21
156.125
 31
0.0
  0
LINE
  5
635
330
1F
100
AcDbEntity
  8
PEN1
  6
LTY1
100
AcDbLine
 10
196.775
 20
157.175
 30
0.0
 11
196.775
 21
157.175
 31
0.0
  0
LINE
  5
636
330
1F
100
AcDbEntity
  8
PEN1
  6
LTY1
100
AcDbLine
 10
196.775
 20
157.175
 30
0.0
 11
196.7
 21
157.175
 31
0.0
  0
LINE
  5
637
330
1F
100
AcDbEntity
  8
PEN1
  6
LTY1
100
AcDbLine
 10
196.7
 20
157.175
 30
0.0
 11
196.7
 21
157.175
 31
0.0
  0
LINE
  5
638
330
1F
100
AcDbEntity
  8
PEN1
  6
LTY1
100
AcDbLine
 10
196.7
 20
157.175
 30
0.0
 11
196.575
 21
157.15
 31
0.0
  0
LINE
  5
639
330
1F
100
AcDbEntity
  8
PEN1
  6
LTY1
100
AcDbLine
 10
196.575
 20
157.15
 30
0.0
 11
196.575
 21
157.15
 31
0.0
  0
LINE
  5
63A
330
1F
100
AcDbEntity
  8
PEN1
  6
LTY1
100
AcDbLine
 10
196.575
 20
157.15
 30
0.0
 11
196.475
 21
157.1
 31
0.0
  0
LINE
  5
63B
330
1F
100
AcDbEntity
  8
PEN1
  6
LTY1
100
AcDbLine
 10
196.475
 20
157.1
 30
0.0
 11
196.475
 21
157.1
 31
0.0
  0
LINE
  5
63C
330
1F
100
AcDbEntity
  8
PEN1
  6
LTY1
100
AcDbLine
 10
196.475
 20
157.1
 30
0.0
 11
196.375
 21
157.025
 31
0.0
  0
LINE
  5
63D
330
1F
100
AcDbEntity
  8
PEN1
  6
LTY1
100
AcDbLine
 10
196.375
 20
157.025
 30
0.0
 11
196.375
 21
157.025
 31
0.0
  0
LINE
  5
63E
330
1F
100
AcDbEntity
  8
PEN1
  6
LTY1
100
AcDbLine
 10
196.375
 20
157.025
 30
0.0
 11
196.275
 21
156.9
 31
0.0
  0
LINE
  5
63F
330
1F
100
AcDbEntity
  8
PEN1
  6
LTY1
100
AcDbLine
 10
196.275
 20
156.9
 30
0.0
 11
196.275
 21
156.9
 31
0.0
  0
LINE
  5
640
330
1F
100
AcDbEntity
  8
PEN1
  6
LTY1
100
AcDbLine
 10
196.275
 20
156.9
 30
0.0
 11
196.175
 21
156.725
 31
0.0
  0
LINE
  5
641
330
1F
100
AcDbEntity
  8
PEN1
  6
LTY1
100
AcDbLine
 10
196.175
 20
156.725
 30
0.0
 11
196.175
 21
156.725
 31
0.0
  0
LINE
  5
642
330
1F
100
AcDbEntity
  8
PEN1
  6
LTY1
100
AcDbLine
 10
196.175
 20
156.725
 30
0.0
 11
196.125
 21
156.55
 31
0.0
  0
LINE
  5
643
330
1F
100
AcDbEntity
  8
PEN1
  6
LTY1
100
AcDbLine
 10
196.125
 20
156.55
 30
0.0
 11
196.125
 21
156.55
 31
0.0
  0
LINE
  5
644
330
1F
100
AcDbEntity
  8
PEN1
  6
LTY1
100
AcDbLine
 10
196.125
 20
156.55
 30
0.0
 11
196.05
 21
156.375
 31
0.0
  0
LINE
  5
645
330
1F
100
AcDbEntity
  8
PEN1
  6
LTY1
100
AcDbLine
 10
196.05
 20
156.375
 30
0.0
 11
196.05
 21
156.375
 31
0.0
  0
LINE
  5
646
330
1F
100
AcDbEntity
  8
PEN1
  6
LTY1
100
AcDbLine
 10
196.05
 20
156.375
 30
0.0
 11
196.05
 21
156.15
 31
0.0
  0
LINE
  5
647
330
1F
100
AcDbEntity
  8
PEN1
  6
LTY1
100
AcDbLine
 10
196.05
 20
156.15
 30
0.0
 11
196.025
 21
156.05
 31
0.0
  0
LINE
  5
648
330
1F
100
AcDbEntity
  8
PEN1
  6
LTY1
100
AcDbLine
 10
204.025
 20
164.775
 30
0.0
 11
204.025
 21
164.775
 31
0.0
  0
LINE
  5
649
330
1F
100
AcDbEntity
  8
PEN1
  6
LTY1
100
AcDbLine
 10
204.025
 20
164.775
 30
0.0
 11
204.125
 21
164.8
 31
0.0
  0
LINE
  5
64A
330
1F
100
AcDbEntity
  8
PEN1
  6
LTY1
100
AcDbLine
 10
204.125
 20
164.8
 30
0.0
 11
204.125
 21
164.8
 31
0.0
  0
LINE
  5
64B
330
1F
100
AcDbEntity
  8
PEN1
  6
LTY1
100
AcDbLine
 10
204.125
 20
164.8
 30
0.0
 11
204.225
 21
164.85
 31
0.0
  0
LINE
  5
64C
330
1F
100
AcDbEntity
  8
PEN1
  6
LTY1
100
AcDbLine
 10
204.225
 20
164.85
 30
0.0
 11
204.225
 21
164.85
 31
0.0
  0
LINE
  5
64D
330
1F
100
AcDbEntity
  8
PEN1
  6
LTY1
100
AcDbLine
 10
204.225
 20
164.85
 30
0.0
 11
204.325
 21
164.85
 31
0.0
  0
LINE
  5
64E
330
1F
100
AcDbEntity
  8
PEN1
  6
LTY1
100
AcDbLine
 10
204.325
 20
164.85
 30
0.0
 11
204.325
 21
164.85
 31
0.0
  0
LINE
  5
64F
330
1F
100
AcDbEntity
  8
PEN1
  6
LTY1
100
AcDbLine
 10
204.325
 20
164.85
 30
0.0
 11
204.4
 21
164.875
 31
0.0
  0
LINE
  5
650
330
1F
100
AcDbEntity
  8
PEN1
  6
LTY1
100
AcDbLine
 10
204.4
 20
164.875
 30
0.0
 11
204.425
 21
164.875
 31
0.0
  0
LINE
  5
651
330
1F
100
AcDbEntity
  8
PEN1
  6
LTY1
100
AcDbLine
 10
204.675
 20
164.875
 30
0.0
 11
204.675
 21
164.875
 31
0.0
  0
LINE
  5
652
330
1F
100
AcDbEntity
  8
PEN1
  6
LTY1
100
AcDbLine
 10
204.675
 20
164.875
 30
0.0
 11
204.7
 21
164.875
 31
0.0
  0
LINE
  5
653
330
1F
100
AcDbEntity
  8
PEN1
  6
LTY1
100
AcDbLine
 10
204.7
 20
164.875
 30
0.0
 11
204.7
 21
164.875
 31
0.0
  0
LINE
  5
654
330
1F
100
AcDbEntity
  8
PEN1
  6
LTY1
100
AcDbLine
 10
204.7
 20
164.875
 30
0.0
 11
204.725
 21
164.85
 31
0.0
  0
LINE
  5
655
330
1F
100
AcDbEntity
  8
PEN1
  6
LTY1
100
AcDbLine
 10
204.725
 20
164.85
 30
0.0
 11
204.725
 21
164.85
 31
0.0
  0
LINE
  5
656
330
1F
100
AcDbEntity
  8
PEN1
  6
LTY1
100
AcDbLine
 10
204.725
 20
164.85
 30
0.0
 11
204.75
 21
164.85
 31
0.0
  0
LINE
  5
657
330
1F
100
AcDbEntity
  8
PEN1
  6
LTY1
100
AcDbLine
 10
204.75
 20
164.85
 30
0.0
 11
204.75
 21
164.85
 31
0.0
  0
LINE
  5
658
330
1F
100
AcDbEntity
  8
PEN1
  6
LTY1
100
AcDbLine
 10
204.75
 20
164.85
 30
0.0
 11
204.75
 21
164.85
 31
0.0
  0
LINE
  5
659
330
1F
100
AcDbEntity
  8
PEN1
  6
LTY1
100
AcDbLine
 10
204.75
 20
164.85
 30
0.0
 11
204.75
 21
164.85
 31
0.0
  0
LINE
  5
65A
330
1F
100
AcDbEntity
  8
PEN1
  6
LTY1
100
AcDbLine
 10
204.75
 20
164.85
 30
0.0
 11
204.75
 21
164.825
 31
0.0
  0
LINE
  5
65B
330
1F
100
AcDbEntity
  8
PEN1
  6
LTY1
100
AcDbLine
 10
204.75
 20
164.825
 30
0.0
 11
204.75
 21
164.825
 31
0.0
  0
LINE
  5
65C
330
1F
100
AcDbEntity
  8
PEN1
  6
LTY1
100
AcDbLine
 10
204.75
 20
164.825
 30
0.0
 11
204.775
 21
164.8
 31
0.0
  0
LINE
  5
65D
330
1F
100
AcDbEntity
  8
PEN1
  6
LTY1
100
AcDbLine
 10
204.775
 20
164.8
 30
0.0
 11
204.775
 21
164.8
 31
0.0
  0
LINE
  5
65E
330
1F
100
AcDbEntity
  8
PEN1
  6
LTY1
100
AcDbLine
 10
204.775
 20
164.8
 30
0.0
 11
204.775
 21
164.775
 31
0.0
  0
LINE
  5
65F
330
1F
100
AcDbEntity
  8
PEN1
  6
LTY1
100
AcDbLine
 10
204.775
 20
164.775
 30
0.0
 11
204.775
 21
164.775
 31
0.0
  0
LINE
  5
660
330
1F
100
AcDbEntity
  8
PEN1
  6
LTY1
100
AcDbLine
 10
204.775
 20
164.775
 30
0.0
 11
204.775
 21
164.775
 31
0.0
  0
LINE
  5
661
330
1F
100
AcDbEntity
  8
PEN1
  6
LTY1
100
AcDbLine
 10
204.025
 20
164.025
 30
0.0
 11
204.025
 21
164.025
 31
0.0
  0
LINE
  5
662
330
1F
100
AcDbEntity
  8
PEN1
  6
LTY1
100
AcDbLine
 10
204.025
 20
164.025
 30
0.0
 11
204.225
 21
163.95
 31
0.0
  0
LINE
  5
663
330
1F
100
AcDbEntity
  8
PEN1
  6
LTY1
100
AcDbLine
 10
204.225
 20
163.95
 30
0.0
 11
204.225
 21
163.95
 31
0.0
  0
LINE
  5
664
330
1F
100
AcDbEntity
  8
PEN1
  6
LTY1
100
AcDbLine
 10
204.225
 20
163.95
 30
0.0
 11
204.35
 21
163.9
 31
0.0
  0
LINE
  5
665
330
1F
100
AcDbEntity
  8
PEN1
  6
LTY1
100
AcDbLine
 10
204.35
 20
163.9
 30
0.0
 11
204.35
 21
163.9
 31
0.0
  0
LINE
  5
666
330
1F
100
AcDbEntity
  8
PEN1
  6
LTY1
100
AcDbLine
 10
204.35
 20
163.9
 30
0.0
 11
204.425
 21
163.875
 31
0.0
  0
LINE
  5
667
330
1F
100
AcDbEntity
  8
PEN1
  6
LTY1
100
AcDbLine
 10
204.425
 20
163.875
 30
0.0
 11
204.425
 21
163.875
 31
0.0
  0
LINE
  5
668
330
1F
100
AcDbEntity
  8
PEN1
  6
LTY1
100
AcDbLine
 10
204.425
 20
163.875
 30
0.0
 11
204.475
 21
163.85
 31
0.0
  0
LINE
  5
669
330
1F
100
AcDbEntity
  8
PEN1
  6
LTY1
100
AcDbLine
 10
204.475
 20
163.85
 30
0.0
 11
204.475
 21
163.85
 31
0.0
  0
LINE
  5
66A
330
1F
100
AcDbEntity
  8
PEN1
  6
LTY1
100
AcDbLine
 10
204.475
 20
163.85
 30
0.0
 11
204.525
 21
163.825
 31
0.0
  0
LINE
  5
66B
330
1F
100
AcDbEntity
  8
PEN1
  6
LTY1
100
AcDbLine
 10
204.525
 20
163.825
 30
0.0
 11
204.525
 21
163.825
 31
0.0
  0
LINE
  5
66C
330
1F
100
AcDbEntity
  8
PEN1
  6
LTY1
100
AcDbLine
 10
204.525
 20
163.825
 30
0.0
 11
204.575
 21
163.8
 31
0.0
  0
LINE
  5
66D
330
1F
100
AcDbEntity
  8
PEN1
  6
LTY1
100
AcDbLine
 10
204.575
 20
163.8
 30
0.0
 11
204.575
 21
163.8
 31
0.0
  0
LINE
  5
66E
330
1F
100
AcDbEntity
  8
PEN1
  6
LTY1
100
AcDbLine
 10
204.575
 20
163.8
 30
0.0
 11
204.65
 21
163.725
 31
0.0
  0
LINE
  5
66F
330
1F
100
AcDbEntity
  8
PEN1
  6
LTY1
100
AcDbLine
 10
204.65
 20
163.725
 30
0.0
 11
204.65
 21
163.725
 31
0.0
  0
LINE
  5
670
330
1F
100
AcDbEntity
  8
PEN1
  6
LTY1
100
AcDbLine
 10
204.65
 20
163.725
 30
0.0
 11
204.725
 21
163.675
 31
0.0
  0
LINE
  5
671
330
1F
100
AcDbEntity
  8
PEN1
  6
LTY1
100
AcDbLine
 10
204.725
 20
163.675
 30
0.0
 11
204.725
 21
163.675
 31
0.0
  0
LINE
  5
672
330
1F
100
AcDbEntity
  8
PEN1
  6
LTY1
100
AcDbLine
 10
204.725
 20
163.675
 30
0.0
 11
204.75
 21
163.6
 31
0.0
  0
LINE
  5
673
330
1F
100
AcDbEntity
  8
PEN1
  6
LTY1
100
AcDbLine
 10
204.75
 20
163.6
 30
0.0
 11
204.75
 21
163.6
 31
0.0
  0
LINE
  5
674
330
1F
100
AcDbEntity
  8
PEN1
  6
LTY1
100
AcDbLine
 10
204.75
 20
163.6
 30
0.0
 11
204.775
 21
163.55
 31
0.0
  0
LINE
  5
675
330
1F
100
AcDbEntity
  8
PEN1
  6
LTY1
100
AcDbLine
 10
204.775
 20
163.55
 30
0.0
 11
204.775
 21
163.525
 31
0.0
  0
LINE
  5
676
330
1F
100
AcDbEntity
  8
PEN1
  6
LTY1
100
AcDbLine
 10
204.025
 20
162.75
 30
0.0
 11
204.025
 21
162.75
 31
0.0
  0
LINE
  5
677
330
1F
100
AcDbEntity
  8
PEN1
  6
LTY1
100
AcDbLine
 10
204.025
 20
162.75
 30
0.0
 11
204.25
 21
162.75
 31
0.0
  0
LINE
  5
678
330
1F
100
AcDbEntity
  8
PEN1
  6
LTY1
100
AcDbLine
 10
204.25
 20
162.75
 30
0.0
 11
204.25
 21
162.75
 31
0.0
  0
LINE
  5
679
330
1F
100
AcDbEntity
  8
PEN1
  6
LTY1
100
AcDbLine
 10
204.25
 20
162.75
 30
0.0
 11
204.425
 21
162.775
 31
0.0
  0
LINE
  5
67A
330
1F
100
AcDbEntity
  8
PEN1
  6
LTY1
100
AcDbLine
 10
204.425
 20
162.775
 30
0.0
 11
204.425
 21
162.775
 31
0.0
  0
LINE
  5
67B
330
1F
100
AcDbEntity
  8
PEN1
  6
LTY1
100
AcDbLine
 10
204.425
 20
162.775
 30
0.0
 11
204.55
 21
162.8
 31
0.0
  0
LINE
  5
67C
330
1F
100
AcDbEntity
  8
PEN1
  6
LTY1
100
AcDbLine
 10
204.55
 20
162.8
 30
0.0
 11
204.55
 21
162.8
 31
0.0
  0
LINE
  5
67D
330
1F
100
AcDbEntity
  8
PEN1
  6
LTY1
100
AcDbLine
 10
204.55
 20
162.8
 30
0.0
 11
204.65
 21
162.8
 31
0.0
  0
LINE
  5
67E
330
1F
100
AcDbEntity
  8
PEN1
  6
LTY1
100
AcDbLine
 10
204.65
 20
162.8
 30
0.0
 11
204.65
 21
162.8
 31
0.0
  0
LINE
  5
67F
330
1F
100
AcDbEntity
  8
PEN1
  6
LTY1
100
AcDbLine
 10
204.65
 20
162.8
 30
0.0
 11
204.725
 21
162.825
 31
0.0
  0
LINE
  5
680
330
1F
100
AcDbEntity
  8
PEN1
  6
LTY1
100
AcDbLine
 10
204.725
 20
162.825
 30
0.0
 11
204.725
 21
162.825
 31
0.0
  0
LINE
  5
681
330
1F
100
AcDbEntity
  8
PEN1
  6
LTY1
100
AcDbLine
 10
204.725
 20
162.825
 30
0.0
 11
204.75
 21
162.85
 31
0.0
  0
LINE
  5
682
330
1F
100
AcDbEntity
  8
PEN1
  6
LTY1
100
AcDbLine
 10
204.75
 20
162.85
 30
0.0
 11
204.75
 21
162.85
 31
0.0
  0
LINE
  5
683
330
1F
100
AcDbEntity
  8
PEN1
  6
LTY1
100
AcDbLine
 10
204.75
 20
162.85
 30
0.0
 11
204.775
 21
162.875
 31
0.0
  0
LINE
  5
684
330
1F
100
AcDbEntity
  8
PEN1
  6
LTY1
100
AcDbLine
 10
204.775
 20
162.875
 30
0.0
 11
204.775
 21
162.875
 31
0.0
  0
LINE
  5
685
330
1F
100
AcDbEntity
  8
PEN1
  6
LTY1
100
AcDbLine
 10
204.775
 20
162.875
 30
0.0
 11
204.775
 21
162.875
 31
0.0
  0
LINE
  5
686
330
1F
100
AcDbEntity
  8
PEN1
  6
LTY1
100
AcDbLine
 10
204.775
 20
162.875
 30
0.0
 11
204.775
 21
162.9
 31
0.0
  0
LINE
  5
687
330
1F
100
AcDbEntity
  8
PEN1
  6
LTY1
100
AcDbLine
 10
204.025
 20
158.975
 30
0.0
 11
204.025
 21
158.975
 31
0.0
  0
LINE
  5
688
330
1F
100
AcDbEntity
  8
PEN1
  6
LTY1
100
AcDbLine
 10
204.025
 20
158.975
 30
0.0
 11
204.225
 21
158.975
 31
0.0
  0
LINE
  5
689
330
1F
100
AcDbEntity
  8
PEN1
  6
LTY1
100
AcDbLine
 10
204.225
 20
158.975
 30
0.0
 11
204.225
 21
158.975
 31
0.0
  0
LINE
  5
68A
330
1F
100
AcDbEntity
  8
PEN1
  6
LTY1
100
AcDbLine
 10
204.225
 20
158.975
 30
0.0
 11
204.425
 21
158.95
 31
0.0
  0
LINE
  5
68B
330
1F
100
AcDbEntity
  8
PEN1
  6
LTY1
100
AcDbLine
 10
204.425
 20
158.95
 30
0.0
 11
204.425
 21
158.95
 31
0.0
  0
LINE
  5
68C
330
1F
100
AcDbEntity
  8
PEN1
  6
LTY1
100
AcDbLine
 10
204.425
 20
158.95
 30
0.0
 11
204.525
 21
158.925
 31
0.0
  0
LINE
  5
68D
330
1F
100
AcDbEntity
  8
PEN1
  6
LTY1
100
AcDbLine
 10
204.525
 20
158.925
 30
0.0
 11
204.525
 21
158.925
 31
0.0
  0
LINE
  5
68E
330
1F
100
AcDbEntity
  8
PEN1
  6
LTY1
100
AcDbLine
 10
204.525
 20
158.925
 30
0.0
 11
204.625
 21
158.9
 31
0.0
  0
LINE
  5
68F
330
1F
100
AcDbEntity
  8
PEN1
  6
LTY1
100
AcDbLine
 10
204.625
 20
158.9
 30
0.0
 11
204.625
 21
158.9
 31
0.0
  0
LINE
  5
690
330
1F
100
AcDbEntity
  8
PEN1
  6
LTY1
100
AcDbLine
 10
204.625
 20
158.9
 30
0.0
 11
204.7
 21
158.875
 31
0.0
  0
LINE
  5
691
330
1F
100
AcDbEntity
  8
PEN1
  6
LTY1
100
AcDbLine
 10
204.7
 20
158.875
 30
0.0
 11
204.7
 21
158.875
 31
0.0
  0
LINE
  5
692
330
1F
100
AcDbEntity
  8
PEN1
  6
LTY1
100
AcDbLine
 10
204.7
 20
158.875
 30
0.0
 11
204.75
 21
158.825
 31
0.0
  0
LINE
  5
693
330
1F
100
AcDbEntity
  8
PEN1
  6
LTY1
100
AcDbLine
 10
204.75
 20
158.825
 30
0.0
 11
204.75
 21
158.825
 31
0.0
  0
LINE
  5
694
330
1F
100
AcDbEntity
  8
PEN1
  6
LTY1
100
AcDbLine
 10
204.75
 20
158.825
 30
0.0
 11
204.775
 21
158.8
 31
0.0
  0
LINE
  5
695
330
1F
100
AcDbEntity
  8
PEN1
  6
LTY1
100
AcDbLine
 10
204.775
 20
158.8
 30
0.0
 11
204.775
 21
158.8
 31
0.0
  0
LINE
  5
696
330
1F
100
AcDbEntity
  8
PEN1
  6
LTY1
100
AcDbLine
 10
204.775
 20
158.8
 30
0.0
 11
204.775
 21
158.775
 31
0.0
  0
LINE
  5
697
330
1F
100
AcDbEntity
  8
PEN1
  6
LTY1
100
AcDbLine
 10
204.025
 20
157.275
 30
0.0
 11
204.025
 21
157.275
 31
0.0
  0
LINE
  5
698
330
1F
100
AcDbEntity
  8
PEN1
  6
LTY1
100
AcDbLine
 10
204.025
 20
157.275
 30
0.0
 11
204.1
 21
157.275
 31
0.0
  0
LINE
  5
699
330
1F
100
AcDbEntity
  8
PEN1
  6
LTY1
100
AcDbLine
 10
204.1
 20
157.275
 30
0.0
 11
204.1
 21
157.275
 31
0.0
  0
LINE
  5
69A
330
1F
100
AcDbEntity
  8
PEN1
  6
LTY1
100
AcDbLine
 10
204.1
 20
157.275
 30
0.0
 11
204.175
 21
157.25
 31
0.0
  0
LINE
  5
69B
330
1F
100
AcDbEntity
  8
PEN1
  6
LTY1
100
AcDbLine
 10
204.175
 20
157.25
 30
0.0
 11
204.175
 21
157.25
 31
0.0
  0
LINE
  5
69C
330
1F
100
AcDbEntity
  8
PEN1
  6
LTY1
100
AcDbLine
 10
204.175
 20
157.25
 30
0.0
 11
204.3
 21
157.175
 31
0.0
  0
LINE
  5
69D
330
1F
100
AcDbEntity
  8
PEN1
  6
LTY1
100
AcDbLine
 10
204.3
 20
157.175
 30
0.0
 11
204.3
 21
157.175
 31
0.0
  0
LINE
  5
69E
330
1F
100
AcDbEntity
  8
PEN1
  6
LTY1
100
AcDbLine
 10
204.3
 20
157.175
 30
0.0
 11
204.425
 21
157.075
 31
0.0
  0
LINE
  5
69F
330
1F
100
AcDbEntity
  8
PEN1
  6
LTY1
100
AcDbLine
 10
204.425
 20
157.075
 30
0.0
 11
204.425
 21
157.075
 31
0.0
  0
LINE
  5
6A0
330
1F
100
AcDbEntity
  8
PEN1
  6
LTY1
100
AcDbLine
 10
204.425
 20
157.075
 30
0.0
 11
204.55
 21
156.95
 31
0.0
  0
LINE
  5
6A1
330
1F
100
AcDbEntity
  8
PEN1
  6
LTY1
100
AcDbLine
 10
204.55
 20
156.95
 30
0.0
 11
204.55
 21
156.95
 31
0.0
  0
LINE
  5
6A2
330
1F
100
AcDbEntity
  8
PEN1
  6
LTY1
100
AcDbLine
 10
204.55
 20
156.95
 30
0.0
 11
204.625
 21
156.8
 31
0.0
  0
LINE
  5
6A3
330
1F
100
AcDbEntity
  8
PEN1
  6
LTY1
100
AcDbLine
 10
204.625
 20
156.8
 30
0.0
 11
204.625
 21
156.8
 31
0.0
  0
LINE
  5
6A4
330
1F
100
AcDbEntity
  8
PEN1
  6
LTY1
100
AcDbLine
 10
204.625
 20
156.8
 30
0.0
 11
204.7
 21
156.625
 31
0.0
  0
LINE
  5
6A5
330
1F
100
AcDbEntity
  8
PEN1
  6
LTY1
100
AcDbLine
 10
204.7
 20
156.625
 30
0.0
 11
204.7
 21
156.625
 31
0.0
  0
LINE
  5
6A6
330
1F
100
AcDbEntity
  8
PEN1
  6
LTY1
100
AcDbLine
 10
204.7
 20
156.625
 30
0.0
 11
204.75
 21
156.425
 31
0.0
  0
LINE
  5
6A7
330
1F
100
AcDbEntity
  8
PEN1
  6
LTY1
100
AcDbLine
 10
204.75
 20
156.425
 30
0.0
 11
204.75
 21
156.425
 31
0.0
  0
LINE
  5
6A8
330
1F
100
AcDbEntity
  8
PEN1
  6
LTY1
100
AcDbLine
 10
204.75
 20
156.425
 30
0.0
 11
204.775
 21
156.3
 31
0.0
  0
LINE
  5
6A9
330
1F
100
AcDbEntity
  8
PEN1
  6
LTY1
100
AcDbLine
 10
204.775
 20
156.3
 30
0.0
 11
204.775
 21
156.3
 31
0.0
  0
LINE
  5
6AA
330
1F
100
AcDbEntity
  8
PEN1
  6
LTY1
100
AcDbLine
 10
204.775
 20
156.3
 30
0.0
 11
204.775
 21
156.125
 31
0.0
  0
LINE
  5
6AB
330
1F
100
AcDbEntity
  8
PEN1
  6
LTY1
100
AcDbLine
 10
204.025
 20
157.175
 30
0.0
 11
204.025
 21
157.175
 31
0.0
  0
LINE
  5
6AC
330
1F
100
AcDbEntity
  8
PEN1
  6
LTY1
100
AcDbLine
 10
204.025
 20
157.175
 30
0.0
 11
204.1
 21
157.175
 31
0.0
  0
LINE
  5
6AD
330
1F
100
AcDbEntity
  8
PEN1
  6
LTY1
100
AcDbLine
 10
204.1
 20
157.175
 30
0.0
 11
204.1
 21
157.175
 31
0.0
  0
LINE
  5
6AE
330
1F
100
AcDbEntity
  8
PEN1
  6
LTY1
100
AcDbLine
 10
204.1
 20
157.175
 30
0.0
 11
204.225
 21
157.15
 31
0.0
  0
LINE
  5
6AF
330
1F
100
AcDbEntity
  8
PEN1
  6
LTY1
100
AcDbLine
 10
204.225
 20
157.15
 30
0.0
 11
204.225
 21
157.15
 31
0.0
  0
LINE
  5
6B0
330
1F
100
AcDbEntity
  8
PEN1
  6
LTY1
100
AcDbLine
 10
204.225
 20
157.15
 30
0.0
 11
204.325
 21
157.1
 31
0.0
  0
LINE
  5
6B1
330
1F
100
AcDbEntity
  8
PEN1
  6
LTY1
100
AcDbLine
 10
204.325
 20
157.1
 30
0.0
 11
204.325
 21
157.1
 31
0.0
  0
LINE
  5
6B2
330
1F
100
AcDbEntity
  8
PEN1
  6
LTY1
100
AcDbLine
 10
204.325
 20
157.1
 30
0.0
 11
204.425
 21
157.025
 31
0.0
  0
LINE
  5
6B3
330
1F
100
AcDbEntity
  8
PEN1
  6
LTY1
100
AcDbLine
 10
204.425
 20
157.025
 30
0.0
 11
204.425
 21
157.025
 31
0.0
  0
LINE
  5
6B4
330
1F
100
AcDbEntity
  8
PEN1
  6
LTY1
100
AcDbLine
 10
204.425
 20
157.025
 30
0.0
 11
204.525
 21
156.9
 31
0.0
  0
LINE
  5
6B5
330
1F
100
AcDbEntity
  8
PEN1
  6
LTY1
100
AcDbLine
 10
204.525
 20
156.9
 30
0.0
 11
204.525
 21
156.9
 31
0.0
  0
LINE
  5
6B6
330
1F
100
AcDbEntity
  8
PEN1
  6
LTY1
100
AcDbLine
 10
204.525
 20
156.9
 30
0.0
 11
204.625
 21
156.725
 31
0.0
  0
LINE
  5
6B7
330
1F
100
AcDbEntity
  8
PEN1
  6
LTY1
100
AcDbLine
 10
204.625
 20
156.725
 30
0.0
 11
204.625
 21
156.725
 31
0.0
  0
LINE
  5
6B8
330
1F
100
AcDbEntity
  8
PEN1
  6
LTY1
100
AcDbLine
 10
204.625
 20
156.725
 30
0.0
 11
204.7
 21
156.55
 31
0.0
  0
LINE
  5
6B9
330
1F
100
AcDbEntity
  8
PEN1
  6
LTY1
100
AcDbLine
 10
204.7
 20
156.55
 30
0.0
 11
204.7
 21
156.55
 31
0.0
  0
LINE
  5
6BA
330
1F
100
AcDbEntity
  8
PEN1
  6
LTY1
100
AcDbLine
 10
204.7
 20
156.55
 30
0.0
 11
204.75
 21
156.375
 31
0.0
  0
LINE
  5
6BB
330
1F
100
AcDbEntity
  8
PEN1
  6
LTY1
100
AcDbLine
 10
204.75
 20
156.375
 30
0.0
 11
204.75
 21
156.375
 31
0.0
  0
LINE
  5
6BC
330
1F
100
AcDbEntity
  8
PEN1
  6
LTY1
100
AcDbLine
 10
204.75
 20
156.375
 30
0.0
 11
204.775
 21
156.15
 31
0.0
  0
LINE
  5
6BD
330
1F
100
AcDbEntity
  8
PEN1
  6
LTY1
100
AcDbLine
 10
204.775
 20
156.15
 30
0.0
 11
204.775
 21
156.05
 31
0.0
  0
LINE
  5
6BE
330
1F
100
AcDbEntity
  8
PEN1
  6
LTY1
100
AcDbLine
 10
204.025
 20
115.4
 30
0.0
 11
204.025
 21
115.4
 31
0.0
  0
LINE
  5
6BF
330
1F
100
AcDbEntity
  8
PEN1
  6
LTY1
100
AcDbLine
 10
204.025
 20
115.4
 30
0.0
 11
204.125
 21
115.35
 31
0.0
  0
LINE
  5
6C0
330
1F
100
AcDbEntity
  8
PEN1
  6
LTY1
100
AcDbLine
 10
204.125
 20
115.35
 30
0.0
 11
204.125
 21
115.35
 31
0.0
  0
LINE
  5
6C1
330
1F
100
AcDbEntity
  8
PEN1
  6
LTY1
100
AcDbLine
 10
204.125
 20
115.35
 30
0.0
 11
204.225
 21
115.325
 31
0.0
  0
LINE
  5
6C2
330
1F
100
AcDbEntity
  8
PEN1
  6
LTY1
100
AcDbLine
 10
204.225
 20
115.325
 30
0.0
 11
204.225
 21
115.325
 31
0.0
  0
LINE
  5
6C3
330
1F
100
AcDbEntity
  8
PEN1
  6
LTY1
100
AcDbLine
 10
204.225
 20
115.325
 30
0.0
 11
204.325
 21
115.3
 31
0.0
  0
LINE
  5
6C4
330
1F
100
AcDbEntity
  8
PEN1
  6
LTY1
100
AcDbLine
 10
204.325
 20
115.3
 30
0.0
 11
204.325
 21
115.3
 31
0.0
  0
LINE
  5
6C5
330
1F
100
AcDbEntity
  8
PEN1
  6
LTY1
100
AcDbLine
 10
204.325
 20
115.3
 30
0.0
 11
204.4
 21
115.275
 31
0.0
  0
LINE
  5
6C6
330
1F
100
AcDbEntity
  8
PEN1
  6
LTY1
100
AcDbLine
 10
204.4
 20
115.275
 30
0.0
 11
204.425
 21
115.275
 31
0.0
  0
LINE
  5
6C7
330
1F
100
AcDbEntity
  8
PEN1
  6
LTY1
100
AcDbLine
 10
204.675
 20
115.275
 30
0.0
 11
204.675
 21
115.275
 31
0.0
  0
LINE
  5
6C8
330
1F
100
AcDbEntity
  8
PEN1
  6
LTY1
100
AcDbLine
 10
204.675
 20
115.275
 30
0.0
 11
204.7
 21
115.275
 31
0.0
  0
LINE
  5
6C9
330
1F
100
AcDbEntity
  8
PEN1
  6
LTY1
100
AcDbLine
 10
204.7
 20
115.275
 30
0.0
 11
204.7
 21
115.275
 31
0.0
  0
LINE
  5
6CA
330
1F
100
AcDbEntity
  8
PEN1
  6
LTY1
100
AcDbLine
 10
204.7
 20
115.275
 30
0.0
 11
204.725
 21
115.3
 31
0.0
  0
LINE
  5
6CB
330
1F
100
AcDbEntity
  8
PEN1
  6
LTY1
100
AcDbLine
 10
204.725
 20
115.3
 30
0.0
 11
204.725
 21
115.3
 31
0.0
  0
LINE
  5
6CC
330
1F
100
AcDbEntity
  8
PEN1
  6
LTY1
100
AcDbLine
 10
204.725
 20
115.3
 30
0.0
 11
204.75
 21
115.3
 31
0.0
  0
LINE
  5
6CD
330
1F
100
AcDbEntity
  8
PEN1
  6
LTY1
100
AcDbLine
 10
204.75
 20
115.3
 30
0.0
 11
204.75
 21
115.3
 31
0.0
  0
LINE
  5
6CE
330
1F
100
AcDbEntity
  8
PEN1
  6
LTY1
100
AcDbLine
 10
204.75
 20
115.3
 30
0.0
 11
204.75
 21
115.325
 31
0.0
  0
LINE
  5
6CF
330
1F
100
AcDbEntity
  8
PEN1
  6
LTY1
100
AcDbLine
 10
204.75
 20
115.325
 30
0.0
 11
204.75
 21
115.325
 31
0.0
  0
LINE
  5
6D0
330
1F
100
AcDbEntity
  8
PEN1
  6
LTY1
100
AcDbLine
 10
204.75
 20
115.325
 30
0.0
 11
204.75
 21
115.325
 31
0.0
  0
LINE
  5
6D1
330
1F
100
AcDbEntity
  8
PEN1
  6
LTY1
100
AcDbLine
 10
204.75
 20
115.325
 30
0.0
 11
204.75
 21
115.325
 31
0.0
  0
LINE
  5
6D2
330
1F
100
AcDbEntity
  8
PEN1
  6
LTY1
100
AcDbLine
 10
204.75
 20
115.325
 30
0.0
 11
204.775
 21
115.325
 31
0.0
  0
LINE
  5
6D3
330
1F
100
AcDbEntity
  8
PEN1
  6
LTY1
100
AcDbLine
 10
204.775
 20
115.325
 30
0.0
 11
204.775
 21
115.325
 31
0.0
  0
LINE
  5
6D4
330
1F
100
AcDbEntity
  8
PEN1
  6
LTY1
100
AcDbLine
 10
204.775
 20
115.325
 30
0.0
 11
204.775
 21
115.35
 31
0.0
  0
LINE
  5
6D5
330
1F
100
AcDbEntity
  8
PEN1
  6
LTY1
100
AcDbLine
 10
204.775
 20
115.35
 30
0.0
 11
204.775
 21
115.35
 31
0.0
  0
LINE
  5
6D6
330
1F
100
AcDbEntity
  8
PEN1
  6
LTY1
100
AcDbLine
 10
204.775
 20
115.35
 30
0.0
 11
204.775
 21
115.375
 31
0.0
  0
LINE
  5
6D7
330
1F
100
AcDbEntity
  8
PEN1
  6
LTY1
100
AcDbLine
 10
204.025
 20
120.925
 30
0.0
 11
204.025
 21
120.925
 31
0.0
  0
LINE
  5
6D8
330
1F
100
AcDbEntity
  8
PEN1
  6
LTY1
100
AcDbLine
 10
204.025
 20
120.925
 30
0.0
 11
204.225
 21
120.925
 31
0.0
  0
LINE
  5
6D9
330
1F
100
AcDbEntity
  8
PEN1
  6
LTY1
100
AcDbLine
 10
204.225
 20
120.925
 30
0.0
 11
204.225
 21
120.925
 31
0.0
  0
LINE
  5
6DA
330
1F
100
AcDbEntity
  8
PEN1
  6
LTY1
100
AcDbLine
 10
204.225
 20
120.925
 30
0.0
 11
204.425
 21
120.95
 31
0.0
  0
LINE
  5
6DB
330
1F
100
AcDbEntity
  8
PEN1
  6
LTY1
100
AcDbLine
 10
204.425
 20
120.95
 30
0.0
 11
204.425
 21
120.95
 31
0.0
  0
LINE
  5
6DC
330
1F
100
AcDbEntity
  8
PEN1
  6
LTY1
100
AcDbLine
 10
204.425
 20
120.95
 30
0.0
 11
204.525
 21
120.975
 31
0.0
  0
LINE
  5
6DD
330
1F
100
AcDbEntity
  8
PEN1
  6
LTY1
100
AcDbLine
 10
204.525
 20
120.975
 30
0.0
 11
204.525
 21
120.975
 31
0.0
  0
LINE
  5
6DE
330
1F
100
AcDbEntity
  8
PEN1
  6
LTY1
100
AcDbLine
 10
204.525
 20
120.975
 30
0.0
 11
204.625
 21
121.0
 31
0.0
  0
LINE
  5
6DF
330
1F
100
AcDbEntity
  8
PEN1
  6
LTY1
100
AcDbLine
 10
204.625
 20
121.0
 30
0.0
 11
204.625
 21
121.0
 31
0.0
  0
LINE
  5
6E0
330
1F
100
AcDbEntity
  8
PEN1
  6
LTY1
100
AcDbLine
 10
204.625
 20
121.0
 30
0.0
 11
204.7
 21
121.025
 31
0.0
  0
LINE
  5
6E1
330
1F
100
AcDbEntity
  8
PEN1
  6
LTY1
100
AcDbLine
 10
204.7
 20
121.025
 30
0.0
 11
204.7
 21
121.025
 31
0.0
  0
LINE
  5
6E2
330
1F
100
AcDbEntity
  8
PEN1
  6
LTY1
100
AcDbLine
 10
204.7
 20
121.025
 30
0.0
 11
204.75
 21
121.075
 31
0.0
  0
LINE
  5
6E3
330
1F
100
AcDbEntity
  8
PEN1
  6
LTY1
100
AcDbLine
 10
204.75
 20
121.075
 30
0.0
 11
204.75
 21
121.075
 31
0.0
  0
LINE
  5
6E4
330
1F
100
AcDbEntity
  8
PEN1
  6
LTY1
100
AcDbLine
 10
204.75
 20
121.075
 30
0.0
 11
204.775
 21
121.125
 31
0.0
  0
LINE
  5
6E5
330
1F
100
AcDbEntity
  8
PEN1
  6
LTY1
100
AcDbLine
 10
204.775
 20
121.125
 30
0.0
 11
204.775
 21
121.125
 31
0.0
  0
LINE
  5
6E6
330
1F
100
AcDbEntity
  8
PEN1
  6
LTY1
100
AcDbLine
 10
204.775
 20
121.125
 30
0.0
 11
204.775
 21
121.125
 31
0.0
  0
LINE
  5
6E7
330
1F
100
AcDbEntity
  8
PEN1
  6
LTY1
100
AcDbLine
 10
204.025
 20
122.65
 30
0.0
 11
204.025
 21
122.65
 31
0.0
  0
LINE
  5
6E8
330
1F
100
AcDbEntity
  8
PEN1
  6
LTY1
100
AcDbLine
 10
204.025
 20
122.65
 30
0.0
 11
204.1
 21
122.65
 31
0.0
  0
LINE
  5
6E9
330
1F
100
AcDbEntity
  8
PEN1
  6
LTY1
100
AcDbLine
 10
204.1
 20
122.65
 30
0.0
 11
204.1
 21
122.65
 31
0.0
  0
LINE
  5
6EA
330
1F
100
AcDbEntity
  8
PEN1
  6
LTY1
100
AcDbLine
 10
204.1
 20
122.65
 30
0.0
 11
204.175
 21
122.675
 31
0.0
  0
LINE
  5
6EB
330
1F
100
AcDbEntity
  8
PEN1
  6
LTY1
100
AcDbLine
 10
204.175
 20
122.675
 30
0.0
 11
204.175
 21
122.675
 31
0.0
  0
LINE
  5
6EC
330
1F
100
AcDbEntity
  8
PEN1
  6
LTY1
100
AcDbLine
 10
204.175
 20
122.675
 30
0.0
 11
204.3
 21
122.725
 31
0.0
  0
LINE
  5
6ED
330
1F
100
AcDbEntity
  8
PEN1
  6
LTY1
100
AcDbLine
 10
204.3
 20
122.725
 30
0.0
 11
204.3
 21
122.725
 31
0.0
  0
LINE
  5
6EE
330
1F
100
AcDbEntity
  8
PEN1
  6
LTY1
100
AcDbLine
 10
204.3
 20
122.725
 30
0.0
 11
204.425
 21
122.825
 31
0.0
  0
LINE
  5
6EF
330
1F
100
AcDbEntity
  8
PEN1
  6
LTY1
100
AcDbLine
 10
204.425
 20
122.825
 30
0.0
 11
204.425
 21
122.825
 31
0.0
  0
LINE
  5
6F0
330
1F
100
AcDbEntity
  8
PEN1
  6
LTY1
100
AcDbLine
 10
204.425
 20
122.825
 30
0.0
 11
204.55
 21
122.95
 31
0.0
  0
LINE
  5
6F1
330
1F
100
AcDbEntity
  8
PEN1
  6
LTY1
100
AcDbLine
 10
204.55
 20
122.95
 30
0.0
 11
204.55
 21
122.95
 31
0.0
  0
LINE
  5
6F2
330
1F
100
AcDbEntity
  8
PEN1
  6
LTY1
100
AcDbLine
 10
204.55
 20
122.95
 30
0.0
 11
204.625
 21
123.1
 31
0.0
  0
LINE
  5
6F3
330
1F
100
AcDbEntity
  8
PEN1
  6
LTY1
100
AcDbLine
 10
204.625
 20
123.1
 30
0.0
 11
204.625
 21
123.1
 31
0.0
  0
LINE
  5
6F4
330
1F
100
AcDbEntity
  8
PEN1
  6
LTY1
100
AcDbLine
 10
204.625
 20
123.1
 30
0.0
 11
204.7
 21
123.25
 31
0.0
  0
LINE
  5
6F5
330
1F
100
AcDbEntity
  8
PEN1
  6
LTY1
100
AcDbLine
 10
204.7
 20
123.25
 30
0.0
 11
204.7
 21
123.25
 31
0.0
  0
LINE
  5
6F6
330
1F
100
AcDbEntity
  8
PEN1
  6
LTY1
100
AcDbLine
 10
204.7
 20
123.25
 30
0.0
 11
204.75
 21
123.475
 31
0.0
  0
LINE
  5
6F7
330
1F
100
AcDbEntity
  8
PEN1
  6
LTY1
100
AcDbLine
 10
204.75
 20
123.475
 30
0.0
 11
204.75
 21
123.475
 31
0.0
  0
LINE
  5
6F8
330
1F
100
AcDbEntity
  8
PEN1
  6
LTY1
100
AcDbLine
 10
204.75
 20
123.475
 30
0.0
 11
204.775
 21
123.6
 31
0.0
  0
LINE
  5
6F9
330
1F
100
AcDbEntity
  8
PEN1
  6
LTY1
100
AcDbLine
 10
204.775
 20
123.6
 30
0.0
 11
204.775
 21
123.6
 31
0.0
  0
LINE
  5
6FA
330
1F
100
AcDbEntity
  8
PEN1
  6
LTY1
100
AcDbLine
 10
204.775
 20
123.6
 30
0.0
 11
204.775
 21
123.8
 31
0.0
  0
LINE
  5
6FB
330
1F
100
AcDbEntity
  8
PEN1
  6
LTY1
100
AcDbLine
 10
204.025
 20
122.7
 30
0.0
 11
204.025
 21
122.7
 31
0.0
  0
LINE
  5
6FC
330
1F
100
AcDbEntity
  8
PEN1
  6
LTY1
100
AcDbLine
 10
204.025
 20
122.7
 30
0.0
 11
204.1
 21
122.725
 31
0.0
  0
LINE
  5
6FD
330
1F
100
AcDbEntity
  8
PEN1
  6
LTY1
100
AcDbLine
 10
204.1
 20
122.725
 30
0.0
 11
204.1
 21
122.725
 31
0.0
  0
LINE
  5
6FE
330
1F
100
AcDbEntity
  8
PEN1
  6
LTY1
100
AcDbLine
 10
204.1
 20
122.725
 30
0.0
 11
204.225
 21
122.75
 31
0.0
  0
LINE
  5
6FF
330
1F
100
AcDbEntity
  8
PEN1
  6
LTY1
100
AcDbLine
 10
204.225
 20
122.75
 30
0.0
 11
204.225
 21
122.75
 31
0.0
  0
LINE
  5
700
330
1F
100
AcDbEntity
  8
PEN1
  6
LTY1
100
AcDbLine
 10
204.225
 20
122.75
 30
0.0
 11
204.325
 21
122.8
 31
0.0
  0
LINE
  5
701
330
1F
100
AcDbEntity
  8
PEN1
  6
LTY1
100
AcDbLine
 10
204.325
 20
122.8
 30
0.0
 11
204.325
 21
122.8
 31
0.0
  0
LINE
  5
702
330
1F
100
AcDbEntity
  8
PEN1
  6
LTY1
100
AcDbLine
 10
204.325
 20
122.8
 30
0.0
 11
204.425
 21
122.9
 31
0.0
  0
LINE
  5
703
330
1F
100
AcDbEntity
  8
PEN1
  6
LTY1
100
AcDbLine
 10
204.425
 20
122.9
 30
0.0
 11
204.425
 21
122.9
 31
0.0
  0
LINE
  5
704
330
1F
100
AcDbEntity
  8
PEN1
  6
LTY1
100
AcDbLine
 10
204.425
 20
122.9
 30
0.0
 11
204.525
 21
123.0
 31
0.0
  0
LINE
  5
705
330
1F
100
AcDbEntity
  8
PEN1
  6
LTY1
100
AcDbLine
 10
204.525
 20
123.0
 30
0.0
 11
204.525
 21
123.0
 31
0.0
  0
LINE
  5
706
330
1F
100
AcDbEntity
  8
PEN1
  6
LTY1
100
AcDbLine
 10
204.525
 20
123.0
 30
0.0
 11
204.625
 21
123.15
 31
0.0
  0
LINE
  5
707
330
1F
100
AcDbEntity
  8
PEN1
  6
LTY1
100
AcDbLine
 10
204.625
 20
123.15
 30
0.0
 11
204.625
 21
123.15
 31
0.0
  0
LINE
  5
708
330
1F
100
AcDbEntity
  8
PEN1
  6
LTY1
100
AcDbLine
 10
204.625
 20
123.15
 30
0.0
 11
204.7
 21
123.325
 31
0.0
  0
LINE
  5
709
330
1F
100
AcDbEntity
  8
PEN1
  6
LTY1
100
AcDbLine
 10
204.7
 20
123.325
 30
0.0
 11
204.7
 21
123.325
 31
0.0
  0
LINE
  5
70A
330
1F
100
AcDbEntity
  8
PEN1
  6
LTY1
100
AcDbLine
 10
204.7
 20
123.325
 30
0.0
 11
204.75
 21
123.525
 31
0.0
  0
LINE
  5
70B
330
1F
100
AcDbEntity
  8
PEN1
  6
LTY1
100
AcDbLine
 10
204.75
 20
123.525
 30
0.0
 11
204.75
 21
123.525
 31
0.0
  0
LINE
  5
70C
330
1F
100
AcDbEntity
  8
PEN1
  6
LTY1
100
AcDbLine
 10
204.75
 20
123.525
 30
0.0
 11
204.775
 21
123.725
 31
0.0
  0
LINE
  5
70D
330
1F
100
AcDbEntity
  8
PEN1
  6
LTY1
100
AcDbLine
 10
204.775
 20
123.725
 30
0.0
 11
204.775
 21
123.875
 31
0.0
  0
LINE
  5
70E
330
1F
100
AcDbEntity
  8
PEN1
  6
LTY1
100
AcDbLine
 10
196.775
 20
115.4
 30
0.0
 11
196.775
 21
115.4
 31
0.0
  0
LINE
  5
70F
330
1F
100
AcDbEntity
  8
PEN1
  6
LTY1
100
AcDbLine
 10
196.775
 20
115.4
 30
0.0
 11
196.675
 21
115.35
 31
0.0
  0
LINE
  5
710
330
1F
100
AcDbEntity
  8
PEN1
  6
LTY1
100
AcDbLine
 10
196.675
 20
115.35
 30
0.0
 11
196.675
 21
115.35
 31
0.0
  0
LINE
  5
711
330
1F
100
AcDbEntity
  8
PEN1
  6
LTY1
100
AcDbLine
 10
196.675
 20
115.35
 30
0.0
 11
196.575
 21
115.325
 31
0.0
  0
LINE
  5
712
330
1F
100
AcDbEntity
  8
PEN1
  6
LTY1
100
AcDbLine
 10
196.575
 20
115.325
 30
0.0
 11
196.575
 21
115.325
 31
0.0
  0
LINE
  5
713
330
1F
100
AcDbEntity
  8
PEN1
  6
LTY1
100
AcDbLine
 10
196.575
 20
115.325
 30
0.0
 11
196.5
 21
115.3
 31
0.0
  0
LINE
  5
714
330
1F
100
AcDbEntity
  8
PEN1
  6
LTY1
100
AcDbLine
 10
196.5
 20
115.3
 30
0.0
 11
196.5
 21
115.3
 31
0.0
  0
LINE
  5
715
330
1F
100
AcDbEntity
  8
PEN1
  6
LTY1
100
AcDbLine
 10
196.5
 20
115.3
 30
0.0
 11
196.425
 21
115.275
 31
0.0
  0
LINE
  5
716
330
1F
100
AcDbEntity
  8
PEN1
  6
LTY1
100
AcDbLine
 10
196.425
 20
115.275
 30
0.0
 11
196.375
 21
115.275
 31
0.0
  0
LINE
  5
717
330
1F
100
AcDbEntity
  8
PEN1
  6
LTY1
100
AcDbLine
 10
196.125
 20
115.275
 30
0.0
 11
196.125
 21
115.275
 31
0.0
  0
LINE
  5
718
330
1F
100
AcDbEntity
  8
PEN1
  6
LTY1
100
AcDbLine
 10
196.125
 20
115.275
 30
0.0
 11
196.1
 21
115.275
 31
0.0
  0
LINE
  5
719
330
1F
100
AcDbEntity
  8
PEN1
  6
LTY1
100
AcDbLine
 10
196.1
 20
115.275
 30
0.0
 11
196.1
 21
115.275
 31
0.0
  0
LINE
  5
71A
330
1F
100
AcDbEntity
  8
PEN1
  6
LTY1
100
AcDbLine
 10
196.1
 20
115.275
 30
0.0
 11
196.075
 21
115.3
 31
0.0
  0
LINE
  5
71B
330
1F
100
AcDbEntity
  8
PEN1
  6
LTY1
100
AcDbLine
 10
196.075
 20
115.3
 30
0.0
 11
196.075
 21
115.3
 31
0.0
  0
LINE
  5
71C
330
1F
100
AcDbEntity
  8
PEN1
  6
LTY1
100
AcDbLine
 10
196.075
 20
115.3
 30
0.0
 11
196.075
 21
115.3
 31
0.0
  0
LINE
  5
71D
330
1F
100
AcDbEntity
  8
PEN1
  6
LTY1
100
AcDbLine
 10
196.075
 20
115.3
 30
0.0
 11
196.075
 21
115.3
 31
0.0
  0
LINE
  5
71E
330
1F
100
AcDbEntity
  8
PEN1
  6
LTY1
100
AcDbLine
 10
196.075
 20
115.3
 30
0.0
 11
196.05
 21
115.325
 31
0.0
  0
LINE
  5
71F
330
1F
100
AcDbEntity
  8
PEN1
  6
LTY1
100
AcDbLine
 10
196.05
 20
115.325
 30
0.0
 11
196.05
 21
115.325
 31
0.0
  0
LINE
  5
720
330
1F
100
AcDbEntity
  8
PEN1
  6
LTY1
100
AcDbLine
 10
196.05
 20
115.325
 30
0.0
 11
196.05
 21
115.325
 31
0.0
  0
LINE
  5
721
330
1F
100
AcDbEntity
  8
PEN1
  6
LTY1
100
AcDbLine
 10
196.05
 20
115.325
 30
0.0
 11
196.05
 21
115.325
 31
0.0
  0
LINE
  5
722
330
1F
100
AcDbEntity
  8
PEN1
  6
LTY1
100
AcDbLine
 10
196.05
 20
115.325
 30
0.0
 11
196.05
 21
115.325
 31
0.0
  0
LINE
  5
723
330
1F
100
AcDbEntity
  8
PEN1
  6
LTY1
100
AcDbLine
 10
196.05
 20
115.325
 30
0.0
 11
196.05
 21
115.325
 31
0.0
  0
LINE
  5
724
330
1F
100
AcDbEntity
  8
PEN1
  6
LTY1
100
AcDbLine
 10
196.05
 20
115.325
 30
0.0
 11
196.025
 21
115.35
 31
0.0
  0
LINE
  5
725
330
1F
100
AcDbEntity
  8
PEN1
  6
LTY1
100
AcDbLine
 10
196.025
 20
115.35
 30
0.0
 11
196.025
 21
115.35
 31
0.0
  0
LINE
  5
726
330
1F
100
AcDbEntity
  8
PEN1
  6
LTY1
100
AcDbLine
 10
196.025
 20
115.35
 30
0.0
 11
196.025
 21
115.375
 31
0.0
  0
LINE
  5
727
330
1F
100
AcDbEntity
  8
PEN1
  6
LTY1
100
AcDbLine
 10
196.775
 20
120.925
 30
0.0
 11
196.775
 21
120.925
 31
0.0
  0
LINE
  5
728
330
1F
100
AcDbEntity
  8
PEN1
  6
LTY1
100
AcDbLine
 10
196.775
 20
120.925
 30
0.0
 11
196.575
 21
120.925
 31
0.0
  0
LINE
  5
729
330
1F
100
AcDbEntity
  8
PEN1
  6
LTY1
100
AcDbLine
 10
196.575
 20
120.925
 30
0.0
 11
196.575
 21
120.925
 31
0.0
  0
LINE
  5
72A
330
1F
100
AcDbEntity
  8
PEN1
  6
LTY1
100
AcDbLine
 10
196.575
 20
120.925
 30
0.0
 11
196.375
 21
120.95
 31
0.0
  0
LINE
  5
72B
330
1F
100
AcDbEntity
  8
PEN1
  6
LTY1
100
AcDbLine
 10
196.375
 20
120.95
 30
0.0
 11
196.375
 21
120.95
 31
0.0
  0
LINE
  5
72C
330
1F
100
AcDbEntity
  8
PEN1
  6
LTY1
100
AcDbLine
 10
196.375
 20
120.95
 30
0.0
 11
196.3
 21
120.975
 31
0.0
  0
LINE
  5
72D
330
1F
100
AcDbEntity
  8
PEN1
  6
LTY1
100
AcDbLine
 10
196.3
 20
120.975
 30
0.0
 11
196.3
 21
120.975
 31
0.0
  0
LINE
  5
72E
330
1F
100
AcDbEntity
  8
PEN1
  6
LTY1
100
AcDbLine
 10
196.3
 20
120.975
 30
0.0
 11
196.2
 21
121.0
 31
0.0
  0
LINE
  5
72F
330
1F
100
AcDbEntity
  8
PEN1
  6
LTY1
100
AcDbLine
 10
196.2
 20
121.0
 30
0.0
 11
196.2
 21
121.0
 31
0.0
  0
LINE
  5
730
330
1F
100
AcDbEntity
  8
PEN1
  6
LTY1
100
AcDbLine
 10
196.2
 20
121.0
 30
0.0
 11
196.125
 21
121.025
 31
0.0
  0
LINE
  5
731
330
1F
100
AcDbEntity
  8
PEN1
  6
LTY1
100
AcDbLine
 10
196.125
 20
121.025
 30
0.0
 11
196.125
 21
121.025
 31
0.0
  0
LINE
  5
732
330
1F
100
AcDbEntity
  8
PEN1
  6
LTY1
100
AcDbLine
 10
196.125
 20
121.025
 30
0.0
 11
196.05
 21
121.075
 31
0.0
  0
LINE
  5
733
330
1F
100
AcDbEntity
  8
PEN1
  6
LTY1
100
AcDbLine
 10
196.05
 20
121.075
 30
0.0
 11
196.05
 21
121.075
 31
0.0
  0
LINE
  5
734
330
1F
100
AcDbEntity
  8
PEN1
  6
LTY1
100
AcDbLine
 10
196.05
 20
121.075
 30
0.0
 11
196.05
 21
121.125
 31
0.0
  0
LINE
  5
735
330
1F
100
AcDbEntity
  8
PEN1
  6
LTY1
100
AcDbLine
 10
196.05
 20
121.125
 30
0.0
 11
196.05
 21
121.125
 31
0.0
  0
LINE
  5
736
330
1F
100
AcDbEntity
  8
PEN1
  6
LTY1
100
AcDbLine
 10
196.05
 20
121.125
 30
0.0
 11
196.025
 21
121.125
 31
0.0
  0
LINE
  5
737
330
1F
100
AcDbEntity
  8
PEN1
  6
LTY1
100
AcDbLine
 10
196.775
 20
122.65
 30
0.0
 11
196.775
 21
122.65
 31
0.0
  0
LINE
  5
738
330
1F
100
AcDbEntity
  8
PEN1
  6
LTY1
100
AcDbLine
 10
196.775
 20
122.65
 30
0.0
 11
196.7
 21
122.65
 31
0.0
  0
LINE
  5
739
330
1F
100
AcDbEntity
  8
PEN1
  6
LTY1
100
AcDbLine
 10
196.7
 20
122.65
 30
0.0
 11
196.7
 21
122.65
 31
0.0
  0
LINE
  5
73A
330
1F
100
AcDbEntity
  8
PEN1
  6
LTY1
100
AcDbLine
 10
196.7
 20
122.65
 30
0.0
 11
196.625
 21
122.675
 31
0.0
  0
LINE
  5
73B
330
1F
100
AcDbEntity
  8
PEN1
  6
LTY1
100
AcDbLine
 10
196.625
 20
122.675
 30
0.0
 11
196.625
 21
122.675
 31
0.0
  0
LINE
  5
73C
330
1F
100
AcDbEntity
  8
PEN1
  6
LTY1
100
AcDbLine
 10
196.625
 20
122.675
 30
0.0
 11
196.5
 21
122.725
 31
0.0
  0
LINE
  5
73D
330
1F
100
AcDbEntity
  8
PEN1
  6
LTY1
100
AcDbLine
 10
196.5
 20
122.725
 30
0.0
 11
196.5
 21
122.725
 31
0.0
  0
LINE
  5
73E
330
1F
100
AcDbEntity
  8
PEN1
  6
LTY1
100
AcDbLine
 10
196.5
 20
122.725
 30
0.0
 11
196.375
 21
122.825
 31
0.0
  0
LINE
  5
73F
330
1F
100
AcDbEntity
  8
PEN1
  6
LTY1
100
AcDbLine
 10
196.375
 20
122.825
 30
0.0
 11
196.375
 21
122.825
 31
0.0
  0
LINE
  5
740
330
1F
100
AcDbEntity
  8
PEN1
  6
LTY1
100
AcDbLine
 10
196.375
 20
122.825
 30
0.0
 11
196.275
 21
122.95
 31
0.0
  0
LINE
  5
741
330
1F
100
AcDbEntity
  8
PEN1
  6
LTY1
100
AcDbLine
 10
196.275
 20
122.95
 30
0.0
 11
196.275
 21
122.95
 31
0.0
  0
LINE
  5
742
330
1F
100
AcDbEntity
  8
PEN1
  6
LTY1
100
AcDbLine
 10
196.275
 20
122.95
 30
0.0
 11
196.175
 21
123.1
 31
0.0
  0
LINE
  5
743
330
1F
100
AcDbEntity
  8
PEN1
  6
LTY1
100
AcDbLine
 10
196.175
 20
123.1
 30
0.0
 11
196.175
 21
123.1
 31
0.0
  0
LINE
  5
744
330
1F
100
AcDbEntity
  8
PEN1
  6
LTY1
100
AcDbLine
 10
196.175
 20
123.1
 30
0.0
 11
196.125
 21
123.25
 31
0.0
  0
LINE
  5
745
330
1F
100
AcDbEntity
  8
PEN1
  6
LTY1
100
AcDbLine
 10
196.125
 20
123.25
 30
0.0
 11
196.125
 21
123.25
 31
0.0
  0
LINE
  5
746
330
1F
100
AcDbEntity
  8
PEN1
  6
LTY1
100
AcDbLine
 10
196.125
 20
123.25
 30
0.0
 11
196.05
 21
123.475
 31
0.0
  0
LINE
  5
747
330
1F
100
AcDbEntity
  8
PEN1
  6
LTY1
100
AcDbLine
 10
196.05
 20
123.475
 30
0.0
 11
196.05
 21
123.475
 31
0.0
  0
LINE
  5
748
330
1F
100
AcDbEntity
  8
PEN1
  6
LTY1
100
AcDbLine
 10
196.05
 20
123.475
 30
0.0
 11
196.05
 21
123.6
 31
0.0
  0
LINE
  5
749
330
1F
100
AcDbEntity
  8
PEN1
  6
LTY1
100
AcDbLine
 10
196.05
 20
123.6
 30
0.0
 11
196.05
 21
123.6
 31
0.0
  0
LINE
  5
74A
330
1F
100
AcDbEntity
  8
PEN1
  6
LTY1
100
AcDbLine
 10
196.05
 20
123.6
 30
0.0
 11
196.025
 21
123.8
 31
0.0
  0
LINE
  5
74B
330
1F
100
AcDbEntity
  8
PEN1
  6
LTY1
100
AcDbLine
 10
196.775
 20
122.7
 30
0.0
 11
196.775
 21
122.7
 31
0.0
  0
LINE
  5
74C
330
1F
100
AcDbEntity
  8
PEN1
  6
LTY1
100
AcDbLine
 10
196.775
 20
122.7
 30
0.0
 11
196.7
 21
122.725
 31
0.0
  0
LINE
  5
74D
330
1F
100
AcDbEntity
  8
PEN1
  6
LTY1
100
AcDbLine
 10
196.7
 20
122.725
 30
0.0
 11
196.7
 21
122.725
 31
0.0
  0
LINE
  5
74E
330
1F
100
AcDbEntity
  8
PEN1
  6
LTY1
100
AcDbLine
 10
196.7
 20
122.725
 30
0.0
 11
196.575
 21
122.75
 31
0.0
  0
LINE
  5
74F
330
1F
100
AcDbEntity
  8
PEN1
  6
LTY1
100
AcDbLine
 10
196.575
 20
122.75
 30
0.0
 11
196.575
 21
122.75
 31
0.0
  0
LINE
  5
750
330
1F
100
AcDbEntity
  8
PEN1
  6
LTY1
100
AcDbLine
 10
196.575
 20
122.75
 30
0.0
 11
196.475
 21
122.8
 31
0.0
  0
LINE
  5
751
330
1F
100
AcDbEntity
  8
PEN1
  6
LTY1
100
AcDbLine
 10
196.475
 20
122.8
 30
0.0
 11
196.475
 21
122.8
 31
0.0
  0
LINE
  5
752
330
1F
100
AcDbEntity
  8
PEN1
  6
LTY1
100
AcDbLine
 10
196.475
 20
122.8
 30
0.0
 11
196.375
 21
122.9
 31
0.0
  0
LINE
  5
753
330
1F
100
AcDbEntity
  8
PEN1
  6
LTY1
100
AcDbLine
 10
196.375
 20
122.9
 30
0.0
 11
196.375
 21
122.9
 31
0.0
  0
LINE
  5
754
330
1F
100
AcDbEntity
  8
PEN1
  6
LTY1
100
AcDbLine
 10
196.375
 20
122.9
 30
0.0
 11
196.275
 21
123.0
 31
0.0
  0
LINE
  5
755
330
1F
100
AcDbEntity
  8
PEN1
  6
LTY1
100
AcDbLine
 10
196.275
 20
123.0
 30
0.0
 11
196.275
 21
123.0
 31
0.0
  0
LINE
  5
756
330
1F
100
AcDbEntity
  8
PEN1
  6
LTY1
100
AcDbLine
 10
196.275
 20
123.0
 30
0.0
 11
196.175
 21
123.15
 31
0.0
  0
LINE
  5
757
330
1F
100
AcDbEntity
  8
PEN1
  6
LTY1
100
AcDbLine
 10
196.175
 20
123.15
 30
0.0
 11
196.175
 21
123.15
 31
0.0
  0
LINE
  5
758
330
1F
100
AcDbEntity
  8
PEN1
  6
LTY1
100
AcDbLine
 10
196.175
 20
123.15
 30
0.0
 11
196.125
 21
123.325
 31
0.0
  0
LINE
  5
759
330
1F
100
AcDbEntity
  8
PEN1
  6
LTY1
100
AcDbLine
 10
196.125
 20
123.325
 30
0.0
 11
196.125
 21
123.325
 31
0.0
  0
LINE
  5
75A
330
1F
100
AcDbEntity
  8
PEN1
  6
LTY1
100
AcDbLine
 10
196.125
 20
123.325
 30
0.0
 11
196.05
 21
123.525
 31
0.0
  0
LINE
  5
75B
330
1F
100
AcDbEntity
  8
PEN1
  6
LTY1
100
AcDbLine
 10
196.05
 20
123.525
 30
0.0
 11
196.05
 21
123.525
 31
0.0
  0
LINE
  5
75C
330
1F
100
AcDbEntity
  8
PEN1
  6
LTY1
100
AcDbLine
 10
196.05
 20
123.525
 30
0.0
 11
196.05
 21
123.725
 31
0.0
  0
LINE
  5
75D
330
1F
100
AcDbEntity
  8
PEN1
  6
LTY1
100
AcDbLine
 10
196.05
 20
123.725
 30
0.0
 11
196.025
 21
123.875
 31
0.0
  0
ENDSEC
  0
SECTION
  2
OBJECTS
  0
DICTIONARY
  5
C
330
0
100
AcDbDictionary
281
     1
  3
ACAD_COLOR
350
6C
  3
ACAD_GROUP
350
D
  3
ACAD_LAYOUT
350
1A
  3
ACAD_MATERIAL
350
6B
  3
ACAD_MLEADERSTYLE
350
781
  3
ACAD_MLINESTYLE
350
17
  3
ACAD_PLOTSETTINGS
350
19
  3
ACAD_PLOTSTYLENAME
350
E
  3
ACAD_TABLESTYLE
350
92
  3
AcDbVariableDictionary
350
59
  0
DICTIONARY
  5
6C
102
{ACAD_REACTORS
330
C
102
}
330
C
100
AcDbDictionary
281
     1
  0
DICTIONARY
  5
D
102
{ACAD_REACTORS
330
C
102
}
330
C
100
AcDbDictionary
281
     1
  0
DICTIONARY
  5
1A
102
{ACAD_REACTORS
330
C
102
}
330
C
100
AcDbDictionary
281
     1
  3
Layout1
350
74
  3
Model
350
22
  0
DICTIONARY
  5
6B
102
{ACAD_REACTORS
330
C
102
}
330
C
100
AcDbDictionary
281
     1
  0
DICTIONARY
  5
781
102
{ACAD_REACTORS
330
C
102
}
330
C
100
AcDbDictionary
281
     1
  0
DICTIONARY
  5
17
102
{ACAD_REACTORS
330
C
102
}
330
C
100
AcDbDictionary
281
     1
  3
Standard
350
18
  0
DICTIONARY
  5
19
102
{ACAD_REACTORS
330
C
102
}
330
C
100
AcDbDictionary
281
     1
  0
ACDBDICTIONARYWDFLT
  5
E
102
{ACAD_REACTORS
330
C
102
}
330
C
100
AcDbDictionary
281
     1
  3
Normal
350
F
100
AcDbDictionaryWithDefault
340
F
  0
DICTIONARY
  5
92
102
{ACAD_REACTORS
330
C
102
}
330
C
100
AcDbDictionary
281
     1
  3
Standard
350
93
  0
DICTIONARY
  5
59
102
{ACAD_REACTORS
330
C
102
}
330
C
100
AcDbDictionary
281
     1
  3
CTABLESTYLE
350
98
  3
DIMASSOC
350
4DB
  3
HIDETEXT
350
5E
  0
LAYOUT
  5
74
102
{ACAD_REACTORS
330
1A
102
}
330
1A
100
AcDbPlotSettings
  1

  2
none_device
  4
ISO_C5_(229.00_x_162.00_MM)
  6

 40
0.0
 41
0.0
 42
0.0
 43
0.0
 44
229.0
 45
162.0
 46
0.0
 47
0.0
 48
0.0
 49
0.0
140
0.0
141
0.0
142
1.0
143
1.0
 70
   688
 72
     1
 73
     0
 74
     5
  7

 75
    16
 76
     0
 77
     2
 78
   300
147
1.0
148
0.0
149
0.0
100
AcDbLayout
  1
Layout1
 70
     1
 71
     1
 10
0.0
 20
0.0
 11
12.0
 21
9.0
 12
0.0
 22
0.0
 32
0.0
 14
1.000000000000000E+20
 24
1.000000000000000E+20
 34
1.000000000000000E+20
 15
-1.000000000000000E+20
 25
-1.000000000000000E+20
 35
-1.000000000000000E+20
146
0.0
 13
0.0
 23
0.0
 33
0.0
 16
1.0
 26
0.0
 36
0.0
 17
0.0
 27
1.0
 37
0.0
 76
     0
330
73
  0
LAYOUT
  5
22
102
{ACAD_REACTORS
330
1A
102
}
330
1A
100
AcDbPlotSettings
  1

  2
none_device
  4
ISO_C5_(229.00_x_162.00_MM)
  6

 40
0.0
 41
0.0
 42
0.0
 43
0.0
 44
229.0
 45
162.0
 46
0.0
 47
0.0
 48
0.0
 49
0.0
140
0.0
141
0.0
142
1.0
143
0.4824207314841921
 70
 11952
 72
     1
 73
     0
 74
     0
  7

 75
     0
 76
     0
 77
     2
 78
   300
147
2.072879407407407
148
0.0
149
0.0
100
AcDbLayout
  1
Model
 70
     1
 71
     0
 10
0.0
 20
0.0
 11
400.0
 21
270.0
 12
0.0
 22
0.0
 32
0.0
 14
0.0
 24
-1.155
 34
0.0
 15
400.825
 25
270.0
 35
0.0
146
0.0
 13
0.0
 23
0.0
 33
0.0
 16
1.0
 26
0.0
 36
0.0
 17
0.0
 27
1.0
 37
0.0
 76
     0
330
1F
331
97
  0
MLINESTYLE
  5
18
102
{ACAD_REACTORS
330
17
102
}
330
17
100
AcDbMlineStyle
  2
Standard
 70
     0
  3

 62
   256
 51
90.0
 52
90.0
 71
     2
 49
0.5
 62
   256
  6
BYLAYER
 49
-0.5
 62
   256
  6
BYLAYER
  0
ACDBPLACEHOLDER
  5
F
102
{ACAD_REACTORS
330
E
102
}
330
E
  0
TABLESTYLE
  5
93
102
{ACAD_REACTORS
330
92
102
}
330
92
100
AcDbTableStyle
  3
Standard
 70
     0
 71
     0
 40
0.06
 41
0.06
280
     0
281
     0
  7
Standard
140
0.18
170
     2
 62
     0
 63
     7
283
     0
 90
      512
 91
        0
  1

274
    -2
284
     1
 64
     0
275
    -2
285
     1
 65
     0
276
    -2
286
     1
 66
     0
277
    -2
287
     1
 67
     0
278
    -2
288
     1
 68
     0
279
    -2
289
     1
 69
     0
  7
Standard
140
0.25
170
     5
 62
     0
 63
     7
283
     0
 90
      512
 91
        0
  1

274
    -2
284
     1
 64
     0
275
    -2
285
     1
 65
     0
276
    -2
286
     1
 66
     0
277
    -2
287
     1
 67
     0
278
    -2
288
     1
 68
     0
279
    -2
289
     1
 69
     0
  7
Standard
140
0.18
170
     5
 62
     0
 63
     7
283
     0
 90
      512
 91
        0
  1

274
    -2
284
     1
 64
     0
275
    -2
285
     1
 65
     0
276
    -2
286
     1
 66
     0
277
    -2
287
     1
 67
     0
278
    -2
288
     1
 68
     0
279
    -2
289
     1
 69
     0
  0
DICTIONARYVAR
  5
98
102
{ACAD_REACTORS
330
59
102
}
330
59
100
DictionaryVariables
280
     0
  1
Standard
  0
DICTIONARYVAR
  5
4DB
102
{ACAD_REACTORS
330
59
102
}
330
59
100
DictionaryVariables
280
     0
  1
2
  0
DICTIONARYVAR
  5
5E
102
{ACAD_REACTORS
330
59
102
}
330
59
100
DictionaryVariables
280
     0
  1
1
  0
ENDSEC
  0
EOF
