  0
SECTION
  2
HEADER
  9
$ACADVER
  1
AC1021
  9
$ACADMAINTVER
 70
    25
  9
$DWGCODEPAGE
  3
ANSI_1252
  9
$LASTSAVEDBY
  1
fottrem
  9
$INSBASE
 10
0.0
 20
0.0
 30
0.0
  9
$EXTMIN
 10
0.0
 20
-1.155
 30
0.0
  9
$EXTMAX
 10
400.825
 20
270.0
 30
0.0
  9
$LIMMIN
 10
0.0
 20
0.0
  9
$LIMMAX
 10
400.0
 20
270.0
  9
$ORTHOMODE
 70
     0
  9
$REGENMODE
 70
     1
  9
$FILLMODE
 70
     1
  9
$QTEXTMODE
 70
     0
  9
$MIRRTEXT
 70
     1
  9
$LTSCALE
 40
1.0
  9
$ATTMODE
 70
     1
  9
$TEXTSIZE
 40
0.2
  9
$TRACEWID
 40
0.05
  9
$TEXTSTYLE
  7
NORMSCHRIFT
  9
$CLAYER
  8
0
  9
$CELTYPE
  6
ByBlock
  9
$CECOLOR
 62
   256
  9
$CELTSCALE
 40
1.0
  9
$DISPSILH
 70
     0
  9
$DIMSCALE
 40
1.0
  9
$DIMASZ
 40
0.18
  9
$DIMEXO
 40
0.0625
  9
$DIMDLI
 40
0.38
  9
$DIMRND
 40
0.0
  9
$DIMDLE
 40
0.0
  9
$DIMEXE
 40
0.18
  9
$DIMTP
 40
0.0
  9
$DIMTM
 40
0.0
  9
$DIMTXT
 40
0.18
  9
$DIMCEN
 40
0.09
  9
$DIMTSZ
 40
0.0
  9
$DIMTOL
 70
     0
  9
$DIMLIM
 70
     0
  9
$DIMTIH
 70
     1
  9
$DIMTOH
 70
     1
  9
$DIMSE1
 70
     0
  9
$DIMSE2
 70
     0
  9
$DIMTAD
 70
     0
  9
$DIMZIN
 70
     0
  9
$DIMBLK
  1

  9
$DIMASO
 70
     1
  9
$DIMSHO
 70
     1
  9
$DIMPOST
  1

  9
$DIMAPOST
  1

  9
$DIMALT
 70
     0
  9
$DIMALTD
 70
     2
  9
$DIMALTF
 40
25.4
  9
$DIMLFAC
 40
1.0
  9
$DIMTOFL
 70
     0
  9
$DIMTVP
 40
0.0
  9
$DIMTIX
 70
     0
  9
$DIMSOXD
 70
     0
  9
$DIMSAH
 70
     0
  9
$DIMBLK1
  1

  9
$DIMBLK2
  1

  9
$DIMSTYLE
  2
Standard
  9
$DIMCLRD
 70
     0
  9
$DIMCLRE
 70
     0
  9
$DIMCLRT
 70
     0
  9
$DIMTFAC
 40
1.0
  9
$DIMGAP
 40
0.09
  9
$DIMJUST
 70
     0
  9
$DIMSD1
 70
     0
  9
$DIMSD2
 70
     0
  9
$DIMTOLJ
 70
     1
  9
$DIMTZIN
 70
     0
  9
$DIMALTZ
 70
     0
  9
$DIMALTTZ
 70
     0
  9
$DIMUPT
 70
     0
  9
$DIMDEC
 70
     4
  9
$DIMTDEC
 70
     4
  9
$DIMALTU
 70
     2
  9
$DIMALTTD
 70
     2
  9
$DIMTXSTY
  7
Standard
  9
$DIMAUNIT
 70
     0
  9
$DIMADEC
 70
     0
  9
$DIMALTRND
 40
0.0
  9
$DIMAZIN
 70
     0
  9
$DIMDSEP
 70
    46
  9
$DIMATFIT
 70
     3
  9
$DIMFRAC
 70
     0
  9
$DIMLDRBLK
  1

  9
$DIMLUNIT
 70
     2
  9
$DIMLWD
 70
    -2
  9
$DIMLWE
 70
    -2
  9
$DIMTMOVE
 70
     2
  9
$DIMFXL
 40
1.0
  9
$DIMFXLON
 70
     0
  9
$DIMJOGANG
 40
0.7853981633974483
  9
$DIMTFILL
 70
     0
  9
$DIMTFILLCLR
 70
     0
  9
$DIMARCSYM
 70
     0
  9
$DIMLTYPE
  6

  9
$DIMLTEX1
  6

  9
$DIMLTEX2
  6

  9
$LUNITS
 70
     2
  9
$LUPREC
 70
     4
  9
$SKETCHINC
 40
0.1
  9
$FILLETRAD
 40
0.5
  9
$AUNITS
 70
     0
  9
$AUPREC
 70
     0
  9
$MENU
  1
.
  9
$ELEVATION
 40
0.0
  9
$PELEVATION
 40
0.0
  9
$THICKNESS
 40
0.0
  9
$LIMCHECK
 70
     0
  9
$CHAMFERA
 40
0.5
  9
$CHAMFERB
 40
0.5
  9
$CHAMFERC
 40
1.0
  9
$CHAMFERD
 40
0.0
  9
$SKPOLY
 70
     0
  9
$TDCREATE
 40
2453353.800459155
  9
$TDUCREATE
 40
2453353.717125822
  9
$TDUPDATE
 40
2455307.591048634
  9
$TDUUPDATE
 40
2455307.507715301
  9
$TDINDWG
 40
0.042569456
  9
$TDUSRTIMER
 40
0.0425578819
  9
$USRTIMER
 70
     1
  9
$ANGBASE
 50
0.0
  9
$ANGDIR
 70
     0
  9
$PDMODE
 70
     0
  9
$PDSIZE
 40
0.0
  9
$PLINEWID
 40
0.0
  9
$SPLFRAME
 70
     0
  9
$SPLINETYPE
 70
     6
  9
$SPLINESEGS
 70
     8
  9
$HANDSEED
  5
6B0
  9
$SURFTAB1
 70
     6
  9
$SURFTAB2
 70
     6
  9
$SURFTYPE
 70
     6
  9
$SURFU
 70
     6
  9
$SURFV
 70
     6
  9
$UCSBASE
  2

  9
$UCSNAME
  2

  9
$UCSORG
 10
0.0
 20
0.0
 30
0.0
  9
$UCSXDIR
 10
1.0
 20
0.0
 30
0.0
  9
$UCSYDIR
 10
0.0
 20
1.0
 30
0.0
  9
$UCSORTHOREF
  2

  9
$UCSORTHOVIEW
 70
     0
  9
$UCSORGTOP
 10
0.0
 20
0.0
 30
0.0
  9
$UCSORGBOTTOM
 10
0.0
 20
0.0
 30
0.0
  9
$UCSORGLEFT
 10
0.0
 20
0.0
 30
0.0
  9
$UCSORGRIGHT
 10
0.0
 20
0.0
 30
0.0
  9
$UCSORGFRONT
 10
0.0
 20
0.0
 30
0.0
  9
$UCSORGBACK
 10
0.0
 20
0.0
 30
0.0
  9
$PUCSBASE
  2

  9
$PUCSNAME
  2

  9
$PUCSORG
 10
0.0
 20
0.0
 30
0.0
  9
$PUCSXDIR
 10
1.0
 20
0.0
 30
0.0
  9
$PUCSYDIR
 10
0.0
 20
1.0
 30
0.0
  9
$PUCSORTHOREF
  2

  9
$PUCSORTHOVIEW
 70
     0
  9
$PUCSORGTOP
 10
0.0
 20
0.0
 30
0.0
  9
$PUCSORGBOTTOM
 10
0.0
 20
0.0
 30
0.0
  9
$PUCSORGLEFT
 10
0.0
 20
0.0
 30
0.0
  9
$PUCSORGRIGHT
 10
0.0
 20
0.0
 30
0.0
  9
$PUCSORGFRONT
 10
0.0
 20
0.0
 30
0.0
  9
$PUCSORGBACK
 10
0.0
 20
0.0
 30
0.0
  9
$USERI1
 70
     0
  9
$USERI2
 70
     0
  9
$USERI3
 70
     0
  9
$USERI4
 70
     0
  9
$USERI5
 70
     0
  9
$USERR1
 40
0.0
  9
$USERR2
 40
0.0
  9
$USERR3
 40
0.0
  9
$USERR4
 40
0.0
  9
$USERR5
 40
0.0
  9
$WORLDVIEW
 70
     1
  9
$SHADEDGE
 70
     3
  9
$SHADEDIF
 70
    70
  9
$TILEMODE
 70
     1
  9
$MAXACTVP
 70
    64
  9
$PINSBASE
 10
0.0
 20
0.0
 30
0.0
  9
$PLIMCHECK
 70
     0
  9
$PEXTMIN
 10
1.000000000000000E+20
 20
1.000000000000000E+20
 30
1.000000000000000E+20
  9
$PEXTMAX
 10
-1.000000000000000E+20
 20
-1.000000000000000E+20
 30
-1.000000000000000E+20
  9
$PLIMMIN
 10
0.0
 20
0.0
  9
$PLIMMAX
 10
12.0
 20
9.0
  9
$UNITMODE
 70
     0
  9
$VISRETAIN
 70
     1
  9
$PLINEGEN
 70
     0
  9
$PSLTSCALE
 70
     1
  9
$TREEDEPTH
 70
  3020
  9
$CMLSTYLE
  2
Standard
  9
$CMLJUST
 70
     0
  9
$CMLSCALE
 40
1.0
  9
$PROXYGRAPHICS
 70
     1
  9
$MEASUREMENT
 70
     0
  9
$CELWEIGHT
370
    -1
  9
$ENDCAPS
280
     0
  9
$JOINSTYLE
280
     0
  9
$LWDISPLAY
290
     0
  9
$INSUNITS
 70
     0
  9
$HYPERLINKBASE
  1

  9
$STYLESHEET
  1

  9
$XEDIT
290
     0
  9
$CEPSNTYPE
380
     0
  9
$PSTYLEMODE
290
     1
  9
$FINGERPRINTGUID
  2
{54A9BFE9-AA20-4558-BFF0-51428AF8EFC5}
  9
$VERSIONGUID
  2
{FAEB1C32-E019-11D5-929B-00C0DF256EC4}
  9
$EXTNAMES
290
     1
  9
$PSVPSCALE
 40
0.0
  9
$OLESTARTUP
290
     0
  9
$SORTENTS
280
   127
  9
$INDEXCTL
280
     0
  9
$HIDETEXT
280
     1
  9
$XCLIPFRAME
290
     0
  9
$HALOGAP
280
     0
  9
$OBSCOLOR
 70
   257
  9
$OBSLTYPE
280
     0
  9
$INTERSECTIONDISPLAY
280
     0
  9
$INTERSECTIONCOLOR
 70
   257
  9
$DIMASSOC
280
     2
  9
$PROJECTNAME
  1

  9
$CAMERADISPLAY
290
     0
  9
$LENSLENGTH
 40
50.0
  9
$CAMERAHEIGHT
 40
0.0
  9
$STEPSPERSEC
 40
2.0
  9
$STEPSIZE
 40
6.0
  9
$3DDWFPREC
 40
2.0
  9
$PSOLWIDTH
 40
0.25
  9
$PSOLHEIGHT
 40
4.0
  9
$LOFTANG1
 40
1.570796326794897
  9
$LOFTANG2
 40
1.570796326794897
  9
$LOFTMAG1
 40
0.0
  9
$LOFTMAG2
 40
0.0
  9
$LOFTPARAM
 70
     7
  9
$LOFTNORMALS
280
     1
  9
$LATITUDE
 40
37.795
  9
$LONGITUDE
 40
-122.394
  9
$NORTHDIRECTION
 40
0.0
  9
$TIMEZONE
 70
 -8000
  9
$LIGHTGLYPHDISPLAY
280
     1
  9
$TILEMODELIGHTSYNCH
280
     1
  9
$SOLIDHIST
280
     1
  9
$SHOWHIST
280
     1
  9
$DWFFRAME
280
     2
  9
$DGNFRAME
280
     2
  9
$REALWORLDSCALE
290
     1
  9
$INTERFERECOLOR
 62
   256
  9
$CSHADOW
280
     0
  9
$SHADOWPLANELOCATION
 40
0.0
  0
ENDSEC
  0
SECTION
  2
CLASSES
  0
CLASS
  1
ACDBDICTIONARYWDFLT
  2
AcDbDictionaryWithDefault
  3
ObjectDBX Classes
 90
        0
 91
        3
280
     0
281
     0
  0
CLASS
  1
ACDBPLACEHOLDER
  2
AcDbPlaceHolder
  3
ObjectDBX Classes
 90
        0
 91
        1
280
     0
281
     0
  0
CLASS
  1
LAYOUT
  2
AcDbLayout
  3
ObjectDBX Classes
 90
        0
 91
        1
280
     0
281
     0
  0
CLASS
  1
DICTIONARYVAR
  2
AcDbDictionaryVar
  3
ObjectDBX Classes
 90
        0
 91
        3
280
     0
281
     0
  0
CLASS
  1
TABLESTYLE
  2
AcDbTableStyle
  3
ObjectDBX Classes
 90
     4095
 91
        3
280
     0
281
     0
  0
ENDSEC
  0
SECTION
  2
TABLES
  0
TABLE
  2
VPORT
  5
8
330
0
100
AcDbSymbolTable
 70
     2
  0
VPORT
  5
97
330
8
100
AcDbSymbolTableRecord
100
AcDbViewportTableRecord
  2
*ACTIVE
 70
     0
 10
0.0
 20
0.0
 11
1.0
 21
1.0
 12
199.1501168224299
 22
131.7143691588785
 13
0.0
 23
0.0
 14
1.0
 24
1.0
 15
0.0
 25
0.0
 16
0.0
 26
0.0
 36
1.0
 17
0.0
 27
0.0
 37
0.0
 40
150.6696428571429
 41
1.481
 42
50.0
 43
0.0
 44
0.0
 50
0.0
 51
0.0
 71
    16
 72
   100
 73
     1
 74
     1
 75
     0
 76
     0
 77
     0
 78
     0
281
     0
 65
     0
110
0.0
120
0.0
130
0.0
111
1.0
121
0.0
131
0.0
112
0.0
122
1.0
132
0.0
 79
     0
146
0.0
 60
     3
 61
     5
292
     1
282
     1
141
0.0
142
0.0
 63
   256
  0
ENDTAB
  0
TABLE
  2
LTYPE
  5
5
330
0
100
AcDbSymbolTable
 70
    10
  0
LTYPE
  5
14
330
5
100
AcDbSymbolTableRecord
100
AcDbLinetypeTableRecord
  2
ByBlock
 70
     0
  3

 72
    65
 73
     0
 40
0.0
  0
LTYPE
  5
15
330
5
100
AcDbSymbolTableRecord
100
AcDbLinetypeTableRecord
  2
ByLayer
 70
     0
  3

 72
    65
 73
     0
 40
0.0
  0
LTYPE
  5
16
330
5
100
AcDbSymbolTableRecord
100
AcDbLinetypeTableRecord
  2
Continuous
 70
     0
  3
Solid line
 72
    65
 73
     0
 40
0.0
  0
LTYPE
  5
692
330
5
100
AcDbSymbolTableRecord
100
AcDbLinetypeTableRecord
  2
LTY0
 70
     0
  3
unsichtbar
 72
    65
 73
     0
 40
0.0
  0
LTYPE
  5
693
330
5
100
AcDbSymbolTableRecord
100
AcDbLinetypeTableRecord
  2
LTY1
 70
     0
  3
________________________________
 72
    65
 73
     0
 40
0.0
  0
LTYPE
  5
694
330
5
100
AcDbSymbolTableRecord
100
AcDbLinetypeTableRecord
  2
LTY2
 70
     0
  3
. . . . . . . . . . . . . . . . .
 72
    65
 73
     2
 40
2.0
 49
0.5
 74
     4
 75
     0
340
0
 46
1.0
 50
0.0
 44
0.0
 45
0.0
 49
-1.5
 74
     4
 75
     0
340
0
 46
1.0
 50
0.0
 44
0.0
 45
0.0
  0
LTYPE
  5
695
330
5
100
AcDbSymbolTableRecord
100
AcDbLinetypeTableRecord
  2
LTY3
 70
     0
  3
_ _ _ _ _ _ _ _ _ _ _ _ _ _ _ _ _
 72
    65
 73
     2
 40
3.0
 49
1.5
 74
     4
 75
     0
340
0
 46
1.0
 50
0.0
 44
0.0
 45
0.0
 49
-1.5
 74
     4
 75
     0
340
0
 46
1.0
 50
0.0
 44
0.0
 45
0.0
  0
LTYPE
  5
696
330
5
100
AcDbSymbolTableRecord
100
AcDbLinetypeTableRecord
  2
LTY4
 70
     0
  3
__  __  __  __  __  __  __  __  __
 72
    65
 73
     2
 40
6.0
 49
3.0
 74
     4
 75
     0
340
0
 46
1.0
 50
0.0
 44
0.0
 45
0.0
 49
-3.0
 74
     4
 75
     0
340
0
 46
1.0
 50
0.0
 44
0.0
 45
0.0
  0
LTYPE
  5
697
330
5
100
AcDbSymbolTableRecord
100
AcDbLinetypeTableRecord
  2
LTY5
 70
     0
  3
____  ____  ____  ____  ____  ____
 72
    65
 73
     2
 40
11.5
 49
8.0
 74
     4
 75
     0
340
0
 46
1.0
 50
0.0
 44
0.0
 45
0.0
 49
-3.5
 74
     4
 75
     0
340
0
 46
1.0
 50
0.0
 44
0.0
 45
0.0
  0
LTYPE
  5
698
330
5
100
AcDbSymbolTableRecord
100
AcDbLinetypeTableRecord
  2
LTY6
 70
     0
  3
____  __  ____  __  ____  __  ____
 72
    65
 73
     4
 40
17.5
 49
11.5
 74
     4
 75
     0
340
0
 46
1.0
 50
0.0
 44
0.0
 45
0.0
 49
-2.0
 74
     4
 75
     0
340
0
 46
1.0
 50
0.0
 44
0.0
 45
0.0
 49
2.0
 74
     4
 75
     0
340
0
 46
1.0
 50
0.0
 44
0.0
 45
0.0
 49
-2.0
 74
     4
 75
     0
340
0
 46
1.0
 50
0.0
 44
0.0
 45
0.0
  0
LTYPE
  5
699
330
5
100
AcDbSymbolTableRecord
100
AcDbLinetypeTableRecord
  2
LTY7
 70
     0
  3
___ . ___ . ___ . ___ . ___ . ___
 72
    65
 73
     4
 40
15.0
 49
11.0
 74
     4
 75
     0
340
0
 46
1.0
 50
0.0
 44
0.0
 45
0.0
 49
-2.0
 74
     4
 75
     0
340
0
 46
1.0
 50
0.0
 44
0.0
 45
0.0
 49
0.0
 74
     4
 75
     0
340
0
 46
1.0
 50
0.0
 44
0.0
 45
0.0
 49
-2.0
 74
     4
 75
     0
340
0
 46
1.0
 50
0.0
 44
0.0
 45
0.0
  0
LTYPE
  5
69A
330
5
100
AcDbSymbolTableRecord
100
AcDbLinetypeTableRecord
  2
LTY8
 70
     0
  3
___ _ _ ___ _ _ ___ _ _ ___ _ _ ___
 72
    65
 73
     6
 40
16.5
 49
7.5
 74
     4
 75
     0
340
0
 46
1.0
 50
0.0
 44
0.0
 45
0.0
 49
-2.0
 74
     4
 75
     0
340
0
 46
1.0
 50
0.0
 44
0.0
 45
0.0
 49
1.5
 74
     4
 75
     0
340
0
 46
1.0
 50
0.0
 44
0.0
 45
0.0
 49
-2.0
 74
     4
 75
     0
340
0
 46
1.0
 50
0.0
 44
0.0
 45
0.0
 49
1.5
 74
     4
 75
     0
340
0
 46
1.0
 50
0.0
 44
0.0
 45
0.0
 49
-2.0
 74
     4
 75
     0
340
0
 46
1.0
 50
0.0
 44
0.0
 45
0.0
  0
ENDTAB
  0
TABLE
  2
LAYER
  5
2
330
0
100
AcDbSymbolTable
 70
    10
  0
LAYER
  5
10
330
2
100
AcDbSymbolTableRecord
100
AcDbLayerTableRecord
  2
0
 70
     0
 62
     7
  6
Continuous
370
    -3
390
F
347
0
  0
LAYER
  5
2D
330
2
100
AcDbSymbolTableRecord
100
AcDbLayerTableRecord
  2
PEN1
 70
     0
 62
     7
  6
LTY1
370
    -3
390
F
347
0
  0
LAYER
  5
2E
330
2
100
AcDbSymbolTableRecord
100
AcDbLayerTableRecord
  2
PEN2
 70
     0
 62
     7
  6
LTY1
370
    -3
390
F
347
0
  0
LAYER
  5
2F
330
2
100
AcDbSymbolTableRecord
100
AcDbLayerTableRecord
  2
PEN3
 70
     0
 62
     7
  6
LTY1
370
    -3
390
F
347
0
  0
LAYER
  5
30
330
2
100
AcDbSymbolTableRecord
100
AcDbLayerTableRecord
  2
PEN4
 70
     0
 62
     7
  6
LTY1
370
    -3
390
F
347
0
  0
LAYER
  5
31
330
2
100
AcDbSymbolTableRecord
100
AcDbLayerTableRecord
  2
PEN5
 70
     0
 62
     7
  6
LTY1
370
    -3
390
F
347
0
  0
LAYER
  5
32
330
2
100
AcDbSymbolTableRecord
100
AcDbLayerTableRecord
  2
PEN6
 70
     0
 62
     7
  6
LTY1
370
    -3
390
F
347
0
  0
LAYER
  5
33
330
2
100
AcDbSymbolTableRecord
100
AcDbLayerTableRecord
  2
SF
 70
     0
 62
     7
  6
LTY1
370
    -3
390
F
347
0
  0
LAYER
  5
34
330
2
100
AcDbSymbolTableRecord
100
AcDbLayerTableRecord
  2
SYMBOL
 70
     0
 62
     7
  6
LTY1
370
    -3
390
F
347
0
  0
LAYER
  5
35
330
2
100
AcDbSymbolTableRecord
100
AcDbLayerTableRecord
  2
GRAFIK
 70
     0
 62
     7
  6
LTY1
370
    -3
390
F
347
0
  0
ENDTAB
  0
TABLE
  2
STYLE
  5
3
330
0
100
AcDbSymbolTable
 70
     5
  0
STYLE
  5
11
330
3
100
AcDbSymbolTableRecord
100
AcDbTextStyleTableRecord
  2
Standard
 70
     0
 40
0.0
 41
1.0
 50
0.0
 71
     0
 42
0.2
  3
txt
  4

  0
STYLE
  5
68F
330
3
100
AcDbSymbolTableRecord
100
AcDbTextStyleTableRecord
  2
NORMSCHRIFT
 70
     0
 40
0.0
 41
1.0
 50
0.0
 71
     0
 42
3.5
  3
normwin
  4

  0
STYLE
  5
690
330
3
100
AcDbSymbolTableRecord
100
AcDbTextStyleTableRecord
  2
GREEK
 70
     0
 40
0.0
 41
1.0
 50
0.0
 71
     0
 42
3.5
  3
norm_gr
  4

  0
STYLE
  5
691
330
3
100
AcDbSymbolTableRecord
100
AcDbTextStyleTableRecord
  2
CYRILLIC
 70
     0
 40
0.0
 41
1.0
 50
0.0
 71
     0
 42
3.5
  3
norm_cy
  4

  0
STYLE
  5
23
330
3
100
AcDbSymbolTableRecord
100
AcDbTextStyleTableRecord
  2
CYRILLIC_KBD
 70
     0
 40
0.0
 41
1.0
 50
0.0
 71
     0
 42
3.5
  3
norm_cy_kbd
  4

  0
ENDTAB
  0
TABLE
  2
VIEW
  5
6
330
0
100
AcDbSymbolTable
 70
     0
  0
ENDTAB
  0
TABLE
  2
UCS
  5
7
330
0
100
AcDbSymbolTable
 70
     0
  0
ENDTAB
  0
TABLE
  2
APPID
  5
9
330
0
100
AcDbSymbolTable
 70
     1
  0
APPID
  5
12
330
9
100
AcDbSymbolTableRecord
100
AcDbRegAppTableRecord
  2
ACAD
 70
     0
  0
ENDTAB
  0
TABLE
  2
DIMSTYLE
  5
A
330
0
100
AcDbSymbolTable
 70
     1
100
AcDbDimStyleTable
  0
DIMSTYLE
105
27
330
A
100
AcDbSymbolTableRecord
100
AcDbDimStyleTableRecord
  2
Standard
 70
     0
340
11
  0
ENDTAB
  0
TABLE
  2
BLOCK_RECORD
  5
1
330
0
100
AcDbSymbolTable
 70
     3
  0
BLOCK_RECORD
  5
1F
330
1
100
AcDbSymbolTableRecord
100
AcDbBlockTableRecord
  2
*Model_Space
340
22
 70
     0
280
     1
281
     0
  0
BLOCK_RECORD
  5
73
330
1
100
AcDbSymbolTableRecord
100
AcDbBlockTableRecord
  2
*Paper_Space
340
74
 70
     0
280
     1
281
     0
  0
BLOCK_RECORD
  5
39
330
1
100
AcDbSymbolTableRecord
100
AcDbBlockTableRecord
  2
SF_KORA7_00
340
0
102
{BLKREFS
331
422
102
}
 70
     0
280
     1
281
     0
  0
BLOCK_RECORD
  5
B8
330
1
100
AcDbSymbolTableRecord
100
AcDbBlockTableRecord
  2
K7-9195-8_B
340
0
 70
     0
280
     1
281
     0
  0
BLOCK_RECORD
  5
2D7
330
1
100
AcDbSymbolTableRecord
100
AcDbBlockTableRecord
  2
STAHL94
340
0
102
{BLKREFS
331
6A9
102
}
 70
     0
280
     1
281
     0
  0
ENDTAB
  0
ENDSEC
  0
SECTION
  2
BLOCKS
  0
BLOCK
  5
20
330
1F
100
AcDbEntity
  8
0
100
AcDbBlockBegin
  2
*Model_Space
 70
     0
 10
0.0
 20
0.0
 30
0.0
  3
*Model_Space
  1

  0
ENDBLK
  5
21
330
1F
100
AcDbEntity
  8
0
100
AcDbBlockEnd
  0
BLOCK
  5
75
330
73
100
AcDbEntity
 67
     1
  8
0
100
AcDbBlockBegin
  2
*Paper_Space
 70
     0
 10
0.0
 20
0.0
 30
0.0
  3
*Paper_Space
  1

  0
ENDBLK
  5
76
330
73
100
AcDbEntity
 67
     1
  8
0
100
AcDbBlockEnd
  0
BLOCK
  5
69B
330
39
100
AcDbEntity
  8
0
100
AcDbBlockBegin
  2
SF_KORA7_00
 70
     2
 10
0.0
 20
0.0
 30
0.0
  3
SF_KORA7_00
  1

  0
LINE
  5
3A
330
39
100
AcDbEntity
  8
PEN3
  6
LTY1
100
AcDbLine
 10
395.0
 20
0.0
 30
0.0
 11
0.0
 21
0.0
 31
0.0
  0
LINE
  5
3B
330
39
100
AcDbEntity
  8
PEN3
  6
LTY1
100
AcDbLine
 10
0.0
 20
0.0
 30
0.0
 11
0.0
 21
270.0
 31
0.0
  0
LINE
  5
3C
330
39
100
AcDbEntity
  8
PEN3
  6
LTY1
100
AcDbLine
 10
0.0
 20
270.0
 30
0.0
 11
395.0
 21
270.0
 31
0.0
  0
LINE
  5
3D
330
39
100
AcDbEntity
  8
PEN3
  6
LTY1
100
AcDbLine
 10
395.0
 20
270.0
 30
0.0
 11
395.0
 21
0.0
 31
0.0
  0
LINE
  5
3E
330
39
100
AcDbEntity
  8
PEN3
  6
LTY1
100
AcDbLine
 10
395.0
 20
20.0
 30
0.0
 11
0.0
 21
20.0
 31
0.0
  0
LINE
  5
3F
330
39
100
AcDbEntity
  8
PEN1
  6
LTY1
100
AcDbLine
 10
106.0
 20
20.0
 30
0.0
 11
106.0
 21
0.0
 31
0.0
  0
LINE
  5
40
330
39
100
AcDbEntity
  8
PEN2
  6
LTY1
100
AcDbLine
 10
83.0
 20
0.0
 30
0.0
 11
83.0
 21
20.0
 31
0.0
  0
LINE
  5
41
330
39
100
AcDbEntity
  8
PEN2
  6
LTY1
100
AcDbLine
 10
62.0
 20
20.0
 30
0.0
 11
62.0
 21
0.0
 31
0.0
  0
LINE
  5
42
330
39
100
AcDbEntity
  8
PEN2
  6
LTY1
100
AcDbLine
 10
52.0
 20
0.0
 30
0.0
 11
52.0
 21
20.0
 31
0.0
  0
LINE
  5
43
330
39
100
AcDbEntity
  8
PEN2
  6
LTY1
100
AcDbLine
 10
37.5
 20
20.0
 30
0.0
 11
37.5
 21
0.0
 31
0.0
  0
LINE
  5
44
330
39
100
AcDbEntity
  8
PEN2
  6
LTY1
100
AcDbLine
 10
3.0
 20
0.0
 30
0.0
 11
3.0
 21
20.0
 31
0.0
  0
LINE
  5
45
330
39
100
AcDbEntity
  8
PEN2
  6
LTY1
100
AcDbLine
 10
0.0
 20
15.0
 30
0.0
 11
106.0
 21
15.0
 31
0.0
  0
LINE
  5
46
330
39
100
AcDbEntity
  8
PEN2
  6
LTY1
100
AcDbLine
 10
106.0
 20
10.0
 30
0.0
 11
0.0
 21
10.0
 31
0.0
  0
LINE
  5
47
330
39
100
AcDbEntity
  8
PEN2
  6
LTY1
100
AcDbLine
 10
0.0
 20
5.0
 30
0.0
 11
185.5
 21
5.0
 31
0.0
  0
LINE
  5
48
330
39
100
AcDbEntity
  8
PEN1
  6
LTY1
100
AcDbLine
 10
185.5
 20
0.0
 30
0.0
 11
185.5
 21
20.0
 31
0.0
  0
LINE
  5
49
330
39
100
AcDbEntity
  8
PEN1
  6
LTY1
100
AcDbLine
 10
205.0
 20
0.0
 30
0.0
 11
205.0
 21
20.0
 31
0.0
  0
LINE
  5
4A
330
39
100
AcDbEntity
  8
PEN1
  6
LTY1
100
AcDbLine
 10
287.5
 20
20.0
 30
0.0
 11
287.5
 21
0.0
 31
0.0
  0
LINE
  5
4B
330
39
100
AcDbEntity
  8
PEN1
  6
LTY1
100
AcDbLine
 10
395.0
 20
10.0
 30
0.0
 11
287.5
 21
10.0
 31
0.0
  0
LINE
  5
4C
330
39
100
AcDbEntity
  8
PEN1
  6
LTY1
100
AcDbLine
 10
367.5
 20
5.0
 30
0.0
 11
395.0
 21
5.0
 31
0.0
  0
TEXT
  5
4D
330
39
100
AcDbEntity
  8
PEN4
100
AcDbText
 10
4.2
 20
0.5
 30
0.0
 40
2.0
  1
Änderung / REV.
  7
NORMSCHRIFT
100
AcDbText
  0
TEXT
  5
4E
330
39
100
AcDbEntity
  8
PEN4
100
AcDbText
 10
38.7
 20
0.5
 30
0.0
 40
2.0
  1
Dat.
  7
NORMSCHRIFT
100
AcDbText
  0
TEXT
  5
4F
330
39
100
AcDbEntity
  8
PEN4
100
AcDbText
 10
63.2
 20
15.0
 30
0.0
 40
2.0
  1
Datum/Date
  7
NORMSCHRIFT
100
AcDbText
  0
TEXT
  5
50
330
39
100
AcDbEntity
  8
PEN4
100
AcDbText
 10
62.7
 20
5.0
 30
0.0
 40
2.0
  1
Bearb./Engineer
  7
NORMSCHRIFT
100
AcDbText
  0
TEXT
  5
51
330
39
100
AcDbEntity
  8
PEN4
100
AcDbText
 10
63.2
 20
0.5
 30
0.0
 40
2.0
  1
Gepr./Checked
  7
NORMSCHRIFT
100
AcDbText
  0
TEXT
  5
52
330
39
100
AcDbEntity
  8
PEN4
100
AcDbText
 10
53.2
 20
0.5
 30
0.0
 40
2.0
  1
Name
  7
NORMSCHRIFT
100
AcDbText
  0
TEXT
  5
53
330
39
100
AcDbEntity
  8
PEN4
100
AcDbText
 10
106.7
 20
15.5
 30
0.0
 40
2.0
  1
Auftrag Nr./Order No.
  7
NORMSCHRIFT
100
AcDbText
  0
LINE
  5
54
330
39
100
AcDbEntity
  8
PEN1
  6
LTY1
100
AcDbLine
 10
367.5
 20
0.0
 30
0.0
 11
367.5
 21
10.0
 31
0.0
  0
LINE
  5
55
330
39
100
AcDbEntity
  8
PEN1
  6
LTY1
100
AcDbLine
 10
347.5
 20
10.0
 30
0.0
 11
347.5
 21
20.0
 31
0.0
  0
TEXT
  5
56
330
39
100
AcDbEntity
  8
PEN4
100
AcDbText
 10
288.7
 20
6.0
 30
0.0
 40
2.0
  1
Zeichnungs Nr./DRG No.
  7
NORMSCHRIFT
100
AcDbText
  0
TEXT
  5
57
330
39
100
AcDbEntity
  8
PEN2
100
AcDbText
 10
368.25
 20
5.0
 30
0.0
 40
2.5
  1
Blatt/Sheet
  7
NORMSCHRIFT
100
AcDbText
  0
TEXT
  5
58
330
39
100
AcDbEntity
  8
PEN2
100
AcDbText
 10
370.75
 20
0.0
 30
0.0
 40
2.5
  1
von/of
  7
NORMSCHRIFT
100
AcDbText
  0
LINE
  5
6A1
330
39
100
AcDbEntity
  8
PEN2
  6
LTY1
100
AcDbLine
 10
6.0
 20
265.0
 30
0.0
 11
387.0
 21
265.0
 31
0.0
  0
TEXT
  5
6A2
330
39
100
AcDbEntity
  8
PEN4
100
AcDbText
 10
23.0
 20
265.5
 30
0.0
 40
2.0
  1
C0
  7
NORMSCHRIFT
 72
     1
 11
24.5
 21
265.5
 31
0.0
100
AcDbText
  0
LINE
  5
5B
330
39
100
AcDbEntity
  8
PEN2
  6
LTY1
100
AcDbLine
 10
6.0
 20
265.0
 30
0.0
 11
6.0
 21
28.0
 31
0.0
  0
TEXT
  5
5C
330
39
100
AcDbEntity
  8
PEN4
100
AcDbText
 10
0.5
 20
208.0
 30
0.0
 40
2.0
  1
A30
  7
NORMSCHRIFT
 72
     1
 11
3.0
 21
208.0
 31
0.0
100
AcDbText
  0
TEXT
  5
5D
330
39
100
AcDbEntity
  8
PEN4
100
AcDbText
 10
0.5
 20
243.0
 30
0.0
 40
2.0
  1
A20
  7
NORMSCHRIFT
 72
     1
 11
3.0
 21
243.0
 31
0.0
100
AcDbText
  0
TEXT
  5
6A3
330
39
100
AcDbEntity
  8
PEN4
100
AcDbText
 10
0.5
 20
173.0
 30
0.0
 40
2.0
  1
A40
  7
NORMSCHRIFT
 72
     1
 11
3.0
 21
173.0
 31
0.0
100
AcDbText
  0
TEXT
  5
5F
330
39
100
AcDbEntity
  8
PEN4
100
AcDbText
 10
0.5
 20
138.0
 30
0.0
 40
2.0
  1
A50
  7
NORMSCHRIFT
 72
     1
 11
3.0
 21
138.0
 31
0.0
100
AcDbText
  0
TEXT
  5
60
330
39
100
AcDbEntity
  8
PEN4
100
AcDbText
 10
0.5
 20
103.0
 30
0.0
 40
2.0
  1
A60
  7
NORMSCHRIFT
 72
     1
 11
3.0
 21
103.0
 31
0.0
100
AcDbText
  0
TEXT
  5
61
330
39
100
AcDbEntity
  8
PEN4
100
AcDbText
 10
0.5
 20
68.0
 30
0.0
 40
2.0
  1
A70
  7
NORMSCHRIFT
 72
     1
 11
3.0
 21
68.0
 31
0.0
100
AcDbText
  0
TEXT
  5
62
330
39
100
AcDbEntity
  8
PEN4
100
AcDbText
 10
0.5
 20
33.0
 30
0.0
 40
2.0
  1
A80
  7
NORMSCHRIFT
 72
     1
 11
3.0
 21
33.0
 31
0.0
100
AcDbText
  0
TEXT
  5
63
330
39
100
AcDbEntity
  8
PEN4
100
AcDbText
 10
57.33
 20
265.5
 30
0.0
 40
2.0
  1
C10
  7
NORMSCHRIFT
 72
     1
 11
59.5
 21
265.5
 31
0.0
100
AcDbText
  0
TEXT
  5
64
330
39
100
AcDbEntity
  8
PEN4
100
AcDbText
 10
92.0
 20
265.5
 30
0.0
 40
2.0
  1
C20
  7
NORMSCHRIFT
 72
     1
 11
94.5
 21
265.5
 31
0.0
100
AcDbText
  0
TEXT
  5
65
330
39
100
AcDbEntity
  8
PEN4
100
AcDbText
 10
127.0
 20
265.5
 30
0.0
 40
2.0
  1
C30
  7
NORMSCHRIFT
 72
     1
 11
129.5
 21
265.5
 31
0.0
100
AcDbText
  0
TEXT
  5
66
330
39
100
AcDbEntity
  8
PEN4
100
AcDbText
 10
162.0
 20
265.5
 30
0.0
 40
2.0
  1
C40
  7
NORMSCHRIFT
 72
     1
 11
164.5
 21
265.5
 31
0.0
100
AcDbText
  0
TEXT
  5
67
330
39
100
AcDbEntity
  8
PEN4
100
AcDbText
 10
197.0
 20
265.5
 30
0.0
 40
2.0
  1
C50
  7
NORMSCHRIFT
 72
     1
 11
199.5
 21
265.5
 31
0.0
100
AcDbText
  0
LINE
  5
68
330
39
100
AcDbEntity
  8
PEN2
  6
LTY1
100
AcDbLine
 10
6.0
 20
28.0
 30
0.0
 11
6.0
 21
20.0
 31
0.0
  0
LINE
  5
69
330
39
100
AcDbEntity
  8
PEN2
  6
LTY1
100
AcDbLine
 10
6.0
 20
265.0
 30
0.0
 11
6.0
 21
265.0
 31
0.0
  0
LINE
  5
6A
330
39
100
AcDbEntity
  8
PEN2
  6
LTY1
100
AcDbLine
 10
6.0
 20
265.0
 30
0.0
 11
6.0
 21
265.0
 31
0.0
  0
LINE
  5
6A4
330
39
100
AcDbEntity
  8
PEN2
  6
LTY1
100
AcDbLine
 10
395.0
 20
265.0
 30
0.0
 11
387.0
 21
265.0
 31
0.0
  0
TEXT
  5
6A5
330
39
100
AcDbEntity
  8
PEN4
100
AcDbText
 10
232.0
 20
265.5
 30
0.0
 40
2.0
  1
C60
  7
NORMSCHRIFT
 72
     1
 11
234.5
 21
265.5
 31
0.0
100
AcDbText
  0
TEXT
  5
6D
330
39
100
AcDbEntity
  8
PEN4
100
AcDbText
 10
267.0
 20
265.5
 30
0.0
 40
2.0
  1
C70
  7
NORMSCHRIFT
 72
     1
 11
269.5
 21
265.5
 31
0.0
100
AcDbText
  0
TEXT
  5
6E
330
39
100
AcDbEntity
  8
PEN4
100
AcDbText
 10
302.0
 20
265.5
 30
0.0
 40
2.0
  1
C80
  7
NORMSCHRIFT
 72
     1
 11
304.5
 21
265.5
 31
0.0
100
AcDbText
  0
TEXT
  5
6F
330
39
100
AcDbEntity
  8
PEN4
100
AcDbText
 10
337.0
 20
265.5
 30
0.0
 40
2.0
  1
C90
  7
NORMSCHRIFT
 72
     1
 11
339.5
 21
265.5
 31
0.0
100
AcDbText
  0
TEXT
  5
70
330
39
100
AcDbEntity
  8
PEN4
100
AcDbText
 10
371.5
 20
265.5
 30
0.0
 40
2.0
  1
C100
  7
NORMSCHRIFT
 72
     1
 11
374.5
 21
265.5
 31
0.0
100
AcDbText
  0
LINE
  5
71
330
39
100
AcDbEntity
  8
PEN2
  6
LTY1
100
AcDbLine
 10
6.0
 20
265.0
 30
0.0
 11
0.0
 21
270.0
 31
0.0
  0
TEXT
  5
72
330
39
100
AcDbEntity
  8
PEN4
100
AcDbText
 10
63.2
 20
10.0
 30
0.0
 40
2.0
  1
Erstellt/Drawn
  7
NORMSCHRIFT
100
AcDbText
  0
TEXT
  5
6A6
330
39
100
AcDbEntity
  8
PEN4
100
AcDbText
 10
288.7
 20
15.0
 30
0.0
 40
2.0
  1
Einbauort/Gehäuse
  7
NORMSCHRIFT
100
AcDbText
  0
TEXT
  5
6A7
330
39
100
AcDbEntity
  8
PEN4
100
AcDbText
 10
288.7
 20
11.0
 30
0.0
 40
2.0
  1
Location/Enclosure
  7
NORMSCHRIFT
100
AcDbText
  0
TEXT
  5
6A8
330
39
100
AcDbEntity
  8
PEN4
100
AcDbText
 10
328.0
 20
6.0
 30
0.0
 40
2.0
  1
Grp.
  7
NORMSCHRIFT
 72
     1
 11
331.0
 21
6.0
 31
0.0
100
AcDbText
  0
INSERT
  5
6A9
330
39
100
AcDbEntity
  8
SYMBOL
100
AcDbBlockReference
  2
STAHL94
 10
185.5
 20
0.2
 30
0.0
 41
1.07
 42
1.07
  0
ATTDEF
  5
77
330
39
100
AcDbEntity
  8
PEN1
100
AcDbText
 10
289.35
 20
0.0
 30
0.0
 40
3.5
  1

  7
NORMSCHRIFT
100
AcDbAttributeDefinition
  3
Zeichn-Nr.   Anlage
  2
CODE_60
 70
     8
280
     0
  0
ATTDEF
  5
78
330
39
100
AcDbEntity
  8
PEN1
100
AcDbText
 10
289.35
 20
0.0
 30
0.0
 40
3.5
  1

  7
NORMSCHRIFT
100
AcDbAttributeDefinition
  3
Zeichn-Nr.   Gruppe
  2
CODE_61
 70
     8
280
     0
  0
ATTDEF
  5
79
330
39
100
AcDbEntity
  8
PEN2
100
AcDbText
 10
392.75
 20
5.0
 30
0.0
 40
2.5
  1

  7
NORMSCHRIFT
 72
     2
 11
392.75
 21
5.0
 31
0.0
100
AcDbAttributeDefinition
  3
Zeichn-Nr.    Blatt
  2
CODE_62
 70
     8
280
     0
  0
ATTDEF
  5
7A
330
39
100
AcDbEntity
  8
PEN4
100
AcDbText
 10
0.0
 20
0.0
 30
0.0
 40
0.2
  1

  7
NORMSCHRIFT
100
AcDbAttributeDefinition
  3
Zeichn-Nr. Variante
  2
CODE_63
 70
     9
280
     0
  0
ATTDEF
  5
7B
330
39
100
AcDbEntity
  8
PEN2
100
AcDbText
 10
207.25
 20
15.0
 30
0.0
 40
2.5
  1

  7
NORMSCHRIFT
100
AcDbAttributeDefinition
  3
Sondervermerke Blatt
  2
CODE_77
 70
     8
280
     0
  0
ATTDEF
  5
7C
330
39
100
AcDbEntity
  8
PEN1
100
AcDbText
 10
206.85
 20
7.5
 30
0.0
 40
3.5
  1

  7
NORMSCHRIFT
100
AcDbAttributeDefinition
  3
Projektbenennung
  2
CODE_66
 70
     8
280
     0
  0
ATTDEF
  5
7D
330
39
100
AcDbEntity
  8
PEN1
100
AcDbText
 10
206.85
 20
0.5
 30
0.0
 40
3.5
  1

  7
NORMSCHRIFT
100
AcDbAttributeDefinition
  3
Blattbenennung
  2
CODE_65
 70
     8
280
     0
  0
ATTDEF
  5
7E
330
39
100
AcDbEntity
  8
PEN2
100
AcDbText
 10
183.75
 20
15.0
 30
0.0
 40
2.5
  1

  7
NORMSCHRIFT
 72
     2
 11
183.75
 21
15.0
 31
0.0
100
AcDbAttributeDefinition
  3
Angebot/Auftrag Nr.
  2
CODE_68
 70
     8
280
     0
  0
ATTDEF
  5
7F
330
39
100
AcDbEntity
  8
PEN2
100
AcDbText
 10
183.75
 20
15.0
 30
0.0
 40
2.5
  1

  7
NORMSCHRIFT
 72
     2
 11
183.75
 21
15.0
 31
0.0
100
AcDbAttributeDefinition
  3
Folge
  2
CODE_160
 70
     8
280
     0
  0
ATTDEF
  5
80
330
39
100
AcDbEntity
  8
PEN1
100
AcDbText
 10
322.35
 20
11.5
 30
0.0
 40
3.5
  1

  7
NORMSCHRIFT
100
AcDbAttributeDefinition
  3
Einbauort / Gehaeuse
  2
CODE_3
 70
     8
280
     0
  0
ATTDEF
  5
81
330
39
100
AcDbEntity
  8
PEN2
100
AcDbText
 10
183.75
 20
10.0
 30
0.0
 40
2.5
  1

  7
NORMSCHRIFT
 72
     2
 11
183.75
 21
10.0
 31
0.0
100
AcDbAttributeDefinition
  3
Firma / Kunde
  2
CODE_67
 70
     8
280
     0
  0
ATTDEF
  5
82
330
39
100
AcDbEntity
  8
PEN2
100
AcDbText
 10
183.75
 20
5.0
 30
0.0
 40
2.5
  1

  7
NORMSCHRIFT
 72
     2
 11
183.75
 21
5.0
 31
0.0
100
AcDbAttributeDefinition
  3
Anfrage-Nr. Kunde
  2
CODE_78
 70
     8
280
     0
  0
ATTDEF
  5
83
330
39
100
AcDbEntity
  8
PEN2
100
AcDbText
 10
84.25
 20
14.5
 30
0.0
 40
2.5
  1

  7
NORMSCHRIFT
100
AcDbAttributeDefinition
  3
Erstellungs-Datum
  2
CODE_72
 70
     8
280
     0
  0
ATTDEF
  5
84
330
39
100
AcDbEntity
  8
PEN2
100
AcDbText
 10
84.25
 20
9.5
 30
0.0
 40
2.5
  1

  7
NORMSCHRIFT
100
AcDbAttributeDefinition
  3
Erstellt
  2
CODE_424
 70
     8
280
     0
  0
ATTDEF
  5
85
330
39
100
AcDbEntity
  8
PEN2
100
AcDbText
 10
84.25
 20
4.5
 30
0.0
 40
2.5
  1

  7
NORMSCHRIFT
100
AcDbAttributeDefinition
  3
Bearbeiter
  2
CODE_423
 70
     8
280
     0
  0
ATTDEF
  5
86
330
39
100
AcDbEntity
  8
PEN2
100
AcDbText
 10
84.25
 20
0.0
 30
0.0
 40
2.5
  1

  7
NORMSCHRIFT
100
AcDbAttributeDefinition
  3
Geprueft
  2
CODE_425
 70
     8
280
     0
  0
ATTDEF
  5
87
330
39
100
AcDbEntity
  8
PEN2
100
AcDbText
 10
392.75
 20
0.0
 30
0.0
 40
2.5
  1

  7
NORMSCHRIFT
 72
     2
 11
392.75
 21
0.0
 31
0.0
100
AcDbAttributeDefinition
  3
Gesamte Blattzahl
  2
CODE_71
 70
     8
280
     0
  0
ATTDEF
  5
88
330
39
100
AcDbEntity
  8
PEN4
100
AcDbText
 10
4.2
 20
5.0
 30
0.0
 40
2.0
  1

  7
NORMSCHRIFT
100
AcDbAttributeDefinition
  3
Grund Aenderung a
  2
CODE_430
 70
     8
280
     0
  0
ATTDEF
  5
89
330
39
100
AcDbEntity
  8
PEN4
100
AcDbText
 10
38.7
 20
5.0
 30
0.0
 40
2.0
  1

  7
NORMSCHRIFT
100
AcDbAttributeDefinition
  3
Datum     \"
  2
CODE_431
 70
     8
280
     0
  0
ATTDEF
  5
8A
330
39
100
AcDbEntity
  8
PEN4
100
AcDbText
 10
53.2
 20
5.0
 30
0.0
 40
2.0
  1

  7
NORMSCHRIFT
100
AcDbAttributeDefinition
  3
Name      \"
  2
CODE_432
 70
     8
280
     0
  0
ATTDEF
  5
8B
330
39
100
AcDbEntity
  8
PEN4
100
AcDbText
 10
4.2
 20
10.0
 30
0.0
 40
2.0
  1

  7
NORMSCHRIFT
100
AcDbAttributeDefinition
  3
Grund Aenderung b
  2
CODE_433
 70
     8
280
     0
  0
ATTDEF
  5
8C
330
39
100
AcDbEntity
  8
PEN4
100
AcDbText
 10
38.7
 20
10.0
 30
0.0
 40
2.0
  1

  7
NORMSCHRIFT
100
AcDbAttributeDefinition
  3
Datum     \"
  2
CODE_434
 70
     8
280
     0
  0
ATTDEF
  5
8D
330
39
100
AcDbEntity
  8
PEN4
100
AcDbText
 10
53.2
 20
10.0
 30
0.0
 40
2.0
  1

  7
NORMSCHRIFT
100
AcDbAttributeDefinition
  3
Name      \"
  2
CODE_435
 70
     8
280
     0
  0
ATTDEF
  5
8E
330
39
100
AcDbEntity
  8
PEN4
100
AcDbText
 10
4.2
 20
15.0
 30
0.0
 40
2.0
  1

  7
NORMSCHRIFT
100
AcDbAttributeDefinition
  3
Grund Aenderung c
  2
CODE_436
 70
     8
280
     0
  0
ATTDEF
  5
8F
330
39
100
AcDbEntity
  8
PEN4
100
AcDbText
 10
38.7
 20
15.0
 30
0.0
 40
2.0
  1

  7
NORMSCHRIFT
100
AcDbAttributeDefinition
  3
Datum     \"
  2
CODE_437
 70
     8
280
     0
  0
ATTDEF
  5
90
330
39
100
AcDbEntity
  8
PEN4
100
AcDbText
 10
53.2
 20
15.0
 30
0.0
 40
2.0
  1

  7
NORMSCHRIFT
100
AcDbAttributeDefinition
  3
Name      \"
  2
CODE_438
 70
     8
280
     0
  0
ATTDEF
  5
91
330
39
100
AcDbEntity
  8
PEN1
100
AcDbText
 10
374.5
 20
10.5
 30
0.0
 40
3.5
  1

  7
NORMSCHRIFT
 72
     1
 11
374.5
 21
10.5
 31
0.0
100
AcDbAttributeDefinition
  3
Anlagenkurzzeichen
  2
CODE_1
 70
     8
280
     0
  0
ATTDEF
  5
6AA
330
39
100
AcDbEntity
  8
PEN1
100
AcDbText
 10
374.5
 20
10.5
 30
0.0
 40
3.5
  1

  7
NORMSCHRIFT
 72
     1
 11
374.5
 21
10.5
 31
0.0
100
AcDbAttributeDefinition
  3
Funktion
  2
CODE_2
 70
     8
280
     0
  0
ATTDEF
  5
6AB
330
39
100
AcDbEntity
  8
PEN4
100
AcDbText
 10
107.2
 20
0.5
 30
0.0
 40
2.0
  1

  7
NORMSCHRIFT
100
AcDbAttributeDefinition
  3
Ursprung
  2
CODE_73
 70
     8
280
     0
  0
ATTDEF
  5
94
330
39
100
AcDbEntity
  8
PEN4
100
AcDbText
 10
140.0
 20
0.5
 30
0.0
 40
2.0
  1

  7
NORMSCHRIFT
 72
     1
 11
140.0
 21
0.5
 31
0.0
100
AcDbAttributeDefinition
  3
Ersatz fuer
  2
CODE_74
 70
     8
280
     0
  0
ATTDEF
  5
95
330
39
100
AcDbEntity
  8
PEN4
100
AcDbText
 10
183.9
 20
0.5
 30
0.0
 40
2.0
  1

  7
NORMSCHRIFT
 72
     2
 11
183.9
 21
0.5
 31
0.0
100
AcDbAttributeDefinition
  3
Ersetzt durch
  2
CODE_75
 70
     8
280
     0
  0
ATTDEF
  5
96
330
39
100
AcDbEntity
  8
PEN4
100
AcDbText
 10
0.0
 20
0.0
 30
0.0
 40
0.2
  1
60
  7
NORMSCHRIFT
100
AcDbAttributeDefinition
  3
1. Archiv Ebene
  2
CODE_2000
 70
     9
280
     0
  0
ATTDEF
  5
6AC
330
39
100
AcDbEntity
  8
PEN4
100
AcDbText
 10
0.0
 20
0.0
 30
0.0
 40
0.2
  1
61
  7
NORMSCHRIFT
100
AcDbAttributeDefinition
  3
2. Archiv Ebene
  2
CODE_2001
 70
     9
280
     0
  0
ATTDEF
  5
6AD
330
39
100
AcDbEntity
  8
PEN4
100
AcDbText
 10
0.0
 20
0.0
 30
0.0
 40
0.2
  1
62
  7
NORMSCHRIFT
100
AcDbAttributeDefinition
  3
3. Archiv Ebene
  2
CODE_2002
 70
     9
280
     0
  0
ATTDEF
  5
99
330
39
100
AcDbEntity
  8
PEN4
100
AcDbText
 10
0.0
 20
0.0
 30
0.0
 40
0.2
  1
63
  7
NORMSCHRIFT
100
AcDbAttributeDefinition
  3
4. Archiv Ebene
  2
CODE_2003
 70
     9
280
     0
  0
ATTDEF
  5
9A
330
39
100
AcDbEntity
  8
PEN4
100
AcDbText
 10
0.0
 20
0.0
 30
0.0
 40
0.2
  1
Anlage ............
  7
NORMSCHRIFT
100
AcDbAttributeDefinition
  3
Bezeichnung 1. Ebene
  2
CODE_2005
 70
     9
280
     0
  0
ATTDEF
  5
9B
330
39
100
AcDbEntity
  8
PEN4
100
AcDbText
 10
0.0
 20
0.0
 30
0.0
 40
0.2
  1
Gruppe ............
  7
NORMSCHRIFT
100
AcDbAttributeDefinition
  3
Bezeichnung 2. Ebene
  2
CODE_2006
 70
     9
280
     0
  0
ATTDEF
  5
9C
330
39
100
AcDbEntity
  8
PEN4
100
AcDbText
 10
0.0
 20
0.0
 30
0.0
 40
0.2
  1
Blatt .............
  7
NORMSCHRIFT
100
AcDbAttributeDefinition
  3
Bezeichnung 3. Ebene
  2
CODE_2007
 70
     9
280
     0
  0
ATTDEF
  5
9D
330
39
100
AcDbEntity
  8
PEN4
100
AcDbText
 10
0.0
 20
0.0
 30
0.0
 40
0.2
  1
Variante ..........
  7
NORMSCHRIFT
100
AcDbAttributeDefinition
  3
Bezeichnung 4. Ebene
  2
CODE_2008
 70
     9
280
     0
  0
ATTDEF
  5
9E
330
39
100
AcDbEntity
  8
PEN4
100
AcDbText
 10
0.0
 20
0.0
 30
0.0
 40
0.2
  1
110
  7
NORMSCHRIFT
100
AcDbAttributeDefinition
  3
Anzahl Strompfade
  2
CODE_2011
 70
     9
280
     0
  0
ATTDEF
  5
9F
330
39
100
AcDbEntity
  8
PEN4
100
AcDbText
 10
0.0
 20
0.0
 30
0.0
 40
0.2
  1
N
  7
NORMSCHRIFT
100
AcDbAttributeDefinition
  3
durchlaufend  J/N
  2
CODE_2010
 70
     9
280
     0
  0
ATTDEF
  5
A0
330
39
100
AcDbEntity
  8
PEN4
100
AcDbText
 10
0.0
 20
0.0
 30
0.0
 40
0.2
  1
J
  7
NORMSCHRIFT
100
AcDbAttributeDefinition
  3
horizontal    J/N
  2
CODE_2012
 70
     9
280
     0
  0
ATTDEF
  5
A1
330
39
100
AcDbEntity
  8
PEN4
100
AcDbText
 10
0.0
 20
0.0
 30
0.0
 40
0.2
  1
24.5
  7
NORMSCHRIFT
100
AcDbAttributeDefinition
  3
x 1. Strompfad
  2
CODE_2013
 70
     9
280
     0
  0
ATTDEF
  5
A2
330
39
100
AcDbEntity
  8
PEN4
100
AcDbText
 10
0.0
 20
0.0
 30
0.0
 40
0.2
  1
3.5
  7
NORMSCHRIFT
100
AcDbAttributeDefinition
  3
Pfadbreite x
  2
CODE_2014
 70
     9
280
     0
  0
ATTDEF
  5
A3
330
39
100
AcDbEntity
  8
PEN4
100
AcDbText
 10
0.0
 20
0.0
 30
0.0
 40
0.2
  1
/C0
  7
NORMSCHRIFT
100
AcDbAttributeDefinition
  3
Name erster Pfad x
  2
CODE_2015
 70
     9
280
     0
  0
ATTDEF
  5
A4
330
39
100
AcDbEntity
  8
PEN4
100
AcDbText
 10
0.0
 20
0.0
 30
0.0
 40
0.2
  1
400.000
  7
NORMSCHRIFT
100
AcDbAttributeDefinition
  3
Blattbreite
  2
CODE_2130
 70
     9
280
     0
  0
ATTDEF
  5
A5
330
39
100
AcDbEntity
  8
PEN4
100
AcDbText
 10
0.0
 20
0.0
 30
0.0
 40
0.2
  1
270.000
  7
NORMSCHRIFT
100
AcDbAttributeDefinition
  3
Blatthöhe
  2
CODE_2131
 70
     9
280
     0
  0
ATTDEF
  5
A6
330
39
100
AcDbEntity
  8
PEN4
100
AcDbText
 10
0.0
 20
0.0
 30
0.0
 40
0.2
  1
20.000
  7
NORMSCHRIFT
100
AcDbAttributeDefinition
  3
Grundraster
  2
CODE_2132
 70
     9
280
     0
  0
ATTDEF
  5
A7
330
39
100
AcDbEntity
  8
PEN4
100
AcDbText
 10
0.0
 20
0.0
 30
0.0
 40
0.2
  1
100.000
  7
NORMSCHRIFT
100
AcDbAttributeDefinition
  3
Grobraster
  2
CODE_2133
 70
     9
280
     0
  0
ATTDEF
  5
A8
330
39
100
AcDbEntity
  8
PEN4
100
AcDbText
 10
0.0
 20
0.0
 30
0.0
 40
0.2
  1
10.000
  7
NORMSCHRIFT
100
AcDbAttributeDefinition
  3
Feinraster
  2
CODE_2134
 70
     9
280
     0
  0
ATTDEF
  5
A9
330
39
100
AcDbEntity
  8
PEN4
100
AcDbText
 10
0.0
 20
0.0
 30
0.0
 40
0.2
  1
J
  7
NORMSCHRIFT
100
AcDbAttributeDefinition
  3
vertikal      J/N
  2
CODE_2016
 70
     9
280
     0
  0
ATTDEF
  5
AA
330
39
100
AcDbEntity
  8
PEN4
100
AcDbText
 10
0.0
 20
0.0
 30
0.0
 40
0.2
  1
60
  7
NORMSCHRIFT
100
AcDbAttributeDefinition
  3
Anzahl Strompfade
  2
CODE_2011
 70
     9
280
     0
  0
ATTDEF
  5
AB
330
39
100
AcDbEntity
  8
PEN4
100
AcDbText
 10
0.0
 20
0.0
 30
0.0
 40
0.2
  1
245
  7
NORMSCHRIFT
100
AcDbAttributeDefinition
  3
y 1. Strompfad
  2
CODE_2017
 70
     9
280
     0
  0
ATTDEF
  5
AC
330
39
100
AcDbEntity
  8
PEN4
100
AcDbText
 10
0.0
 20
0.0
 30
0.0
 40
0.2
  1
3.5
  7
NORMSCHRIFT
100
AcDbAttributeDefinition
  3
Pfadbreite y
  2
CODE_2018
 70
     9
280
     0
  0
ATTDEF
  5
AD
330
39
100
AcDbEntity
  8
PEN4
100
AcDbText
 10
0.0
 20
0.0
 30
0.0
 40
0.2
  1
A20
  7
NORMSCHRIFT
100
AcDbAttributeDefinition
  3
Name erster Pfad y
  2
CODE_2019
 70
     9
280
     0
  0
ATTDEF
  5
AE
330
39
100
AcDbEntity
  8
PEN4
100
AcDbText
 10
365.9
 20
6.0
 30
0.0
 40
2.0
  1

  7
NORMSCHRIFT
 72
     2
 11
365.9
 21
6.0
 31
0.0
100
AcDbAttributeDefinition
  3
PROJECT - - - - AUTO
  2
CODE_51
 70
     8
280
     0
  0
ATTDEF
  5
AF
330
39
100
AcDbEntity
  8
PEN4
100
AcDbText
 10
0.0
 20
0.0
 30
0.0
 40
0.2
  1
1:2
  7
NORMSCHRIFT
100
AcDbAttributeDefinition
  3
Masstab  AUTO
  2
CODE_4006
 70
     9
280
     0
  0
ATTDEF
  5
B0
330
39
100
AcDbEntity
  8
PEN2
100
AcDbText
 10
400.0
 20
4.75
 30
0.0
 40
2.5
  1

 50
90.0
  7
NORMSCHRIFT
100
AcDbAttributeDefinition
  3
gedruckt am:
  2
CODE_4901
 70
     8
280
     0
  0
ATTDEF
  5
B1
330
39
100
AcDbEntity
  8
PEN2
100
AcDbText
 10
400.0
 20
4.75
 30
0.0
 40
2.5
  1

 50
90.0
  7
NORMSCHRIFT
100
AcDbAttributeDefinition
  3
Ersteller
  2
CODE_4902
 70
     8
280
     0
  0
ATTDEF
  5
B2
330
39
100
AcDbEntity
  8
PEN2
100
AcDbText
 10
400.0
 20
4.75
 30
0.0
 40
2.5
  1

 50
90.0
  7
NORMSCHRIFT
100
AcDbAttributeDefinition
  3
Erstellt mit ELCAD:
  2
CODE_4903
 70
     8
280
     0
  0
ATTDEF
  5
B3
330
39
100
AcDbEntity
  8
PEN4
100
AcDbText
 10
0.8
 20
5.0
 30
0.0
 40
2.0
  1
a
  7
NORMSCHRIFT
 72
     1
 11
1.5
 21
5.0
 31
0.0
100
AcDbAttributeDefinition
  3
Revision 1
  2
CODE_4800
 70
     8
280
     0
  0
ATTDEF
  5
B4
330
39
100
AcDbEntity
  8
PEN4
100
AcDbText
 10
0.8
 20
10.0
 30
0.0
 40
2.0
  1
b
  7
NORMSCHRIFT
 72
     1
 11
1.5
 21
10.0
 31
0.0
100
AcDbAttributeDefinition
  3
Revision 2
  2
CODE_4800
 70
     8
280
     0
  0
ATTDEF
  5
B5
330
39
100
AcDbEntity
  8
PEN4
100
AcDbText
 10
0.9
 20
15.0
 30
0.0
 40
2.0
  1
c
  7
NORMSCHRIFT
 72
     1
 11
1.5
 21
15.0
 31
0.0
100
AcDbAttributeDefinition
  3
Revision 3
  2
CODE_4800
 70
     8
280
     0
  0
ENDBLK
  5
69C
330
39
100
AcDbEntity
  8
0
100
AcDbBlockEnd
  0
BLOCK
  5
69D
330
B8
100
AcDbEntity
  8
0
100
AcDbBlockBegin
  2
K7-9195-8_B
 70
     2
 10
0.0
 20
0.0
 30
0.0
  3
K7-9195-8_B
  1

  0
LINE
  5
B9
330
B8
100
AcDbEntity
  8
PEN1
  6
LTY1
100
AcDbLine
 10
-36.0
 20
-8.5
 30
0.0
 11
-27.0
 21
-8.5
 31
0.0
  0
LINE
  5
BA
330
B8
100
AcDbEntity
  8
PEN1
  6
LTY1
100
AcDbLine
 10
-27.0
 20
-8.5
 30
0.0
 11
-27.0
 21
-14.5
 31
0.0
  0
LINE
  5
BB
330
B8
100
AcDbEntity
  8
PEN1
  6
LTY1
100
AcDbLine
 10
-27.0
 20
-14.5
 30
0.0
 11
-36.0
 21
-14.5
 31
0.0
  0
LINE
  5
BC
330
B8
100
AcDbEntity
  8
PEN1
  6
LTY1
100
AcDbLine
 10
-36.0
 20
-14.5
 30
0.0
 11
-36.0
 21
-8.5
 31
0.0
  0
LINE
  5
BD
330
B8
100
AcDbEntity
  8
PEN1
  6
LTY1
100
AcDbLine
 10
-36.0
 20
-13.5
 30
0.0
 11
-35.5
 21
-14.0
 31
0.0
  0
LINE
  5
BE
330
B8
100
AcDbEntity
  8
PEN1
  6
LTY1
100
AcDbLine
 10
-35.5
 20
-14.0
 30
0.0
 11
-27.5
 21
-14.0
 31
0.0
  0
LINE
  5
BF
330
B8
100
AcDbEntity
  8
PEN1
  6
LTY1
100
AcDbLine
 10
-27.5
 20
-14.0
 30
0.0
 11
-27.0
 21
-13.5
 31
0.0
  0
LINE
  5
C0
330
B8
100
AcDbEntity
  8
PEN1
  6
LTY1
100
AcDbLine
 10
-36.0
 20
-12.5
 30
0.0
 11
-35.5
 21
-13.0
 31
0.0
  0
LINE
  5
C1
330
B8
100
AcDbEntity
  8
PEN1
  6
LTY1
100
AcDbLine
 10
-35.5
 20
-13.0
 30
0.0
 11
-27.5
 21
-13.0
 31
0.0
  0
LINE
  5
C2
330
B8
100
AcDbEntity
  8
PEN1
  6
LTY1
100
AcDbLine
 10
-27.5
 20
-13.0
 30
0.0
 11
-27.0
 21
-12.5
 31
0.0
  0
LINE
  5
C3
330
B8
100
AcDbEntity
  8
PEN1
  6
LTY1
100
AcDbLine
 10
-36.0
 20
-11.5
 30
0.0
 11
-35.5
 21
-12.0
 31
0.0
  0
LINE
  5
C4
330
B8
100
AcDbEntity
  8
PEN1
  6
LTY1
100
AcDbLine
 10
-35.5
 20
-12.0
 30
0.0
 11
-27.5
 21
-12.0
 31
0.0
  0
LINE
  5
C5
330
B8
100
AcDbEntity
  8
PEN1
  6
LTY1
100
AcDbLine
 10
-27.5
 20
-12.0
 30
0.0
 11
-27.0
 21
-11.5
 31
0.0
  0
LINE
  5
C6
330
B8
100
AcDbEntity
  8
PEN1
  6
LTY1
100
AcDbLine
 10
-36.0
 20
-10.5
 30
0.0
 11
-35.5
 21
-11.0
 31
0.0
  0
LINE
  5
C7
330
B8
100
AcDbEntity
  8
PEN1
  6
LTY1
100
AcDbLine
 10
-35.5
 20
-11.0
 30
0.0
 11
-27.5
 21
-11.0
 31
0.0
  0
LINE
  5
C8
330
B8
100
AcDbEntity
  8
PEN1
  6
LTY1
100
AcDbLine
 10
-27.5
 20
-11.0
 30
0.0
 11
-27.0
 21
-10.5
 31
0.0
  0
LINE
  5
C9
330
B8
100
AcDbEntity
  8
PEN1
  6
LTY1
100
AcDbLine
 10
-30.0
 20
-9.0
 30
0.0
 11
-30.0
 21
-11.0
 31
0.0
  0
LINE
  5
CA
330
B8
100
AcDbEntity
  8
PEN1
  6
LTY1
100
AcDbLine
 10
-30.0
 20
-11.0
 30
0.0
 11
-28.5
 21
-11.0
 31
0.0
  0
LINE
  5
CB
330
B8
100
AcDbEntity
  8
PEN1
  6
LTY1
100
AcDbLine
 10
-28.5
 20
-11.0
 30
0.0
 11
-28.0
 21
-11.0
 31
0.0
  0
LINE
  5
CC
330
B8
100
AcDbEntity
  8
PEN1
  6
LTY1
100
AcDbLine
 10
-28.0
 20
-11.0
 30
0.0
 11
-28.0
 21
-9.0
 31
0.0
  0
LINE
  5
CD
330
B8
100
AcDbEntity
  8
PEN1
  6
LTY1
100
AcDbLine
 10
-28.0
 20
-9.0
 30
0.0
 11
-30.0
 21
-9.0
 31
0.0
  0
LINE
  5
CE
330
B8
100
AcDbEntity
  8
PEN1
  6
LTY1
100
AcDbLine
 10
-27.0
 20
-8.5
 30
0.0
 11
-18.0
 21
-8.5
 31
0.0
  0
LINE
  5
CF
330
B8
100
AcDbEntity
  8
PEN1
  6
LTY1
100
AcDbLine
 10
-18.0
 20
-8.5
 30
0.0
 11
-18.0
 21
-14.5
 31
0.0
  0
LINE
  5
D0
330
B8
100
AcDbEntity
  8
PEN1
  6
LTY1
100
AcDbLine
 10
-18.0
 20
-14.5
 30
0.0
 11
-27.0
 21
-14.5
 31
0.0
  0
LINE
  5
D1
330
B8
100
AcDbEntity
  8
PEN1
  6
LTY1
100
AcDbLine
 10
-27.0
 20
-14.5
 30
0.0
 11
-27.0
 21
-8.5
 31
0.0
  0
LINE
  5
D2
330
B8
100
AcDbEntity
  8
PEN1
  6
LTY1
100
AcDbLine
 10
-27.0
 20
-13.5
 30
0.0
 11
-26.5
 21
-14.0
 31
0.0
  0
LINE
  5
D3
330
B8
100
AcDbEntity
  8
PEN1
  6
LTY1
100
AcDbLine
 10
-26.5
 20
-14.0
 30
0.0
 11
-18.5
 21
-14.0
 31
0.0
  0
LINE
  5
D4
330
B8
100
AcDbEntity
  8
PEN1
  6
LTY1
100
AcDbLine
 10
-18.5
 20
-14.0
 30
0.0
 11
-18.0
 21
-13.5
 31
0.0
  0
LINE
  5
D5
330
B8
100
AcDbEntity
  8
PEN1
  6
LTY1
100
AcDbLine
 10
-27.0
 20
-12.5
 30
0.0
 11
-26.5
 21
-13.0
 31
0.0
  0
LINE
  5
D6
330
B8
100
AcDbEntity
  8
PEN1
  6
LTY1
100
AcDbLine
 10
-26.5
 20
-13.0
 30
0.0
 11
-18.5
 21
-13.0
 31
0.0
  0
LINE
  5
D7
330
B8
100
AcDbEntity
  8
PEN1
  6
LTY1
100
AcDbLine
 10
-18.5
 20
-13.0
 30
0.0
 11
-18.0
 21
-12.5
 31
0.0
  0
LINE
  5
D8
330
B8
100
AcDbEntity
  8
PEN1
  6
LTY1
100
AcDbLine
 10
-27.0
 20
-11.5
 30
0.0
 11
-26.5
 21
-12.0
 31
0.0
  0
LINE
  5
D9
330
B8
100
AcDbEntity
  8
PEN1
  6
LTY1
100
AcDbLine
 10
-26.5
 20
-12.0
 30
0.0
 11
-18.5
 21
-12.0
 31
0.0
  0
LINE
  5
DA
330
B8
100
AcDbEntity
  8
PEN1
  6
LTY1
100
AcDbLine
 10
-18.5
 20
-12.0
 30
0.0
 11
-18.0
 21
-11.5
 31
0.0
  0
LINE
  5
DB
330
B8
100
AcDbEntity
  8
PEN1
  6
LTY1
100
AcDbLine
 10
-27.0
 20
-10.5
 30
0.0
 11
-26.5
 21
-11.0
 31
0.0
  0
LINE
  5
DC
330
B8
100
AcDbEntity
  8
PEN1
  6
LTY1
100
AcDbLine
 10
-26.5
 20
-11.0
 30
0.0
 11
-18.5
 21
-11.0
 31
0.0
  0
LINE
  5
DD
330
B8
100
AcDbEntity
  8
PEN1
  6
LTY1
100
AcDbLine
 10
-18.5
 20
-11.0
 30
0.0
 11
-18.0
 21
-10.5
 31
0.0
  0
LINE
  5
DE
330
B8
100
AcDbEntity
  8
PEN1
  6
LTY1
100
AcDbLine
 10
-21.0
 20
-9.0
 30
0.0
 11
-21.0
 21
-11.0
 31
0.0
  0
LINE
  5
DF
330
B8
100
AcDbEntity
  8
PEN1
  6
LTY1
100
AcDbLine
 10
-21.0
 20
-11.0
 30
0.0
 11
-19.5
 21
-11.0
 31
0.0
  0
LINE
  5
E0
330
B8
100
AcDbEntity
  8
PEN1
  6
LTY1
100
AcDbLine
 10
-19.5
 20
-11.0
 30
0.0
 11
-19.0
 21
-11.0
 31
0.0
  0
LINE
  5
E1
330
B8
100
AcDbEntity
  8
PEN1
  6
LTY1
100
AcDbLine
 10
-19.0
 20
-11.0
 30
0.0
 11
-19.0
 21
-9.0
 31
0.0
  0
LINE
  5
E2
330
B8
100
AcDbEntity
  8
PEN1
  6
LTY1
100
AcDbLine
 10
-19.0
 20
-9.0
 30
0.0
 11
-21.0
 21
-9.0
 31
0.0
  0
LINE
  5
E3
330
B8
100
AcDbEntity
  8
PEN1
  6
LTY1
100
AcDbLine
 10
-18.0
 20
-8.5
 30
0.0
 11
-9.0
 21
-8.5
 31
0.0
  0
LINE
  5
E4
330
B8
100
AcDbEntity
  8
PEN1
  6
LTY1
100
AcDbLine
 10
-9.0
 20
-8.5
 30
0.0
 11
-9.0
 21
-14.5
 31
0.0
  0
LINE
  5
E5
330
B8
100
AcDbEntity
  8
PEN1
  6
LTY1
100
AcDbLine
 10
-9.0
 20
-14.5
 30
0.0
 11
-18.0
 21
-14.5
 31
0.0
  0
LINE
  5
E6
330
B8
100
AcDbEntity
  8
PEN1
  6
LTY1
100
AcDbLine
 10
-18.0
 20
-14.5
 30
0.0
 11
-18.0
 21
-8.5
 31
0.0
  0
LINE
  5
E7
330
B8
100
AcDbEntity
  8
PEN1
  6
LTY1
100
AcDbLine
 10
-18.0
 20
-13.5
 30
0.0
 11
-17.5
 21
-14.0
 31
0.0
  0
LINE
  5
E8
330
B8
100
AcDbEntity
  8
PEN1
  6
LTY1
100
AcDbLine
 10
-17.5
 20
-14.0
 30
0.0
 11
-9.5
 21
-14.0
 31
0.0
  0
LINE
  5
E9
330
B8
100
AcDbEntity
  8
PEN1
  6
LTY1
100
AcDbLine
 10
-9.5
 20
-14.0
 30
0.0
 11
-9.0
 21
-13.5
 31
0.0
  0
LINE
  5
EA
330
B8
100
AcDbEntity
  8
PEN1
  6
LTY1
100
AcDbLine
 10
-18.0
 20
-12.5
 30
0.0
 11
-17.5
 21
-13.0
 31
0.0
  0
LINE
  5
EB
330
B8
100
AcDbEntity
  8
PEN1
  6
LTY1
100
AcDbLine
 10
-17.5
 20
-13.0
 30
0.0
 11
-9.5
 21
-13.0
 31
0.0
  0
LINE
  5
EC
330
B8
100
AcDbEntity
  8
PEN1
  6
LTY1
100
AcDbLine
 10
-9.5
 20
-13.0
 30
0.0
 11
-9.0
 21
-12.5
 31
0.0
  0
LINE
  5
ED
330
B8
100
AcDbEntity
  8
PEN1
  6
LTY1
100
AcDbLine
 10
-18.0
 20
-11.5
 30
0.0
 11
-17.5
 21
-12.0
 31
0.0
  0
LINE
  5
EE
330
B8
100
AcDbEntity
  8
PEN1
  6
LTY1
100
AcDbLine
 10
-17.5
 20
-12.0
 30
0.0
 11
-9.5
 21
-12.0
 31
0.0
  0
LINE
  5
EF
330
B8
100
AcDbEntity
  8
PEN1
  6
LTY1
100
AcDbLine
 10
-9.5
 20
-12.0
 30
0.0
 11
-9.0
 21
-11.5
 31
0.0
  0
LINE
  5
F0
330
B8
100
AcDbEntity
  8
PEN1
  6
LTY1
100
AcDbLine
 10
-18.0
 20
-10.5
 30
0.0
 11
-17.5
 21
-11.0
 31
0.0
  0
LINE
  5
F1
330
B8
100
AcDbEntity
  8
PEN1
  6
LTY1
100
AcDbLine
 10
-17.5
 20
-11.0
 30
0.0
 11
-9.5
 21
-11.0
 31
0.0
  0
LINE
  5
F2
330
B8
100
AcDbEntity
  8
PEN1
  6
LTY1
100
AcDbLine
 10
-9.5
 20
-11.0
 30
0.0
 11
-9.0
 21
-10.5
 31
0.0
  0
LINE
  5
F3
330
B8
100
AcDbEntity
  8
PEN1
  6
LTY1
100
AcDbLine
 10
-12.0
 20
-9.0
 30
0.0
 11
-12.0
 21
-11.0
 31
0.0
  0
LINE
  5
F4
330
B8
100
AcDbEntity
  8
PEN1
  6
LTY1
100
AcDbLine
 10
-12.0
 20
-11.0
 30
0.0
 11
-10.5
 21
-11.0
 31
0.0
  0
LINE
  5
F5
330
B8
100
AcDbEntity
  8
PEN1
  6
LTY1
100
AcDbLine
 10
-10.5
 20
-11.0
 30
0.0
 11
-10.0
 21
-11.0
 31
0.0
  0
LINE
  5
F6
330
B8
100
AcDbEntity
  8
PEN1
  6
LTY1
100
AcDbLine
 10
-10.0
 20
-11.0
 30
0.0
 11
-10.0
 21
-9.0
 31
0.0
  0
LINE
  5
F7
330
B8
100
AcDbEntity
  8
PEN1
  6
LTY1
100
AcDbLine
 10
-10.0
 20
-9.0
 30
0.0
 11
-12.0
 21
-9.0
 31
0.0
  0
LINE
  5
F8
330
B8
100
AcDbEntity
  8
PEN1
  6
LTY1
100
AcDbLine
 10
-9.0
 20
-8.5
 30
0.0
 11
0.0
 21
-8.5
 31
0.0
  0
LINE
  5
F9
330
B8
100
AcDbEntity
  8
PEN1
  6
LTY1
100
AcDbLine
 10
0.0
 20
-8.5
 30
0.0
 11
0.0
 21
-14.5
 31
0.0
  0
LINE
  5
FA
330
B8
100
AcDbEntity
  8
PEN1
  6
LTY1
100
AcDbLine
 10
0.0
 20
-14.5
 30
0.0
 11
-9.0
 21
-14.5
 31
0.0
  0
LINE
  5
FB
330
B8
100
AcDbEntity
  8
PEN1
  6
LTY1
100
AcDbLine
 10
-9.0
 20
-14.5
 30
0.0
 11
-9.0
 21
-8.5
 31
0.0
  0
LINE
  5
FC
330
B8
100
AcDbEntity
  8
PEN1
  6
LTY1
100
AcDbLine
 10
-9.0
 20
-13.5
 30
0.0
 11
-8.5
 21
-14.0
 31
0.0
  0
LINE
  5
FD
330
B8
100
AcDbEntity
  8
PEN1
  6
LTY1
100
AcDbLine
 10
-8.5
 20
-14.0
 30
0.0
 11
-0.5
 21
-14.0
 31
0.0
  0
LINE
  5
FE
330
B8
100
AcDbEntity
  8
PEN1
  6
LTY1
100
AcDbLine
 10
-0.5
 20
-14.0
 30
0.0
 11
0.0
 21
-13.5
 31
0.0
  0
LINE
  5
FF
330
B8
100
AcDbEntity
  8
PEN1
  6
LTY1
100
AcDbLine
 10
-9.0
 20
-12.5
 30
0.0
 11
-8.5
 21
-13.0
 31
0.0
  0
LINE
  5
100
330
B8
100
AcDbEntity
  8
PEN1
  6
LTY1
100
AcDbLine
 10
-8.5
 20
-13.0
 30
0.0
 11
-0.5
 21
-13.0
 31
0.0
  0
LINE
  5
101
330
B8
100
AcDbEntity
  8
PEN1
  6
LTY1
100
AcDbLine
 10
-0.5
 20
-13.0
 30
0.0
 11
0.0
 21
-12.5
 31
0.0
  0
LINE
  5
102
330
B8
100
AcDbEntity
  8
PEN1
  6
LTY1
100
AcDbLine
 10
-9.0
 20
-11.5
 30
0.0
 11
-8.5
 21
-12.0
 31
0.0
  0
LINE
  5
103
330
B8
100
AcDbEntity
  8
PEN1
  6
LTY1
100
AcDbLine
 10
-8.5
 20
-12.0
 30
0.0
 11
-0.5
 21
-12.0
 31
0.0
  0
LINE
  5
104
330
B8
100
AcDbEntity
  8
PEN1
  6
LTY1
100
AcDbLine
 10
-0.5
 20
-12.0
 30
0.0
 11
0.0
 21
-11.5
 31
0.0
  0
LINE
  5
105
330
B8
100
AcDbEntity
  8
PEN1
  6
LTY1
100
AcDbLine
 10
-9.0
 20
-10.5
 30
0.0
 11
-8.5
 21
-11.0
 31
0.0
  0
LINE
  5
106
330
B8
100
AcDbEntity
  8
PEN1
  6
LTY1
100
AcDbLine
 10
-8.5
 20
-11.0
 30
0.0
 11
-0.5
 21
-11.0
 31
0.0
  0
LINE
  5
107
330
B8
100
AcDbEntity
  8
PEN1
  6
LTY1
100
AcDbLine
 10
-0.5
 20
-11.0
 30
0.0
 11
0.0
 21
-10.5
 31
0.0
  0
LINE
  5
108
330
B8
100
AcDbEntity
  8
PEN1
  6
LTY1
100
AcDbLine
 10
-3.0
 20
-9.0
 30
0.0
 11
-3.0
 21
-11.0
 31
0.0
  0
LINE
  5
109
330
B8
100
AcDbEntity
  8
PEN1
  6
LTY1
100
AcDbLine
 10
-3.0
 20
-11.0
 30
0.0
 11
-1.5
 21
-11.0
 31
0.0
  0
LINE
  5
10A
330
B8
100
AcDbEntity
  8
PEN1
  6
LTY1
100
AcDbLine
 10
-1.5
 20
-11.0
 30
0.0
 11
-1.0
 21
-11.0
 31
0.0
  0
LINE
  5
10B
330
B8
100
AcDbEntity
  8
PEN1
  6
LTY1
100
AcDbLine
 10
-1.0
 20
-11.0
 30
0.0
 11
-1.0
 21
-9.0
 31
0.0
  0
LINE
  5
10C
330
B8
100
AcDbEntity
  8
PEN1
  6
LTY1
100
AcDbLine
 10
-1.0
 20
-9.0
 30
0.0
 11
-3.0
 21
-9.0
 31
0.0
  0
LINE
  5
10D
330
B8
100
AcDbEntity
  8
PEN1
  6
LTY1
100
AcDbLine
 10
0.0
 20
-8.5
 30
0.0
 11
9.0
 21
-8.5
 31
0.0
  0
LINE
  5
10E
330
B8
100
AcDbEntity
  8
PEN1
  6
LTY1
100
AcDbLine
 10
9.0
 20
-8.5
 30
0.0
 11
9.0
 21
-14.5
 31
0.0
  0
LINE
  5
10F
330
B8
100
AcDbEntity
  8
PEN1
  6
LTY1
100
AcDbLine
 10
9.0
 20
-14.5
 30
0.0
 11
0.0
 21
-14.5
 31
0.0
  0
LINE
  5
110
330
B8
100
AcDbEntity
  8
PEN1
  6
LTY1
100
AcDbLine
 10
0.0
 20
-14.5
 30
0.0
 11
0.0
 21
-8.5
 31
0.0
  0
LINE
  5
111
330
B8
100
AcDbEntity
  8
PEN1
  6
LTY1
100
AcDbLine
 10
0.0
 20
-13.5
 30
0.0
 11
0.5
 21
-14.0
 31
0.0
  0
LINE
  5
112
330
B8
100
AcDbEntity
  8
PEN1
  6
LTY1
100
AcDbLine
 10
0.5
 20
-14.0
 30
0.0
 11
8.5
 21
-14.0
 31
0.0
  0
LINE
  5
113
330
B8
100
AcDbEntity
  8
PEN1
  6
LTY1
100
AcDbLine
 10
8.5
 20
-14.0
 30
0.0
 11
9.0
 21
-13.5
 31
0.0
  0
LINE
  5
114
330
B8
100
AcDbEntity
  8
PEN1
  6
LTY1
100
AcDbLine
 10
0.0
 20
-12.5
 30
0.0
 11
0.5
 21
-13.0
 31
0.0
  0
LINE
  5
115
330
B8
100
AcDbEntity
  8
PEN1
  6
LTY1
100
AcDbLine
 10
0.5
 20
-13.0
 30
0.0
 11
8.5
 21
-13.0
 31
0.0
  0
LINE
  5
116
330
B8
100
AcDbEntity
  8
PEN1
  6
LTY1
100
AcDbLine
 10
8.5
 20
-13.0
 30
0.0
 11
9.0
 21
-12.5
 31
0.0
  0
LINE
  5
117
330
B8
100
AcDbEntity
  8
PEN1
  6
LTY1
100
AcDbLine
 10
0.0
 20
-11.5
 30
0.0
 11
0.5
 21
-12.0
 31
0.0
  0
LINE
  5
118
330
B8
100
AcDbEntity
  8
PEN1
  6
LTY1
100
AcDbLine
 10
0.5
 20
-12.0
 30
0.0
 11
8.5
 21
-12.0
 31
0.0
  0
LINE
  5
119
330
B8
100
AcDbEntity
  8
PEN1
  6
LTY1
100
AcDbLine
 10
8.5
 20
-12.0
 30
0.0
 11
9.0
 21
-11.5
 31
0.0
  0
LINE
  5
11A
330
B8
100
AcDbEntity
  8
PEN1
  6
LTY1
100
AcDbLine
 10
0.0
 20
-10.5
 30
0.0
 11
0.5
 21
-11.0
 31
0.0
  0
LINE
  5
11B
330
B8
100
AcDbEntity
  8
PEN1
  6
LTY1
100
AcDbLine
 10
0.5
 20
-11.0
 30
0.0
 11
8.5
 21
-11.0
 31
0.0
  0
LINE
  5
11C
330
B8
100
AcDbEntity
  8
PEN1
  6
LTY1
100
AcDbLine
 10
8.5
 20
-11.0
 30
0.0
 11
9.0
 21
-10.5
 31
0.0
  0
LINE
  5
11D
330
B8
100
AcDbEntity
  8
PEN1
  6
LTY1
100
AcDbLine
 10
6.0
 20
-9.0
 30
0.0
 11
6.0
 21
-11.0
 31
0.0
  0
LINE
  5
11E
330
B8
100
AcDbEntity
  8
PEN1
  6
LTY1
100
AcDbLine
 10
6.0
 20
-11.0
 30
0.0
 11
7.5
 21
-11.0
 31
0.0
  0
LINE
  5
11F
330
B8
100
AcDbEntity
  8
PEN1
  6
LTY1
100
AcDbLine
 10
7.5
 20
-11.0
 30
0.0
 11
8.0
 21
-11.0
 31
0.0
  0
LINE
  5
120
330
B8
100
AcDbEntity
  8
PEN1
  6
LTY1
100
AcDbLine
 10
8.0
 20
-11.0
 30
0.0
 11
8.0
 21
-9.0
 31
0.0
  0
LINE
  5
121
330
B8
100
AcDbEntity
  8
PEN1
  6
LTY1
100
AcDbLine
 10
8.0
 20
-9.0
 30
0.0
 11
6.0
 21
-9.0
 31
0.0
  0
LINE
  5
122
330
B8
100
AcDbEntity
  8
PEN1
  6
LTY1
100
AcDbLine
 10
9.0
 20
-8.5
 30
0.0
 11
18.0
 21
-8.5
 31
0.0
  0
LINE
  5
123
330
B8
100
AcDbEntity
  8
PEN1
  6
LTY1
100
AcDbLine
 10
18.0
 20
-8.5
 30
0.0
 11
18.0
 21
-14.5
 31
0.0
  0
LINE
  5
124
330
B8
100
AcDbEntity
  8
PEN1
  6
LTY1
100
AcDbLine
 10
18.0
 20
-14.5
 30
0.0
 11
9.0
 21
-14.5
 31
0.0
  0
LINE
  5
125
330
B8
100
AcDbEntity
  8
PEN1
  6
LTY1
100
AcDbLine
 10
9.0
 20
-14.5
 30
0.0
 11
9.0
 21
-8.5
 31
0.0
  0
LINE
  5
126
330
B8
100
AcDbEntity
  8
PEN1
  6
LTY1
100
AcDbLine
 10
9.0
 20
-13.5
 30
0.0
 11
9.5
 21
-14.0
 31
0.0
  0
LINE
  5
127
330
B8
100
AcDbEntity
  8
PEN1
  6
LTY1
100
AcDbLine
 10
9.5
 20
-14.0
 30
0.0
 11
17.5
 21
-14.0
 31
0.0
  0
LINE
  5
128
330
B8
100
AcDbEntity
  8
PEN1
  6
LTY1
100
AcDbLine
 10
17.5
 20
-14.0
 30
0.0
 11
18.0
 21
-13.5
 31
0.0
  0
LINE
  5
129
330
B8
100
AcDbEntity
  8
PEN1
  6
LTY1
100
AcDbLine
 10
9.0
 20
-12.5
 30
0.0
 11
9.5
 21
-13.0
 31
0.0
  0
LINE
  5
12A
330
B8
100
AcDbEntity
  8
PEN1
  6
LTY1
100
AcDbLine
 10
9.5
 20
-13.0
 30
0.0
 11
17.5
 21
-13.0
 31
0.0
  0
LINE
  5
12B
330
B8
100
AcDbEntity
  8
PEN1
  6
LTY1
100
AcDbLine
 10
17.5
 20
-13.0
 30
0.0
 11
18.0
 21
-12.5
 31
0.0
  0
LINE
  5
12C
330
B8
100
AcDbEntity
  8
PEN1
  6
LTY1
100
AcDbLine
 10
9.0
 20
-11.5
 30
0.0
 11
9.5
 21
-12.0
 31
0.0
  0
LINE
  5
12D
330
B8
100
AcDbEntity
  8
PEN1
  6
LTY1
100
AcDbLine
 10
9.5
 20
-12.0
 30
0.0
 11
17.5
 21
-12.0
 31
0.0
  0
LINE
  5
12E
330
B8
100
AcDbEntity
  8
PEN1
  6
LTY1
100
AcDbLine
 10
17.5
 20
-12.0
 30
0.0
 11
18.0
 21
-11.5
 31
0.0
  0
LINE
  5
12F
330
B8
100
AcDbEntity
  8
PEN1
  6
LTY1
100
AcDbLine
 10
9.0
 20
-10.5
 30
0.0
 11
9.5
 21
-11.0
 31
0.0
  0
LINE
  5
130
330
B8
100
AcDbEntity
  8
PEN1
  6
LTY1
100
AcDbLine
 10
9.5
 20
-11.0
 30
0.0
 11
17.5
 21
-11.0
 31
0.0
  0
LINE
  5
131
330
B8
100
AcDbEntity
  8
PEN1
  6
LTY1
100
AcDbLine
 10
17.5
 20
-11.0
 30
0.0
 11
18.0
 21
-10.5
 31
0.0
  0
LINE
  5
132
330
B8
100
AcDbEntity
  8
PEN1
  6
LTY1
100
AcDbLine
 10
15.0
 20
-9.0
 30
0.0
 11
15.0
 21
-11.0
 31
0.0
  0
LINE
  5
133
330
B8
100
AcDbEntity
  8
PEN1
  6
LTY1
100
AcDbLine
 10
15.0
 20
-11.0
 30
0.0
 11
16.5
 21
-11.0
 31
0.0
  0
LINE
  5
134
330
B8
100
AcDbEntity
  8
PEN1
  6
LTY1
100
AcDbLine
 10
16.5
 20
-11.0
 30
0.0
 11
17.0
 21
-11.0
 31
0.0
  0
LINE
  5
135
330
B8
100
AcDbEntity
  8
PEN1
  6
LTY1
100
AcDbLine
 10
17.0
 20
-11.0
 30
0.0
 11
17.0
 21
-9.0
 31
0.0
  0
LINE
  5
136
330
B8
100
AcDbEntity
  8
PEN1
  6
LTY1
100
AcDbLine
 10
17.0
 20
-9.0
 30
0.0
 11
15.0
 21
-9.0
 31
0.0
  0
LINE
  5
137
330
B8
100
AcDbEntity
  8
PEN1
  6
LTY1
100
AcDbLine
 10
18.0
 20
-8.5
 30
0.0
 11
27.0
 21
-8.5
 31
0.0
  0
LINE
  5
138
330
B8
100
AcDbEntity
  8
PEN1
  6
LTY1
100
AcDbLine
 10
27.0
 20
-8.5
 30
0.0
 11
27.0
 21
-14.5
 31
0.0
  0
LINE
  5
139
330
B8
100
AcDbEntity
  8
PEN1
  6
LTY1
100
AcDbLine
 10
27.0
 20
-14.5
 30
0.0
 11
18.0
 21
-14.5
 31
0.0
  0
LINE
  5
13A
330
B8
100
AcDbEntity
  8
PEN1
  6
LTY1
100
AcDbLine
 10
18.0
 20
-14.5
 30
0.0
 11
18.0
 21
-8.5
 31
0.0
  0
LINE
  5
13B
330
B8
100
AcDbEntity
  8
PEN1
  6
LTY1
100
AcDbLine
 10
18.0
 20
-13.5
 30
0.0
 11
18.5
 21
-14.0
 31
0.0
  0
LINE
  5
13C
330
B8
100
AcDbEntity
  8
PEN1
  6
LTY1
100
AcDbLine
 10
18.5
 20
-14.0
 30
0.0
 11
26.5
 21
-14.0
 31
0.0
  0
LINE
  5
13D
330
B8
100
AcDbEntity
  8
PEN1
  6
LTY1
100
AcDbLine
 10
26.5
 20
-14.0
 30
0.0
 11
27.0
 21
-13.5
 31
0.0
  0
LINE
  5
13E
330
B8
100
AcDbEntity
  8
PEN1
  6
LTY1
100
AcDbLine
 10
18.0
 20
-12.5
 30
0.0
 11
18.5
 21
-13.0
 31
0.0
  0
LINE
  5
13F
330
B8
100
AcDbEntity
  8
PEN1
  6
LTY1
100
AcDbLine
 10
18.5
 20
-13.0
 30
0.0
 11
26.5
 21
-13.0
 31
0.0
  0
LINE
  5
140
330
B8
100
AcDbEntity
  8
PEN1
  6
LTY1
100
AcDbLine
 10
26.5
 20
-13.0
 30
0.0
 11
27.0
 21
-12.5
 31
0.0
  0
LINE
  5
141
330
B8
100
AcDbEntity
  8
PEN1
  6
LTY1
100
AcDbLine
 10
18.0
 20
-11.5
 30
0.0
 11
18.5
 21
-12.0
 31
0.0
  0
LINE
  5
142
330
B8
100
AcDbEntity
  8
PEN1
  6
LTY1
100
AcDbLine
 10
18.5
 20
-12.0
 30
0.0
 11
26.5
 21
-12.0
 31
0.0
  0
LINE
  5
143
330
B8
100
AcDbEntity
  8
PEN1
  6
LTY1
100
AcDbLine
 10
26.5
 20
-12.0
 30
0.0
 11
27.0
 21
-11.5
 31
0.0
  0
LINE
  5
144
330
B8
100
AcDbEntity
  8
PEN1
  6
LTY1
100
AcDbLine
 10
18.0
 20
-10.5
 30
0.0
 11
18.5
 21
-11.0
 31
0.0
  0
LINE
  5
145
330
B8
100
AcDbEntity
  8
PEN1
  6
LTY1
100
AcDbLine
 10
18.5
 20
-11.0
 30
0.0
 11
26.5
 21
-11.0
 31
0.0
  0
LINE
  5
146
330
B8
100
AcDbEntity
  8
PEN1
  6
LTY1
100
AcDbLine
 10
26.5
 20
-11.0
 30
0.0
 11
27.0
 21
-10.5
 31
0.0
  0
LINE
  5
147
330
B8
100
AcDbEntity
  8
PEN1
  6
LTY1
100
AcDbLine
 10
24.0
 20
-9.0
 30
0.0
 11
24.0
 21
-11.0
 31
0.0
  0
LINE
  5
148
330
B8
100
AcDbEntity
  8
PEN1
  6
LTY1
100
AcDbLine
 10
24.0
 20
-11.0
 30
0.0
 11
25.5
 21
-11.0
 31
0.0
  0
LINE
  5
149
330
B8
100
AcDbEntity
  8
PEN1
  6
LTY1
100
AcDbLine
 10
25.5
 20
-11.0
 30
0.0
 11
26.0
 21
-11.0
 31
0.0
  0
LINE
  5
14A
330
B8
100
AcDbEntity
  8
PEN1
  6
LTY1
100
AcDbLine
 10
26.0
 20
-11.0
 30
0.0
 11
26.0
 21
-9.0
 31
0.0
  0
LINE
  5
14B
330
B8
100
AcDbEntity
  8
PEN1
  6
LTY1
100
AcDbLine
 10
26.0
 20
-9.0
 30
0.0
 11
24.0
 21
-9.0
 31
0.0
  0
LINE
  5
14C
330
B8
100
AcDbEntity
  8
PEN1
  6
LTY1
100
AcDbLine
 10
27.0
 20
-8.5
 30
0.0
 11
36.0
 21
-8.5
 31
0.0
  0
LINE
  5
14D
330
B8
100
AcDbEntity
  8
PEN1
  6
LTY1
100
AcDbLine
 10
36.0
 20
-8.5
 30
0.0
 11
36.0
 21
-14.5
 31
0.0
  0
LINE
  5
14E
330
B8
100
AcDbEntity
  8
PEN1
  6
LTY1
100
AcDbLine
 10
36.0
 20
-14.5
 30
0.0
 11
27.0
 21
-14.5
 31
0.0
  0
LINE
  5
14F
330
B8
100
AcDbEntity
  8
PEN1
  6
LTY1
100
AcDbLine
 10
27.0
 20
-14.5
 30
0.0
 11
27.0
 21
-8.5
 31
0.0
  0
LINE
  5
150
330
B8
100
AcDbEntity
  8
PEN1
  6
LTY1
100
AcDbLine
 10
27.0
 20
-13.5
 30
0.0
 11
27.5
 21
-14.0
 31
0.0
  0
LINE
  5
151
330
B8
100
AcDbEntity
  8
PEN1
  6
LTY1
100
AcDbLine
 10
27.5
 20
-14.0
 30
0.0
 11
35.5
 21
-14.0
 31
0.0
  0
LINE
  5
152
330
B8
100
AcDbEntity
  8
PEN1
  6
LTY1
100
AcDbLine
 10
35.5
 20
-14.0
 30
0.0
 11
36.0
 21
-13.5
 31
0.0
  0
LINE
  5
153
330
B8
100
AcDbEntity
  8
PEN1
  6
LTY1
100
AcDbLine
 10
27.0
 20
-12.5
 30
0.0
 11
27.5
 21
-13.0
 31
0.0
  0
LINE
  5
154
330
B8
100
AcDbEntity
  8
PEN1
  6
LTY1
100
AcDbLine
 10
27.5
 20
-13.0
 30
0.0
 11
35.5
 21
-13.0
 31
0.0
  0
LINE
  5
155
330
B8
100
AcDbEntity
  8
PEN1
  6
LTY1
100
AcDbLine
 10
35.5
 20
-13.0
 30
0.0
 11
36.0
 21
-12.5
 31
0.0
  0
LINE
  5
156
330
B8
100
AcDbEntity
  8
PEN1
  6
LTY1
100
AcDbLine
 10
27.0
 20
-11.5
 30
0.0
 11
27.5
 21
-12.0
 31
0.0
  0
LINE
  5
157
330
B8
100
AcDbEntity
  8
PEN1
  6
LTY1
100
AcDbLine
 10
27.5
 20
-12.0
 30
0.0
 11
35.5
 21
-12.0
 31
0.0
  0
LINE
  5
158
330
B8
100
AcDbEntity
  8
PEN1
  6
LTY1
100
AcDbLine
 10
35.5
 20
-12.0
 30
0.0
 11
36.0
 21
-11.5
 31
0.0
  0
LINE
  5
159
330
B8
100
AcDbEntity
  8
PEN1
  6
LTY1
100
AcDbLine
 10
27.0
 20
-10.5
 30
0.0
 11
27.5
 21
-11.0
 31
0.0
  0
LINE
  5
15A
330
B8
100
AcDbEntity
  8
PEN1
  6
LTY1
100
AcDbLine
 10
27.5
 20
-11.0
 30
0.0
 11
35.5
 21
-11.0
 31
0.0
  0
LINE
  5
15B
330
B8
100
AcDbEntity
  8
PEN1
  6
LTY1
100
AcDbLine
 10
35.5
 20
-11.0
 30
0.0
 11
36.0
 21
-10.5
 31
0.0
  0
LINE
  5
15C
330
B8
100
AcDbEntity
  8
PEN1
  6
LTY1
100
AcDbLine
 10
33.0
 20
-9.0
 30
0.0
 11
33.0
 21
-11.0
 31
0.0
  0
LINE
  5
15D
330
B8
100
AcDbEntity
  8
PEN1
  6
LTY1
100
AcDbLine
 10
33.0
 20
-11.0
 30
0.0
 11
34.5
 21
-11.0
 31
0.0
  0
LINE
  5
15E
330
B8
100
AcDbEntity
  8
PEN1
  6
LTY1
100
AcDbLine
 10
34.5
 20
-11.0
 30
0.0
 11
35.0
 21
-11.0
 31
0.0
  0
LINE
  5
15F
330
B8
100
AcDbEntity
  8
PEN1
  6
LTY1
100
AcDbLine
 10
35.0
 20
-11.0
 30
0.0
 11
35.0
 21
-9.0
 31
0.0
  0
LINE
  5
160
330
B8
100
AcDbEntity
  8
PEN1
  6
LTY1
100
AcDbLine
 10
35.0
 20
-9.0
 30
0.0
 11
33.0
 21
-9.0
 31
0.0
  0
LINE
  5
161
330
B8
100
AcDbEntity
  8
PEN1
  6
LTY1
100
AcDbLine
 10
-30.0
 20
-24.5
 30
0.0
 11
-30.0
 21
-31.0
 31
0.0
  0
LINE
  5
162
330
B8
100
AcDbEntity
  8
PEN1
  6
LTY1
100
AcDbLine
 10
-30.0
 20
-31.0
 30
0.0
 11
9.0
 21
-31.0
 31
0.0
  0
LINE
  5
163
330
B8
100
AcDbEntity
  8
PEN1
  6
LTY1
100
AcDbLine
 10
9.0
 20
-31.0
 30
0.0
 11
9.0
 21
-24.5
 31
0.0
  0
LINE
  5
164
330
B8
100
AcDbEntity
  8
PEN1
  6
LTY1
100
AcDbLine
 10
9.0
 20
-24.5
 30
0.0
 11
-30.0
 21
-24.5
 31
0.0
  0
LINE
  5
165
330
B8
100
AcDbEntity
  8
PEN1
  6
LTY1
100
AcDbLine
 10
-30.0
 20
-32.5
 30
0.0
 11
-30.0
 21
-39.0
 31
0.0
  0
LINE
  5
166
330
B8
100
AcDbEntity
  8
PEN1
  6
LTY1
100
AcDbLine
 10
-30.0
 20
-39.0
 30
0.0
 11
9.0
 21
-39.0
 31
0.0
  0
LINE
  5
167
330
B8
100
AcDbEntity
  8
PEN1
  6
LTY1
100
AcDbLine
 10
9.0
 20
-39.0
 30
0.0
 11
9.0
 21
-32.5
 31
0.0
  0
LINE
  5
168
330
B8
100
AcDbEntity
  8
PEN1
  6
LTY1
100
AcDbLine
 10
9.0
 20
-32.5
 30
0.0
 11
-30.0
 21
-32.5
 31
0.0
  0
ARC
  5
169
330
B8
100
AcDbEntity
  8
PEN1
  6
LTY1
100
AcDbCircle
 10
-33.5
 20
-38.0
 30
0.0
 40
2.5
100
AcDbArc
 50
180.0
 51
270.0
  0
ARC
  5
16A
330
B8
100
AcDbEntity
  8
PEN1
  6
LTY1
100
AcDbCircle
 10
33.5
 20
-38.0
 30
0.0
 40
2.5
100
AcDbArc
 50
270.0
 51
0.0
  0
LINE
  5
16B
330
B8
100
AcDbEntity
  8
PEN1
  6
LTY1
100
AcDbLine
 10
15.0
 20
-35.0
 30
0.0
 11
15.0
 21
-39.5
 31
0.0
  0
LINE
  5
16C
330
B8
100
AcDbEntity
  8
PEN1
  6
LTY1
100
AcDbLine
 10
15.0
 20
-39.5
 30
0.0
 11
29.5
 21
-39.5
 31
0.0
  0
LINE
  5
16D
330
B8
100
AcDbEntity
  8
PEN1
  6
LTY1
100
AcDbLine
 10
29.5
 20
-39.5
 30
0.0
 11
29.5
 21
-35.0
 31
0.0
  0
LINE
  5
16E
330
B8
100
AcDbEntity
  8
PEN1
  6
LTY1
100
AcDbLine
 10
29.5
 20
-35.0
 30
0.0
 11
15.0
 21
-35.0
 31
0.0
  0
CIRCLE
  5
16F
330
B8
100
AcDbEntity
  8
PEN1
  6
LTY1
100
AcDbCircle
 10
17.0
 20
-37.5
 30
0.0
 40
1.5
  0
CIRCLE
  5
170
330
B8
100
AcDbEntity
  8
PEN1
  6
LTY1
100
AcDbCircle
 10
20.5
 20
-37.5
 30
0.0
 40
1.5
  0
CIRCLE
  5
171
330
B8
100
AcDbEntity
  8
PEN1
  6
LTY1
100
AcDbCircle
 10
24.0
 20
-37.5
 30
0.0
 40
1.5
  0
CIRCLE
  5
172
330
B8
100
AcDbEntity
  8
PEN1
  6
LTY1
100
AcDbCircle
 10
27.5
 20
-37.5
 30
0.0
 40
1.5
  0
LINE
  5
173
330
B8
100
AcDbEntity
  8
PEN1
  6
LTY1
100
AcDbLine
 10
12.0
 20
-30.5
 30
0.0
 11
12.0
 21
-35.0
 31
0.0
  0
LINE
  5
174
330
B8
100
AcDbEntity
  8
PEN1
  6
LTY1
100
AcDbLine
 10
12.0
 20
-35.0
 30
0.0
 11
26.5
 21
-35.0
 31
0.0
  0
LINE
  5
175
330
B8
100
AcDbEntity
  8
PEN1
  6
LTY1
100
AcDbLine
 10
26.5
 20
-35.0
 30
0.0
 11
26.5
 21
-30.5
 31
0.0
  0
LINE
  5
176
330
B8
100
AcDbEntity
  8
PEN1
  6
LTY1
100
AcDbLine
 10
26.5
 20
-30.5
 30
0.0
 11
12.0
 21
-30.5
 31
0.0
  0
CIRCLE
  5
177
330
B8
100
AcDbEntity
  8
PEN1
  6
LTY1
100
AcDbCircle
 10
14.0
 20
-33.0
 30
0.0
 40
1.5
  0
CIRCLE
  5
178
330
B8
100
AcDbEntity
  8
PEN1
  6
LTY1
100
AcDbCircle
 10
17.5
 20
-33.0
 30
0.0
 40
1.5
  0
CIRCLE
  5
179
330
B8
100
AcDbEntity
  8
PEN1
  6
LTY1
100
AcDbCircle
 10
21.0
 20
-33.0
 30
0.0
 40
1.5
  0
CIRCLE
  5
17A
330
B8
100
AcDbEntity
  8
PEN1
  6
LTY1
100
AcDbCircle
 10
24.5
 20
-33.0
 30
0.0
 40
1.5
  0
LINE
  5
17B
330
B8
100
AcDbEntity
  8
PEN1
  6
LTY1
100
AcDbLine
 10
-24.0
 20
-34.5
 30
0.0
 11
-24.0
 21
-37.5
 31
0.0
  0
LINE
  5
17C
330
B8
100
AcDbEntity
  8
PEN1
  6
LTY1
100
AcDbLine
 10
-24.0
 20
-37.5
 30
0.0
 11
3.5
 21
-37.5
 31
0.0
  0
LINE
  5
17D
330
B8
100
AcDbEntity
  8
PEN1
  6
LTY1
100
AcDbLine
 10
3.5
 20
-37.5
 30
0.0
 11
3.5
 21
-34.5
 31
0.0
  0
LINE
  5
17E
330
B8
100
AcDbEntity
  8
PEN1
  6
LTY1
100
AcDbLine
 10
3.5
 20
-34.5
 30
0.0
 11
-24.0
 21
-34.5
 31
0.0
  0
LINE
  5
17F
330
B8
100
AcDbEntity
  8
PEN1
  6
LTY1
100
AcDbLine
 10
-24.0
 20
-26.5
 30
0.0
 11
-24.0
 21
-29.5
 31
0.0
  0
LINE
  5
180
330
B8
100
AcDbEntity
  8
PEN1
  6
LTY1
100
AcDbLine
 10
-24.0
 20
-29.5
 30
0.0
 11
3.5
 21
-29.5
 31
0.0
  0
LINE
  5
181
330
B8
100
AcDbEntity
  8
PEN1
  6
LTY1
100
AcDbLine
 10
3.5
 20
-29.5
 30
0.0
 11
3.5
 21
-26.5
 31
0.0
  0
LINE
  5
182
330
B8
100
AcDbEntity
  8
PEN1
  6
LTY1
100
AcDbLine
 10
3.5
 20
-26.5
 30
0.0
 11
-24.0
 21
-26.5
 31
0.0
  0
LINE
  5
183
330
B8
100
AcDbEntity
  8
PEN1
  6
LTY1
100
AcDbLine
 10
-33.5
 20
-40.5
 30
0.0
 11
33.5
 21
-40.5
 31
0.0
  0
LINE
  5
184
330
B8
100
AcDbEntity
  8
PEN1
  6
LTY1
100
AcDbLine
 10
-36.0
 20
-37.5
 30
0.0
 11
-36.0
 21
-9.0
 31
0.0
  0
LINE
  5
185
330
B8
100
AcDbEntity
  8
PEN1
  6
LTY1
100
AcDbLine
 10
36.0
 20
-37.5
 30
0.0
 11
36.0
 21
-9.0
 31
0.0
  0
LINE
  5
186
330
B8
100
AcDbEntity
  8
PEN1
  6
LTY1
100
AcDbLine
 10
-27.0
 20
-8.5
 30
0.0
 11
-27.0
 21
41.2
 31
0.0
  0
LINE
  5
187
330
B8
100
AcDbEntity
  8
PEN1
  6
LTY1
100
AcDbLine
 10
-33.4
 20
2.7
 30
0.0
 11
-29.9
 21
2.7
 31
0.0
  0
LINE
  5
188
330
B8
100
AcDbEntity
  8
PEN1
  6
LTY1
100
AcDbLine
 10
-29.9
 20
2.7
 30
0.0
 11
-29.9
 21
-0.8
 31
0.0
  0
LINE
  5
189
330
B8
100
AcDbEntity
  8
PEN1
  6
LTY1
100
AcDbLine
 10
-29.9
 20
-0.8
 30
0.0
 11
-33.4
 21
-0.8
 31
0.0
  0
LINE
  5
18A
330
B8
100
AcDbEntity
  8
PEN1
  6
LTY1
100
AcDbLine
 10
-33.4
 20
-0.8
 30
0.0
 11
-33.4
 21
2.7
 31
0.0
  0
LINE
  5
18B
330
B8
100
AcDbEntity
  8
PEN1
  6
LTY1
100
AcDbLine
 10
-32.4
 20
1.7
 30
0.0
 11
-30.8
 21
1.7
 31
0.0
  0
LINE
  5
18C
330
B8
100
AcDbEntity
  8
PEN1
  6
LTY1
100
AcDbLine
 10
-30.8
 20
1.7
 30
0.0
 11
-30.1
 21
1.4
 31
0.0
  0
LINE
  5
18D
330
B8
100
AcDbEntity
  8
PEN1
  6
LTY1
100
AcDbLine
 10
-30.1
 20
1.4
 30
0.0
 11
-30.1
 21
0.5
 31
0.0
  0
LINE
  5
18E
330
B8
100
AcDbEntity
  8
PEN1
  6
LTY1
100
AcDbLine
 10
-30.1
 20
0.5
 30
0.0
 11
-30.8
 21
0.2
 31
0.0
  0
LINE
  5
18F
330
B8
100
AcDbEntity
  8
PEN1
  6
LTY1
100
AcDbLine
 10
-30.8
 20
0.2
 30
0.0
 11
-32.5
 21
0.2
 31
0.0
  0
LINE
  5
190
330
B8
100
AcDbEntity
  8
PEN1
  6
LTY1
100
AcDbLine
 10
-32.5
 20
0.2
 30
0.0
 11
-33.1
 21
0.5
 31
0.0
  0
LINE
  5
191
330
B8
100
AcDbEntity
  8
PEN1
  6
LTY1
100
AcDbLine
 10
-33.1
 20
0.5
 30
0.0
 11
-33.1
 21
1.4
 31
0.0
  0
LINE
  5
192
330
B8
100
AcDbEntity
  8
PEN1
  6
LTY1
100
AcDbLine
 10
-33.1
 20
1.4
 30
0.0
 11
-32.4
 21
1.7
 31
0.0
  0
LINE
  5
193
330
B8
100
AcDbEntity
  8
PEN1
  6
LTY1
100
AcDbLine
 10
-31.1
 20
19.9
 30
0.0
 11
-31.1
 21
14.4
 31
0.0
  0
LINE
  5
194
330
B8
100
AcDbEntity
  8
PEN1
  6
LTY1
100
AcDbLine
 10
-31.1
 20
14.4
 30
0.0
 11
-28.9
 21
14.4
 31
0.0
  0
LINE
  5
195
330
B8
100
AcDbEntity
  8
PEN1
  6
LTY1
100
AcDbLine
 10
-28.9
 20
14.4
 30
0.0
 11
-28.9
 21
19.9
 31
0.0
  0
LINE
  5
196
330
B8
100
AcDbEntity
  8
PEN1
  6
LTY1
100
AcDbLine
 10
-28.9
 20
19.9
 30
0.0
 11
-31.1
 21
19.9
 31
0.0
  0
LINE
  5
197
330
B8
100
AcDbEntity
  8
PEN1
  6
LTY1
100
AcDbLine
 10
-35.0
 20
34.9
 30
0.0
 11
-35.0
 21
-1.8
 31
0.0
  0
LINE
  5
198
330
B8
100
AcDbEntity
  8
PEN1
  6
LTY1
100
AcDbLine
 10
-35.0
 20
-1.8
 30
0.0
 11
-28.0
 21
-1.8
 31
0.0
  0
LINE
  5
199
330
B8
100
AcDbEntity
  8
PEN1
  6
LTY1
100
AcDbLine
 10
-28.0
 20
-1.8
 30
0.0
 11
-28.0
 21
34.9
 31
0.0
  0
LINE
  5
19A
330
B8
100
AcDbEntity
  8
PEN1
  6
LTY1
100
AcDbLine
 10
-28.0
 20
34.9
 30
0.0
 11
-35.0
 21
34.9
 31
0.0
  0
LINE
  5
19B
330
B8
100
AcDbEntity
  8
PEN1
  6
LTY1
100
AcDbLine
 10
-27.0
 20
41.2
 30
0.0
 11
-27.0
 21
-8.4
 31
0.0
  0
LINE
  5
19C
330
B8
100
AcDbEntity
  8
PEN1
  6
LTY1
100
AcDbLine
 10
-36.0
 20
41.2
 30
0.0
 11
-27.0
 21
41.2
 31
0.0
  0
LINE
  5
19D
330
B8
100
AcDbEntity
  8
PEN1
  6
LTY1
100
AcDbLine
 10
-27.0
 20
35.6
 30
0.0
 11
-36.0
 21
35.6
 31
0.0
  0
LINE
  5
19E
330
B8
100
AcDbEntity
  8
PEN1
  6
LTY1
100
AcDbLine
 10
-27.0
 20
-8.5
 30
0.0
 11
-27.0
 21
41.2
 31
0.0
  0
LINE
  5
19F
330
B8
100
AcDbEntity
  8
PEN1
  6
LTY1
100
AcDbLine
 10
-27.0
 20
41.2
 30
0.0
 11
-27.0
 21
-8.4
 31
0.0
  0
LINE
  5
1A0
330
B8
100
AcDbEntity
  8
PEN1
  6
LTY1
100
AcDbLine
 10
-27.0
 20
-8.5
 30
0.0
 11
-27.0
 21
41.2
 31
0.0
  0
LINE
  5
1A1
330
B8
100
AcDbEntity
  8
PEN1
  6
LTY1
100
AcDbLine
 10
-27.0
 20
41.2
 30
0.0
 11
-27.0
 21
-8.4
 31
0.0
  0
LINE
  5
1A2
330
B8
100
AcDbEntity
  8
PEN1
  6
LTY1
100
AcDbLine
 10
-27.0
 20
-8.5
 30
0.0
 11
-27.0
 21
41.2
 31
0.0
  0
LINE
  5
1A3
330
B8
100
AcDbEntity
  8
PEN1
  6
LTY1
100
AcDbLine
 10
-27.0
 20
41.2
 30
0.0
 11
-27.0
 21
-8.4
 31
0.0
  0
LINE
  5
1A4
330
B8
100
AcDbEntity
  8
PEN1
  6
LTY1
100
AcDbLine
 10
-27.0
 20
-8.5
 30
0.0
 11
-27.0
 21
41.2
 31
0.0
  0
LINE
  5
1A5
330
B8
100
AcDbEntity
  8
PEN1
  6
LTY1
100
AcDbLine
 10
-27.0
 20
41.2
 30
0.0
 11
-27.0
 21
-8.4
 31
0.0
  0
LINE
  5
1A6
330
B8
100
AcDbEntity
  8
PEN1
  6
LTY1
100
AcDbLine
 10
-27.0
 20
-8.5
 30
0.0
 11
-27.0
 21
41.2
 31
0.0
  0
LINE
  5
1A7
330
B8
100
AcDbEntity
  8
PEN1
  6
LTY1
100
AcDbLine
 10
-27.0
 20
41.2
 30
0.0
 11
-27.0
 21
-8.4
 31
0.0
  0
LINE
  5
1A8
330
B8
100
AcDbEntity
  8
PEN1
  6
LTY1
100
AcDbLine
 10
-27.0
 20
-8.5
 30
0.0
 11
-27.0
 21
41.2
 31
0.0
  0
LINE
  5
1A9
330
B8
100
AcDbEntity
  8
PEN1
  6
LTY1
100
AcDbLine
 10
-27.0
 20
41.2
 30
0.0
 11
-27.0
 21
-8.4
 31
0.0
  0
LINE
  5
1AA
330
B8
100
AcDbEntity
  8
PEN1
  6
LTY1
100
AcDbLine
 10
-27.0
 20
41.2
 30
0.0
 11
-27.0
 21
-8.4
 31
0.0
  0
LINE
  5
1AB
330
B8
100
AcDbEntity
  8
PEN1
  6
LTY1
100
AcDbLine
 10
-18.0
 20
-8.5
 30
0.0
 11
-18.0
 21
41.2
 31
0.0
  0
LINE
  5
1AC
330
B8
100
AcDbEntity
  8
PEN1
  6
LTY1
100
AcDbLine
 10
-24.4
 20
2.7
 30
0.0
 11
-20.9
 21
2.7
 31
0.0
  0
LINE
  5
1AD
330
B8
100
AcDbEntity
  8
PEN1
  6
LTY1
100
AcDbLine
 10
-20.9
 20
2.7
 30
0.0
 11
-20.9
 21
-0.8
 31
0.0
  0
LINE
  5
1AE
330
B8
100
AcDbEntity
  8
PEN1
  6
LTY1
100
AcDbLine
 10
-20.9
 20
-0.8
 30
0.0
 11
-24.4
 21
-0.8
 31
0.0
  0
LINE
  5
1AF
330
B8
100
AcDbEntity
  8
PEN1
  6
LTY1
100
AcDbLine
 10
-24.4
 20
-0.8
 30
0.0
 11
-24.4
 21
2.7
 31
0.0
  0
LINE
  5
1B0
330
B8
100
AcDbEntity
  8
PEN1
  6
LTY1
100
AcDbLine
 10
-23.4
 20
1.7
 30
0.0
 11
-21.8
 21
1.7
 31
0.0
  0
LINE
  5
1B1
330
B8
100
AcDbEntity
  8
PEN1
  6
LTY1
100
AcDbLine
 10
-21.8
 20
1.7
 30
0.0
 11
-21.1
 21
1.4
 31
0.0
  0
LINE
  5
1B2
330
B8
100
AcDbEntity
  8
PEN1
  6
LTY1
100
AcDbLine
 10
-21.1
 20
1.4
 30
0.0
 11
-21.1
 21
0.5
 31
0.0
  0
LINE
  5
1B3
330
B8
100
AcDbEntity
  8
PEN1
  6
LTY1
100
AcDbLine
 10
-21.1
 20
0.5
 30
0.0
 11
-21.8
 21
0.2
 31
0.0
  0
LINE
  5
1B4
330
B8
100
AcDbEntity
  8
PEN1
  6
LTY1
100
AcDbLine
 10
-21.8
 20
0.2
 30
0.0
 11
-23.5
 21
0.2
 31
0.0
  0
LINE
  5
1B5
330
B8
100
AcDbEntity
  8
PEN1
  6
LTY1
100
AcDbLine
 10
-23.5
 20
0.2
 30
0.0
 11
-24.1
 21
0.5
 31
0.0
  0
LINE
  5
1B6
330
B8
100
AcDbEntity
  8
PEN1
  6
LTY1
100
AcDbLine
 10
-24.1
 20
0.5
 30
0.0
 11
-24.1
 21
1.4
 31
0.0
  0
LINE
  5
1B7
330
B8
100
AcDbEntity
  8
PEN1
  6
LTY1
100
AcDbLine
 10
-24.1
 20
1.4
 30
0.0
 11
-23.4
 21
1.7
 31
0.0
  0
LINE
  5
1B8
330
B8
100
AcDbEntity
  8
PEN1
  6
LTY1
100
AcDbLine
 10
-22.1
 20
19.9
 30
0.0
 11
-22.1
 21
14.4
 31
0.0
  0
LINE
  5
1B9
330
B8
100
AcDbEntity
  8
PEN1
  6
LTY1
100
AcDbLine
 10
-22.1
 20
14.4
 30
0.0
 11
-19.9
 21
14.4
 31
0.0
  0
LINE
  5
1BA
330
B8
100
AcDbEntity
  8
PEN1
  6
LTY1
100
AcDbLine
 10
-19.9
 20
14.4
 30
0.0
 11
-19.9
 21
19.9
 31
0.0
  0
LINE
  5
1BB
330
B8
100
AcDbEntity
  8
PEN1
  6
LTY1
100
AcDbLine
 10
-19.9
 20
19.9
 30
0.0
 11
-22.1
 21
19.9
 31
0.0
  0
LINE
  5
1BC
330
B8
100
AcDbEntity
  8
PEN1
  6
LTY1
100
AcDbLine
 10
-26.0
 20
34.9
 30
0.0
 11
-26.0
 21
-1.8
 31
0.0
  0
LINE
  5
1BD
330
B8
100
AcDbEntity
  8
PEN1
  6
LTY1
100
AcDbLine
 10
-26.0
 20
-1.8
 30
0.0
 11
-19.0
 21
-1.8
 31
0.0
  0
LINE
  5
1BE
330
B8
100
AcDbEntity
  8
PEN1
  6
LTY1
100
AcDbLine
 10
-19.0
 20
-1.8
 30
0.0
 11
-19.0
 21
34.9
 31
0.0
  0
LINE
  5
1BF
330
B8
100
AcDbEntity
  8
PEN1
  6
LTY1
100
AcDbLine
 10
-19.0
 20
34.9
 30
0.0
 11
-26.0
 21
34.9
 31
0.0
  0
LINE
  5
1C0
330
B8
100
AcDbEntity
  8
PEN1
  6
LTY1
100
AcDbLine
 10
-18.0
 20
41.2
 30
0.0
 11
-18.0
 21
-8.4
 31
0.0
  0
LINE
  5
1C1
330
B8
100
AcDbEntity
  8
PEN1
  6
LTY1
100
AcDbLine
 10
-27.0
 20
-8.5
 30
0.0
 11
-27.0
 21
41.2
 31
0.0
  0
LINE
  5
1C2
330
B8
100
AcDbEntity
  8
PEN1
  6
LTY1
100
AcDbLine
 10
-27.0
 20
41.2
 30
0.0
 11
-18.0
 21
41.2
 31
0.0
  0
LINE
  5
1C3
330
B8
100
AcDbEntity
  8
PEN1
  6
LTY1
100
AcDbLine
 10
-18.0
 20
35.6
 30
0.0
 11
-27.0
 21
35.6
 31
0.0
  0
LINE
  5
1C4
330
B8
100
AcDbEntity
  8
PEN1
  6
LTY1
100
AcDbLine
 10
-18.0
 20
-8.5
 30
0.0
 11
-18.0
 21
41.2
 31
0.0
  0
LINE
  5
1C5
330
B8
100
AcDbEntity
  8
PEN1
  6
LTY1
100
AcDbLine
 10
-18.0
 20
41.2
 30
0.0
 11
-18.0
 21
-8.4
 31
0.0
  0
LINE
  5
1C6
330
B8
100
AcDbEntity
  8
PEN1
  6
LTY1
100
AcDbLine
 10
-18.0
 20
-8.5
 30
0.0
 11
-18.0
 21
41.2
 31
0.0
  0
LINE
  5
1C7
330
B8
100
AcDbEntity
  8
PEN1
  6
LTY1
100
AcDbLine
 10
-18.0
 20
41.2
 30
0.0
 11
-18.0
 21
-8.4
 31
0.0
  0
LINE
  5
1C8
330
B8
100
AcDbEntity
  8
PEN1
  6
LTY1
100
AcDbLine
 10
-18.0
 20
-8.5
 30
0.0
 11
-18.0
 21
41.2
 31
0.0
  0
LINE
  5
1C9
330
B8
100
AcDbEntity
  8
PEN1
  6
LTY1
100
AcDbLine
 10
-18.0
 20
41.2
 30
0.0
 11
-18.0
 21
-8.4
 31
0.0
  0
LINE
  5
1CA
330
B8
100
AcDbEntity
  8
PEN1
  6
LTY1
100
AcDbLine
 10
-18.0
 20
-8.5
 30
0.0
 11
-18.0
 21
41.2
 31
0.0
  0
LINE
  5
1CB
330
B8
100
AcDbEntity
  8
PEN1
  6
LTY1
100
AcDbLine
 10
-18.0
 20
41.2
 30
0.0
 11
-18.0
 21
-8.4
 31
0.0
  0
LINE
  5
1CC
330
B8
100
AcDbEntity
  8
PEN1
  6
LTY1
100
AcDbLine
 10
-18.0
 20
-8.5
 30
0.0
 11
-18.0
 21
41.2
 31
0.0
  0
LINE
  5
1CD
330
B8
100
AcDbEntity
  8
PEN1
  6
LTY1
100
AcDbLine
 10
-18.0
 20
41.2
 30
0.0
 11
-18.0
 21
-8.4
 31
0.0
  0
LINE
  5
1CE
330
B8
100
AcDbEntity
  8
PEN1
  6
LTY1
100
AcDbLine
 10
-18.0
 20
-8.5
 30
0.0
 11
-18.0
 21
41.2
 31
0.0
  0
LINE
  5
1CF
330
B8
100
AcDbEntity
  8
PEN1
  6
LTY1
100
AcDbLine
 10
-18.0
 20
41.2
 30
0.0
 11
-18.0
 21
-8.4
 31
0.0
  0
LINE
  5
1D0
330
B8
100
AcDbEntity
  8
PEN1
  6
LTY1
100
AcDbLine
 10
-18.0
 20
-8.5
 30
0.0
 11
-18.0
 21
41.2
 31
0.0
  0
LINE
  5
1D1
330
B8
100
AcDbEntity
  8
PEN1
  6
LTY1
100
AcDbLine
 10
-18.0
 20
41.2
 30
0.0
 11
-18.0
 21
-8.4
 31
0.0
  0
LINE
  5
1D2
330
B8
100
AcDbEntity
  8
PEN1
  6
LTY1
100
AcDbLine
 10
-18.0
 20
41.2
 30
0.0
 11
-18.0
 21
-8.4
 31
0.0
  0
LINE
  5
1D3
330
B8
100
AcDbEntity
  8
PEN1
  6
LTY1
100
AcDbLine
 10
-9.0
 20
-8.5
 30
0.0
 11
-9.0
 21
41.2
 31
0.0
  0
LINE
  5
1D4
330
B8
100
AcDbEntity
  8
PEN1
  6
LTY1
100
AcDbLine
 10
-15.4
 20
2.7
 30
0.0
 11
-11.9
 21
2.7
 31
0.0
  0
LINE
  5
1D5
330
B8
100
AcDbEntity
  8
PEN1
  6
LTY1
100
AcDbLine
 10
-11.9
 20
2.7
 30
0.0
 11
-11.9
 21
-0.8
 31
0.0
  0
LINE
  5
1D6
330
B8
100
AcDbEntity
  8
PEN1
  6
LTY1
100
AcDbLine
 10
-11.9
 20
-0.8
 30
0.0
 11
-15.4
 21
-0.8
 31
0.0
  0
LINE
  5
1D7
330
B8
100
AcDbEntity
  8
PEN1
  6
LTY1
100
AcDbLine
 10
-15.4
 20
-0.8
 30
0.0
 11
-15.4
 21
2.7
 31
0.0
  0
LINE
  5
1D8
330
B8
100
AcDbEntity
  8
PEN1
  6
LTY1
100
AcDbLine
 10
-14.4
 20
1.7
 30
0.0
 11
-12.8
 21
1.7
 31
0.0
  0
LINE
  5
1D9
330
B8
100
AcDbEntity
  8
PEN1
  6
LTY1
100
AcDbLine
 10
-12.8
 20
1.7
 30
0.0
 11
-12.1
 21
1.4
 31
0.0
  0
LINE
  5
1DA
330
B8
100
AcDbEntity
  8
PEN1
  6
LTY1
100
AcDbLine
 10
-12.1
 20
1.4
 30
0.0
 11
-12.1
 21
0.5
 31
0.0
  0
LINE
  5
1DB
330
B8
100
AcDbEntity
  8
PEN1
  6
LTY1
100
AcDbLine
 10
-12.1
 20
0.5
 30
0.0
 11
-12.8
 21
0.2
 31
0.0
  0
LINE
  5
1DC
330
B8
100
AcDbEntity
  8
PEN1
  6
LTY1
100
AcDbLine
 10
-12.8
 20
0.2
 30
0.0
 11
-14.5
 21
0.2
 31
0.0
  0
LINE
  5
1DD
330
B8
100
AcDbEntity
  8
PEN1
  6
LTY1
100
AcDbLine
 10
-14.5
 20
0.2
 30
0.0
 11
-15.1
 21
0.5
 31
0.0
  0
LINE
  5
1DE
330
B8
100
AcDbEntity
  8
PEN1
  6
LTY1
100
AcDbLine
 10
-15.1
 20
0.5
 30
0.0
 11
-15.1
 21
1.4
 31
0.0
  0
LINE
  5
1DF
330
B8
100
AcDbEntity
  8
PEN1
  6
LTY1
100
AcDbLine
 10
-15.1
 20
1.4
 30
0.0
 11
-14.4
 21
1.7
 31
0.0
  0
LINE
  5
1E0
330
B8
100
AcDbEntity
  8
PEN1
  6
LTY1
100
AcDbLine
 10
-13.1
 20
19.9
 30
0.0
 11
-13.1
 21
14.4
 31
0.0
  0
LINE
  5
1E1
330
B8
100
AcDbEntity
  8
PEN1
  6
LTY1
100
AcDbLine
 10
-13.1
 20
14.4
 30
0.0
 11
-10.9
 21
14.4
 31
0.0
  0
LINE
  5
1E2
330
B8
100
AcDbEntity
  8
PEN1
  6
LTY1
100
AcDbLine
 10
-10.9
 20
14.4
 30
0.0
 11
-10.9
 21
19.9
 31
0.0
  0
LINE
  5
1E3
330
B8
100
AcDbEntity
  8
PEN1
  6
LTY1
100
AcDbLine
 10
-10.9
 20
19.9
 30
0.0
 11
-13.1
 21
19.9
 31
0.0
  0
LINE
  5
1E4
330
B8
100
AcDbEntity
  8
PEN1
  6
LTY1
100
AcDbLine
 10
-17.0
 20
34.9
 30
0.0
 11
-17.0
 21
-1.8
 31
0.0
  0
LINE
  5
1E5
330
B8
100
AcDbEntity
  8
PEN1
  6
LTY1
100
AcDbLine
 10
-17.0
 20
-1.8
 30
0.0
 11
-10.0
 21
-1.8
 31
0.0
  0
LINE
  5
1E6
330
B8
100
AcDbEntity
  8
PEN1
  6
LTY1
100
AcDbLine
 10
-10.0
 20
-1.8
 30
0.0
 11
-10.0
 21
34.9
 31
0.0
  0
LINE
  5
1E7
330
B8
100
AcDbEntity
  8
PEN1
  6
LTY1
100
AcDbLine
 10
-10.0
 20
34.9
 30
0.0
 11
-17.0
 21
34.9
 31
0.0
  0
LINE
  5
1E8
330
B8
100
AcDbEntity
  8
PEN1
  6
LTY1
100
AcDbLine
 10
-9.0
 20
41.2
 30
0.0
 11
-9.0
 21
-8.4
 31
0.0
  0
LINE
  5
1E9
330
B8
100
AcDbEntity
  8
PEN1
  6
LTY1
100
AcDbLine
 10
-18.0
 20
-8.5
 30
0.0
 11
-18.0
 21
41.2
 31
0.0
  0
LINE
  5
1EA
330
B8
100
AcDbEntity
  8
PEN1
  6
LTY1
100
AcDbLine
 10
-18.0
 20
41.2
 30
0.0
 11
-9.0
 21
41.2
 31
0.0
  0
LINE
  5
1EB
330
B8
100
AcDbEntity
  8
PEN1
  6
LTY1
100
AcDbLine
 10
-9.0
 20
35.6
 30
0.0
 11
-18.0
 21
35.6
 31
0.0
  0
LINE
  5
1EC
330
B8
100
AcDbEntity
  8
PEN1
  6
LTY1
100
AcDbLine
 10
-9.0
 20
-8.5
 30
0.0
 11
-9.0
 21
41.2
 31
0.0
  0
LINE
  5
1ED
330
B8
100
AcDbEntity
  8
PEN1
  6
LTY1
100
AcDbLine
 10
-9.0
 20
41.2
 30
0.0
 11
-9.0
 21
-8.4
 31
0.0
  0
LINE
  5
1EE
330
B8
100
AcDbEntity
  8
PEN1
  6
LTY1
100
AcDbLine
 10
-9.0
 20
-8.5
 30
0.0
 11
-9.0
 21
41.2
 31
0.0
  0
LINE
  5
1EF
330
B8
100
AcDbEntity
  8
PEN1
  6
LTY1
100
AcDbLine
 10
-9.0
 20
41.2
 30
0.0
 11
-9.0
 21
-8.4
 31
0.0
  0
LINE
  5
1F0
330
B8
100
AcDbEntity
  8
PEN1
  6
LTY1
100
AcDbLine
 10
-9.0
 20
-8.5
 30
0.0
 11
-9.0
 21
41.2
 31
0.0
  0
LINE
  5
1F1
330
B8
100
AcDbEntity
  8
PEN1
  6
LTY1
100
AcDbLine
 10
-9.0
 20
41.2
 30
0.0
 11
-9.0
 21
-8.4
 31
0.0
  0
LINE
  5
1F2
330
B8
100
AcDbEntity
  8
PEN1
  6
LTY1
100
AcDbLine
 10
-9.0
 20
-8.5
 30
0.0
 11
-9.0
 21
41.2
 31
0.0
  0
LINE
  5
1F3
330
B8
100
AcDbEntity
  8
PEN1
  6
LTY1
100
AcDbLine
 10
-9.0
 20
41.2
 30
0.0
 11
-9.0
 21
-8.4
 31
0.0
  0
LINE
  5
1F4
330
B8
100
AcDbEntity
  8
PEN1
  6
LTY1
100
AcDbLine
 10
-9.0
 20
-8.5
 30
0.0
 11
-9.0
 21
41.2
 31
0.0
  0
LINE
  5
1F5
330
B8
100
AcDbEntity
  8
PEN1
  6
LTY1
100
AcDbLine
 10
-9.0
 20
41.2
 30
0.0
 11
-9.0
 21
-8.4
 31
0.0
  0
LINE
  5
1F6
330
B8
100
AcDbEntity
  8
PEN1
  6
LTY1
100
AcDbLine
 10
-9.0
 20
-8.5
 30
0.0
 11
-9.0
 21
41.2
 31
0.0
  0
LINE
  5
1F7
330
B8
100
AcDbEntity
  8
PEN1
  6
LTY1
100
AcDbLine
 10
-9.0
 20
41.2
 30
0.0
 11
-9.0
 21
-8.4
 31
0.0
  0
LINE
  5
1F8
330
B8
100
AcDbEntity
  8
PEN1
  6
LTY1
100
AcDbLine
 10
-9.0
 20
-8.5
 30
0.0
 11
-9.0
 21
41.2
 31
0.0
  0
LINE
  5
1F9
330
B8
100
AcDbEntity
  8
PEN1
  6
LTY1
100
AcDbLine
 10
-9.0
 20
41.2
 30
0.0
 11
-9.0
 21
-8.4
 31
0.0
  0
LINE
  5
1FA
330
B8
100
AcDbEntity
  8
PEN1
  6
LTY1
100
AcDbLine
 10
-9.0
 20
-8.5
 30
0.0
 11
-9.0
 21
41.2
 31
0.0
  0
LINE
  5
1FB
330
B8
100
AcDbEntity
  8
PEN1
  6
LTY1
100
AcDbLine
 10
-9.0
 20
41.2
 30
0.0
 11
-9.0
 21
-8.4
 31
0.0
  0
LINE
  5
1FC
330
B8
100
AcDbEntity
  8
PEN1
  6
LTY1
100
AcDbLine
 10
-9.0
 20
41.2
 30
0.0
 11
-9.0
 21
-8.4
 31
0.0
  0
LINE
  5
1FD
330
B8
100
AcDbEntity
  8
PEN1
  6
LTY1
100
AcDbLine
 10
0.0
 20
-8.5
 30
0.0
 11
0.0
 21
41.2
 31
0.0
  0
LINE
  5
1FE
330
B8
100
AcDbEntity
  8
PEN1
  6
LTY1
100
AcDbLine
 10
-6.4
 20
2.7
 30
0.0
 11
-2.9
 21
2.7
 31
0.0
  0
LINE
  5
1FF
330
B8
100
AcDbEntity
  8
PEN1
  6
LTY1
100
AcDbLine
 10
-2.9
 20
2.7
 30
0.0
 11
-2.9
 21
-0.8
 31
0.0
  0
LINE
  5
200
330
B8
100
AcDbEntity
  8
PEN1
  6
LTY1
100
AcDbLine
 10
-2.9
 20
-0.8
 30
0.0
 11
-6.4
 21
-0.8
 31
0.0
  0
LINE
  5
201
330
B8
100
AcDbEntity
  8
PEN1
  6
LTY1
100
AcDbLine
 10
-6.4
 20
-0.8
 30
0.0
 11
-6.4
 21
2.7
 31
0.0
  0
LINE
  5
202
330
B8
100
AcDbEntity
  8
PEN1
  6
LTY1
100
AcDbLine
 10
-5.4
 20
1.7
 30
0.0
 11
-3.8
 21
1.7
 31
0.0
  0
LINE
  5
203
330
B8
100
AcDbEntity
  8
PEN1
  6
LTY1
100
AcDbLine
 10
-3.8
 20
1.7
 30
0.0
 11
-3.1
 21
1.4
 31
0.0
  0
LINE
  5
204
330
B8
100
AcDbEntity
  8
PEN1
  6
LTY1
100
AcDbLine
 10
-3.1
 20
1.4
 30
0.0
 11
-3.1
 21
0.5
 31
0.0
  0
LINE
  5
205
330
B8
100
AcDbEntity
  8
PEN1
  6
LTY1
100
AcDbLine
 10
-3.1
 20
0.5
 30
0.0
 11
-3.8
 21
0.2
 31
0.0
  0
LINE
  5
206
330
B8
100
AcDbEntity
  8
PEN1
  6
LTY1
100
AcDbLine
 10
-3.8
 20
0.2
 30
0.0
 11
-5.5
 21
0.2
 31
0.0
  0
LINE
  5
207
330
B8
100
AcDbEntity
  8
PEN1
  6
LTY1
100
AcDbLine
 10
-5.5
 20
0.2
 30
0.0
 11
-6.1
 21
0.5
 31
0.0
  0
LINE
  5
208
330
B8
100
AcDbEntity
  8
PEN1
  6
LTY1
100
AcDbLine
 10
-6.1
 20
0.5
 30
0.0
 11
-6.1
 21
1.4
 31
0.0
  0
LINE
  5
209
330
B8
100
AcDbEntity
  8
PEN1
  6
LTY1
100
AcDbLine
 10
-6.1
 20
1.4
 30
0.0
 11
-5.4
 21
1.7
 31
0.0
  0
LINE
  5
20A
330
B8
100
AcDbEntity
  8
PEN1
  6
LTY1
100
AcDbLine
 10
-4.1
 20
19.9
 30
0.0
 11
-4.1
 21
14.4
 31
0.0
  0
LINE
  5
20B
330
B8
100
AcDbEntity
  8
PEN1
  6
LTY1
100
AcDbLine
 10
-4.1
 20
14.4
 30
0.0
 11
-1.9
 21
14.4
 31
0.0
  0
LINE
  5
20C
330
B8
100
AcDbEntity
  8
PEN1
  6
LTY1
100
AcDbLine
 10
-1.9
 20
14.4
 30
0.0
 11
-1.9
 21
19.9
 31
0.0
  0
LINE
  5
20D
330
B8
100
AcDbEntity
  8
PEN1
  6
LTY1
100
AcDbLine
 10
-1.9
 20
19.9
 30
0.0
 11
-4.1
 21
19.9
 31
0.0
  0
LINE
  5
20E
330
B8
100
AcDbEntity
  8
PEN1
  6
LTY1
100
AcDbLine
 10
-8.0
 20
34.9
 30
0.0
 11
-8.0
 21
-1.8
 31
0.0
  0
LINE
  5
20F
330
B8
100
AcDbEntity
  8
PEN1
  6
LTY1
100
AcDbLine
 10
-8.0
 20
-1.8
 30
0.0
 11
-1.0
 21
-1.8
 31
0.0
  0
LINE
  5
210
330
B8
100
AcDbEntity
  8
PEN1
  6
LTY1
100
AcDbLine
 10
-1.0
 20
-1.8
 30
0.0
 11
-1.0
 21
34.9
 31
0.0
  0
LINE
  5
211
330
B8
100
AcDbEntity
  8
PEN1
  6
LTY1
100
AcDbLine
 10
-1.0
 20
34.9
 30
0.0
 11
-8.0
 21
34.9
 31
0.0
  0
LINE
  5
212
330
B8
100
AcDbEntity
  8
PEN1
  6
LTY1
100
AcDbLine
 10
0.0
 20
41.2
 30
0.0
 11
0.0
 21
-8.4
 31
0.0
  0
LINE
  5
213
330
B8
100
AcDbEntity
  8
PEN1
  6
LTY1
100
AcDbLine
 10
-9.0
 20
-8.5
 30
0.0
 11
-9.0
 21
41.2
 31
0.0
  0
LINE
  5
214
330
B8
100
AcDbEntity
  8
PEN1
  6
LTY1
100
AcDbLine
 10
-9.0
 20
41.2
 30
0.0
 11
0.0
 21
41.2
 31
0.0
  0
LINE
  5
215
330
B8
100
AcDbEntity
  8
PEN1
  6
LTY1
100
AcDbLine
 10
0.0
 20
35.6
 30
0.0
 11
-9.0
 21
35.6
 31
0.0
  0
LINE
  5
216
330
B8
100
AcDbEntity
  8
PEN1
  6
LTY1
100
AcDbLine
 10
0.0
 20
-8.5
 30
0.0
 11
0.0
 21
41.2
 31
0.0
  0
LINE
  5
217
330
B8
100
AcDbEntity
  8
PEN1
  6
LTY1
100
AcDbLine
 10
0.0
 20
41.2
 30
0.0
 11
0.0
 21
-8.4
 31
0.0
  0
LINE
  5
218
330
B8
100
AcDbEntity
  8
PEN1
  6
LTY1
100
AcDbLine
 10
0.0
 20
-8.5
 30
0.0
 11
0.0
 21
41.2
 31
0.0
  0
LINE
  5
219
330
B8
100
AcDbEntity
  8
PEN1
  6
LTY1
100
AcDbLine
 10
0.0
 20
41.2
 30
0.0
 11
0.0
 21
-8.4
 31
0.0
  0
LINE
  5
21A
330
B8
100
AcDbEntity
  8
PEN1
  6
LTY1
100
AcDbLine
 10
0.0
 20
-8.5
 30
0.0
 11
0.0
 21
41.2
 31
0.0
  0
LINE
  5
21B
330
B8
100
AcDbEntity
  8
PEN1
  6
LTY1
100
AcDbLine
 10
0.0
 20
41.2
 30
0.0
 11
0.0
 21
-8.4
 31
0.0
  0
LINE
  5
21C
330
B8
100
AcDbEntity
  8
PEN1
  6
LTY1
100
AcDbLine
 10
0.0
 20
-8.5
 30
0.0
 11
0.0
 21
41.2
 31
0.0
  0
LINE
  5
21D
330
B8
100
AcDbEntity
  8
PEN1
  6
LTY1
100
AcDbLine
 10
0.0
 20
41.2
 30
0.0
 11
0.0
 21
-8.4
 31
0.0
  0
LINE
  5
21E
330
B8
100
AcDbEntity
  8
PEN1
  6
LTY1
100
AcDbLine
 10
0.0
 20
-8.5
 30
0.0
 11
0.0
 21
41.2
 31
0.0
  0
LINE
  5
21F
330
B8
100
AcDbEntity
  8
PEN1
  6
LTY1
100
AcDbLine
 10
0.0
 20
41.2
 30
0.0
 11
0.0
 21
-8.4
 31
0.0
  0
LINE
  5
220
330
B8
100
AcDbEntity
  8
PEN1
  6
LTY1
100
AcDbLine
 10
0.0
 20
-8.5
 30
0.0
 11
0.0
 21
41.2
 31
0.0
  0
LINE
  5
221
330
B8
100
AcDbEntity
  8
PEN1
  6
LTY1
100
AcDbLine
 10
0.0
 20
41.2
 30
0.0
 11
0.0
 21
-8.4
 31
0.0
  0
LINE
  5
222
330
B8
100
AcDbEntity
  8
PEN1
  6
LTY1
100
AcDbLine
 10
0.0
 20
-8.5
 30
0.0
 11
0.0
 21
41.2
 31
0.0
  0
LINE
  5
223
330
B8
100
AcDbEntity
  8
PEN1
  6
LTY1
100
AcDbLine
 10
0.0
 20
41.2
 30
0.0
 11
0.0
 21
-8.4
 31
0.0
  0
LINE
  5
224
330
B8
100
AcDbEntity
  8
PEN1
  6
LTY1
100
AcDbLine
 10
0.0
 20
-8.5
 30
0.0
 11
0.0
 21
41.2
 31
0.0
  0
LINE
  5
225
330
B8
100
AcDbEntity
  8
PEN1
  6
LTY1
100
AcDbLine
 10
0.0
 20
41.2
 30
0.0
 11
0.0
 21
-8.4
 31
0.0
  0
LINE
  5
226
330
B8
100
AcDbEntity
  8
PEN1
  6
LTY1
100
AcDbLine
 10
0.0
 20
-8.5
 30
0.0
 11
0.0
 21
41.2
 31
0.0
  0
LINE
  5
227
330
B8
100
AcDbEntity
  8
PEN1
  6
LTY1
100
AcDbLine
 10
0.0
 20
41.2
 30
0.0
 11
0.0
 21
-8.4
 31
0.0
  0
LINE
  5
228
330
B8
100
AcDbEntity
  8
PEN1
  6
LTY1
100
AcDbLine
 10
0.0
 20
41.2
 30
0.0
 11
0.0
 21
-8.4
 31
0.0
  0
LINE
  5
229
330
B8
100
AcDbEntity
  8
PEN1
  6
LTY1
100
AcDbLine
 10
9.0
 20
-8.5
 30
0.0
 11
9.0
 21
41.2
 31
0.0
  0
LINE
  5
22A
330
B8
100
AcDbEntity
  8
PEN1
  6
LTY1
100
AcDbLine
 10
2.6
 20
2.7
 30
0.0
 11
6.1
 21
2.7
 31
0.0
  0
LINE
  5
22B
330
B8
100
AcDbEntity
  8
PEN1
  6
LTY1
100
AcDbLine
 10
6.1
 20
2.7
 30
0.0
 11
6.1
 21
-0.8
 31
0.0
  0
LINE
  5
22C
330
B8
100
AcDbEntity
  8
PEN1
  6
LTY1
100
AcDbLine
 10
6.1
 20
-0.8
 30
0.0
 11
2.6
 21
-0.8
 31
0.0
  0
LINE
  5
22D
330
B8
100
AcDbEntity
  8
PEN1
  6
LTY1
100
AcDbLine
 10
2.6
 20
-0.8
 30
0.0
 11
2.6
 21
2.7
 31
0.0
  0
LINE
  5
22E
330
B8
100
AcDbEntity
  8
PEN1
  6
LTY1
100
AcDbLine
 10
3.6
 20
1.7
 30
0.0
 11
5.2
 21
1.7
 31
0.0
  0
LINE
  5
22F
330
B8
100
AcDbEntity
  8
PEN1
  6
LTY1
100
AcDbLine
 10
5.2
 20
1.7
 30
0.0
 11
5.9
 21
1.4
 31
0.0
  0
LINE
  5
230
330
B8
100
AcDbEntity
  8
PEN1
  6
LTY1
100
AcDbLine
 10
5.9
 20
1.4
 30
0.0
 11
5.9
 21
0.5
 31
0.0
  0
LINE
  5
231
330
B8
100
AcDbEntity
  8
PEN1
  6
LTY1
100
AcDbLine
 10
5.9
 20
0.5
 30
0.0
 11
5.2
 21
0.2
 31
0.0
  0
LINE
  5
232
330
B8
100
AcDbEntity
  8
PEN1
  6
LTY1
100
AcDbLine
 10
5.2
 20
0.2
 30
0.0
 11
3.5
 21
0.2
 31
0.0
  0
LINE
  5
233
330
B8
100
AcDbEntity
  8
PEN1
  6
LTY1
100
AcDbLine
 10
3.5
 20
0.2
 30
0.0
 11
2.9
 21
0.5
 31
0.0
  0
LINE
  5
234
330
B8
100
AcDbEntity
  8
PEN1
  6
LTY1
100
AcDbLine
 10
2.9
 20
0.5
 30
0.0
 11
2.9
 21
1.4
 31
0.0
  0
LINE
  5
235
330
B8
100
AcDbEntity
  8
PEN1
  6
LTY1
100
AcDbLine
 10
2.9
 20
1.4
 30
0.0
 11
3.6
 21
1.7
 31
0.0
  0
LINE
  5
236
330
B8
100
AcDbEntity
  8
PEN1
  6
LTY1
100
AcDbLine
 10
4.9
 20
19.9
 30
0.0
 11
4.9
 21
14.4
 31
0.0
  0
LINE
  5
237
330
B8
100
AcDbEntity
  8
PEN1
  6
LTY1
100
AcDbLine
 10
4.9
 20
14.4
 30
0.0
 11
7.1
 21
14.4
 31
0.0
  0
LINE
  5
238
330
B8
100
AcDbEntity
  8
PEN1
  6
LTY1
100
AcDbLine
 10
7.1
 20
14.4
 30
0.0
 11
7.1
 21
19.9
 31
0.0
  0
LINE
  5
239
330
B8
100
AcDbEntity
  8
PEN1
  6
LTY1
100
AcDbLine
 10
7.1
 20
19.9
 30
0.0
 11
4.9
 21
19.9
 31
0.0
  0
LINE
  5
23A
330
B8
100
AcDbEntity
  8
PEN1
  6
LTY1
100
AcDbLine
 10
1.0
 20
34.9
 30
0.0
 11
1.0
 21
-1.8
 31
0.0
  0
LINE
  5
23B
330
B8
100
AcDbEntity
  8
PEN1
  6
LTY1
100
AcDbLine
 10
1.0
 20
-1.8
 30
0.0
 11
8.0
 21
-1.8
 31
0.0
  0
LINE
  5
23C
330
B8
100
AcDbEntity
  8
PEN1
  6
LTY1
100
AcDbLine
 10
8.0
 20
-1.8
 30
0.0
 11
8.0
 21
34.9
 31
0.0
  0
LINE
  5
23D
330
B8
100
AcDbEntity
  8
PEN1
  6
LTY1
100
AcDbLine
 10
8.0
 20
34.9
 30
0.0
 11
1.0
 21
34.9
 31
0.0
  0
LINE
  5
23E
330
B8
100
AcDbEntity
  8
PEN1
  6
LTY1
100
AcDbLine
 10
9.0
 20
41.2
 30
0.0
 11
9.0
 21
-8.4
 31
0.0
  0
LINE
  5
23F
330
B8
100
AcDbEntity
  8
PEN1
  6
LTY1
100
AcDbLine
 10
0.0
 20
-8.5
 30
0.0
 11
0.0
 21
41.2
 31
0.0
  0
LINE
  5
240
330
B8
100
AcDbEntity
  8
PEN1
  6
LTY1
100
AcDbLine
 10
0.0
 20
41.2
 30
0.0
 11
9.0
 21
41.2
 31
0.0
  0
LINE
  5
241
330
B8
100
AcDbEntity
  8
PEN1
  6
LTY1
100
AcDbLine
 10
9.0
 20
35.6
 30
0.0
 11
0.0
 21
35.6
 31
0.0
  0
LINE
  5
242
330
B8
100
AcDbEntity
  8
PEN1
  6
LTY1
100
AcDbLine
 10
9.0
 20
-8.5
 30
0.0
 11
9.0
 21
41.2
 31
0.0
  0
LINE
  5
243
330
B8
100
AcDbEntity
  8
PEN1
  6
LTY1
100
AcDbLine
 10
9.0
 20
41.2
 30
0.0
 11
9.0
 21
-8.4
 31
0.0
  0
LINE
  5
244
330
B8
100
AcDbEntity
  8
PEN1
  6
LTY1
100
AcDbLine
 10
9.0
 20
-8.5
 30
0.0
 11
9.0
 21
41.2
 31
0.0
  0
LINE
  5
245
330
B8
100
AcDbEntity
  8
PEN1
  6
LTY1
100
AcDbLine
 10
9.0
 20
41.2
 30
0.0
 11
9.0
 21
-8.4
 31
0.0
  0
LINE
  5
246
330
B8
100
AcDbEntity
  8
PEN1
  6
LTY1
100
AcDbLine
 10
9.0
 20
-8.5
 30
0.0
 11
9.0
 21
41.2
 31
0.0
  0
LINE
  5
247
330
B8
100
AcDbEntity
  8
PEN1
  6
LTY1
100
AcDbLine
 10
9.0
 20
41.2
 30
0.0
 11
9.0
 21
-8.4
 31
0.0
  0
LINE
  5
248
330
B8
100
AcDbEntity
  8
PEN1
  6
LTY1
100
AcDbLine
 10
9.0
 20
-8.5
 30
0.0
 11
9.0
 21
41.2
 31
0.0
  0
LINE
  5
249
330
B8
100
AcDbEntity
  8
PEN1
  6
LTY1
100
AcDbLine
 10
9.0
 20
41.2
 30
0.0
 11
9.0
 21
-8.4
 31
0.0
  0
LINE
  5
24A
330
B8
100
AcDbEntity
  8
PEN1
  6
LTY1
100
AcDbLine
 10
9.0
 20
-8.5
 30
0.0
 11
9.0
 21
41.2
 31
0.0
  0
LINE
  5
24B
330
B8
100
AcDbEntity
  8
PEN1
  6
LTY1
100
AcDbLine
 10
9.0
 20
41.2
 30
0.0
 11
9.0
 21
-8.4
 31
0.0
  0
LINE
  5
24C
330
B8
100
AcDbEntity
  8
PEN1
  6
LTY1
100
AcDbLine
 10
9.0
 20
-8.5
 30
0.0
 11
9.0
 21
41.2
 31
0.0
  0
LINE
  5
24D
330
B8
100
AcDbEntity
  8
PEN1
  6
LTY1
100
AcDbLine
 10
9.0
 20
41.2
 30
0.0
 11
9.0
 21
-8.4
 31
0.0
  0
LINE
  5
24E
330
B8
100
AcDbEntity
  8
PEN1
  6
LTY1
100
AcDbLine
 10
9.0
 20
-8.5
 30
0.0
 11
9.0
 21
41.2
 31
0.0
  0
LINE
  5
24F
330
B8
100
AcDbEntity
  8
PEN1
  6
LTY1
100
AcDbLine
 10
9.0
 20
41.2
 30
0.0
 11
9.0
 21
-8.4
 31
0.0
  0
LINE
  5
250
330
B8
100
AcDbEntity
  8
PEN1
  6
LTY1
100
AcDbLine
 10
9.0
 20
-8.5
 30
0.0
 11
9.0
 21
41.2
 31
0.0
  0
LINE
  5
251
330
B8
100
AcDbEntity
  8
PEN1
  6
LTY1
100
AcDbLine
 10
9.0
 20
41.2
 30
0.0
 11
9.0
 21
-8.4
 31
0.0
  0
LINE
  5
252
330
B8
100
AcDbEntity
  8
PEN1
  6
LTY1
100
AcDbLine
 10
9.0
 20
-8.5
 30
0.0
 11
9.0
 21
41.2
 31
0.0
  0
LINE
  5
253
330
B8
100
AcDbEntity
  8
PEN1
  6
LTY1
100
AcDbLine
 10
9.0
 20
41.2
 30
0.0
 11
9.0
 21
-8.4
 31
0.0
  0
LINE
  5
254
330
B8
100
AcDbEntity
  8
PEN1
  6
LTY1
100
AcDbLine
 10
9.0
 20
-8.5
 30
0.0
 11
9.0
 21
41.2
 31
0.0
  0
LINE
  5
255
330
B8
100
AcDbEntity
  8
PEN1
  6
LTY1
100
AcDbLine
 10
9.0
 20
41.2
 30
0.0
 11
9.0
 21
-8.4
 31
0.0
  0
LINE
  5
256
330
B8
100
AcDbEntity
  8
PEN1
  6
LTY1
100
AcDbLine
 10
9.0
 20
41.2
 30
0.0
 11
9.0
 21
-8.4
 31
0.0
  0
LINE
  5
257
330
B8
100
AcDbEntity
  8
PEN1
  6
LTY1
100
AcDbLine
 10
18.0
 20
-8.5
 30
0.0
 11
18.0
 21
41.2
 31
0.0
  0
LINE
  5
258
330
B8
100
AcDbEntity
  8
PEN1
  6
LTY1
100
AcDbLine
 10
11.6
 20
2.7
 30
0.0
 11
15.1
 21
2.7
 31
0.0
  0
LINE
  5
259
330
B8
100
AcDbEntity
  8
PEN1
  6
LTY1
100
AcDbLine
 10
15.1
 20
2.7
 30
0.0
 11
15.1
 21
-0.8
 31
0.0
  0
LINE
  5
25A
330
B8
100
AcDbEntity
  8
PEN1
  6
LTY1
100
AcDbLine
 10
15.1
 20
-0.8
 30
0.0
 11
11.6
 21
-0.8
 31
0.0
  0
LINE
  5
25B
330
B8
100
AcDbEntity
  8
PEN1
  6
LTY1
100
AcDbLine
 10
11.6
 20
-0.8
 30
0.0
 11
11.6
 21
2.7
 31
0.0
  0
LINE
  5
25C
330
B8
100
AcDbEntity
  8
PEN1
  6
LTY1
100
AcDbLine
 10
12.6
 20
1.7
 30
0.0
 11
14.2
 21
1.7
 31
0.0
  0
LINE
  5
25D
330
B8
100
AcDbEntity
  8
PEN1
  6
LTY1
100
AcDbLine
 10
14.2
 20
1.7
 30
0.0
 11
14.9
 21
1.4
 31
0.0
  0
LINE
  5
25E
330
B8
100
AcDbEntity
  8
PEN1
  6
LTY1
100
AcDbLine
 10
14.9
 20
1.4
 30
0.0
 11
14.9
 21
0.5
 31
0.0
  0
LINE
  5
25F
330
B8
100
AcDbEntity
  8
PEN1
  6
LTY1
100
AcDbLine
 10
14.9
 20
0.5
 30
0.0
 11
14.2
 21
0.2
 31
0.0
  0
LINE
  5
260
330
B8
100
AcDbEntity
  8
PEN1
  6
LTY1
100
AcDbLine
 10
14.2
 20
0.2
 30
0.0
 11
12.5
 21
0.2
 31
0.0
  0
LINE
  5
261
330
B8
100
AcDbEntity
  8
PEN1
  6
LTY1
100
AcDbLine
 10
12.5
 20
0.2
 30
0.0
 11
11.9
 21
0.5
 31
0.0
  0
LINE
  5
262
330
B8
100
AcDbEntity
  8
PEN1
  6
LTY1
100
AcDbLine
 10
11.9
 20
0.5
 30
0.0
 11
11.9
 21
1.4
 31
0.0
  0
LINE
  5
263
330
B8
100
AcDbEntity
  8
PEN1
  6
LTY1
100
AcDbLine
 10
11.9
 20
1.4
 30
0.0
 11
12.6
 21
1.7
 31
0.0
  0
LINE
  5
264
330
B8
100
AcDbEntity
  8
PEN1
  6
LTY1
100
AcDbLine
 10
13.9
 20
19.9
 30
0.0
 11
13.9
 21
14.4
 31
0.0
  0
LINE
  5
265
330
B8
100
AcDbEntity
  8
PEN1
  6
LTY1
100
AcDbLine
 10
13.9
 20
14.4
 30
0.0
 11
16.1
 21
14.4
 31
0.0
  0
LINE
  5
266
330
B8
100
AcDbEntity
  8
PEN1
  6
LTY1
100
AcDbLine
 10
16.1
 20
14.4
 30
0.0
 11
16.1
 21
19.9
 31
0.0
  0
LINE
  5
267
330
B8
100
AcDbEntity
  8
PEN1
  6
LTY1
100
AcDbLine
 10
16.1
 20
19.9
 30
0.0
 11
13.9
 21
19.9
 31
0.0
  0
LINE
  5
268
330
B8
100
AcDbEntity
  8
PEN1
  6
LTY1
100
AcDbLine
 10
10.0
 20
34.9
 30
0.0
 11
10.0
 21
-1.8
 31
0.0
  0
LINE
  5
269
330
B8
100
AcDbEntity
  8
PEN1
  6
LTY1
100
AcDbLine
 10
10.0
 20
-1.8
 30
0.0
 11
17.0
 21
-1.8
 31
0.0
  0
LINE
  5
26A
330
B8
100
AcDbEntity
  8
PEN1
  6
LTY1
100
AcDbLine
 10
17.0
 20
-1.8
 30
0.0
 11
17.0
 21
34.9
 31
0.0
  0
LINE
  5
26B
330
B8
100
AcDbEntity
  8
PEN1
  6
LTY1
100
AcDbLine
 10
17.0
 20
34.9
 30
0.0
 11
10.0
 21
34.9
 31
0.0
  0
LINE
  5
26C
330
B8
100
AcDbEntity
  8
PEN1
  6
LTY1
100
AcDbLine
 10
18.0
 20
41.2
 30
0.0
 11
18.0
 21
-8.4
 31
0.0
  0
LINE
  5
26D
330
B8
100
AcDbEntity
  8
PEN1
  6
LTY1
100
AcDbLine
 10
9.0
 20
-8.5
 30
0.0
 11
9.0
 21
41.2
 31
0.0
  0
LINE
  5
26E
330
B8
100
AcDbEntity
  8
PEN1
  6
LTY1
100
AcDbLine
 10
9.0
 20
41.2
 30
0.0
 11
18.0
 21
41.2
 31
0.0
  0
LINE
  5
26F
330
B8
100
AcDbEntity
  8
PEN1
  6
LTY1
100
AcDbLine
 10
18.0
 20
35.6
 30
0.0
 11
9.0
 21
35.6
 31
0.0
  0
LINE
  5
270
330
B8
100
AcDbEntity
  8
PEN1
  6
LTY1
100
AcDbLine
 10
18.0
 20
-8.5
 30
0.0
 11
18.0
 21
41.2
 31
0.0
  0
LINE
  5
271
330
B8
100
AcDbEntity
  8
PEN1
  6
LTY1
100
AcDbLine
 10
18.0
 20
41.2
 30
0.0
 11
18.0
 21
-8.4
 31
0.0
  0
LINE
  5
272
330
B8
100
AcDbEntity
  8
PEN1
  6
LTY1
100
AcDbLine
 10
18.0
 20
-8.5
 30
0.0
 11
18.0
 21
41.2
 31
0.0
  0
LINE
  5
273
330
B8
100
AcDbEntity
  8
PEN1
  6
LTY1
100
AcDbLine
 10
18.0
 20
41.2
 30
0.0
 11
18.0
 21
-8.4
 31
0.0
  0
LINE
  5
274
330
B8
100
AcDbEntity
  8
PEN1
  6
LTY1
100
AcDbLine
 10
18.0
 20
-8.5
 30
0.0
 11
18.0
 21
41.2
 31
0.0
  0
LINE
  5
275
330
B8
100
AcDbEntity
  8
PEN1
  6
LTY1
100
AcDbLine
 10
18.0
 20
41.2
 30
0.0
 11
18.0
 21
-8.4
 31
0.0
  0
LINE
  5
276
330
B8
100
AcDbEntity
  8
PEN1
  6
LTY1
100
AcDbLine
 10
18.0
 20
-8.5
 30
0.0
 11
18.0
 21
41.2
 31
0.0
  0
LINE
  5
277
330
B8
100
AcDbEntity
  8
PEN1
  6
LTY1
100
AcDbLine
 10
18.0
 20
41.2
 30
0.0
 11
18.0
 21
-8.4
 31
0.0
  0
LINE
  5
278
330
B8
100
AcDbEntity
  8
PEN1
  6
LTY1
100
AcDbLine
 10
18.0
 20
-8.5
 30
0.0
 11
18.0
 21
41.2
 31
0.0
  0
LINE
  5
279
330
B8
100
AcDbEntity
  8
PEN1
  6
LTY1
100
AcDbLine
 10
18.0
 20
41.2
 30
0.0
 11
18.0
 21
-8.4
 31
0.0
  0
LINE
  5
27A
330
B8
100
AcDbEntity
  8
PEN1
  6
LTY1
100
AcDbLine
 10
18.0
 20
-8.5
 30
0.0
 11
18.0
 21
41.2
 31
0.0
  0
LINE
  5
27B
330
B8
100
AcDbEntity
  8
PEN1
  6
LTY1
100
AcDbLine
 10
18.0
 20
41.2
 30
0.0
 11
18.0
 21
-8.4
 31
0.0
  0
LINE
  5
27C
330
B8
100
AcDbEntity
  8
PEN1
  6
LTY1
100
AcDbLine
 10
18.0
 20
-8.5
 30
0.0
 11
18.0
 21
41.2
 31
0.0
  0
LINE
  5
27D
330
B8
100
AcDbEntity
  8
PEN1
  6
LTY1
100
AcDbLine
 10
18.0
 20
41.2
 30
0.0
 11
18.0
 21
-8.4
 31
0.0
  0
LINE
  5
27E
330
B8
100
AcDbEntity
  8
PEN1
  6
LTY1
100
AcDbLine
 10
18.0
 20
-8.5
 30
0.0
 11
18.0
 21
41.2
 31
0.0
  0
LINE
  5
27F
330
B8
100
AcDbEntity
  8
PEN1
  6
LTY1
100
AcDbLine
 10
18.0
 20
41.2
 30
0.0
 11
18.0
 21
-8.4
 31
0.0
  0
LINE
  5
280
330
B8
100
AcDbEntity
  8
PEN1
  6
LTY1
100
AcDbLine
 10
18.0
 20
-8.5
 30
0.0
 11
18.0
 21
41.2
 31
0.0
  0
LINE
  5
281
330
B8
100
AcDbEntity
  8
PEN1
  6
LTY1
100
AcDbLine
 10
18.0
 20
41.2
 30
0.0
 11
18.0
 21
-8.4
 31
0.0
  0
LINE
  5
282
330
B8
100
AcDbEntity
  8
PEN1
  6
LTY1
100
AcDbLine
 10
18.0
 20
-8.5
 30
0.0
 11
18.0
 21
41.2
 31
0.0
  0
LINE
  5
283
330
B8
100
AcDbEntity
  8
PEN1
  6
LTY1
100
AcDbLine
 10
18.0
 20
41.2
 30
0.0
 11
18.0
 21
-8.4
 31
0.0
  0
LINE
  5
284
330
B8
100
AcDbEntity
  8
PEN1
  6
LTY1
100
AcDbLine
 10
18.0
 20
-8.5
 30
0.0
 11
18.0
 21
41.2
 31
0.0
  0
LINE
  5
285
330
B8
100
AcDbEntity
  8
PEN1
  6
LTY1
100
AcDbLine
 10
18.0
 20
41.2
 30
0.0
 11
18.0
 21
-8.4
 31
0.0
  0
LINE
  5
286
330
B8
100
AcDbEntity
  8
PEN1
  6
LTY1
100
AcDbLine
 10
18.0
 20
41.2
 30
0.0
 11
18.0
 21
-8.4
 31
0.0
  0
LINE
  5
287
330
B8
100
AcDbEntity
  8
PEN1
  6
LTY1
100
AcDbLine
 10
27.0
 20
-8.5
 30
0.0
 11
27.0
 21
41.2
 31
0.0
  0
LINE
  5
288
330
B8
100
AcDbEntity
  8
PEN1
  6
LTY1
100
AcDbLine
 10
20.6
 20
2.7
 30
0.0
 11
24.1
 21
2.7
 31
0.0
  0
LINE
  5
289
330
B8
100
AcDbEntity
  8
PEN1
  6
LTY1
100
AcDbLine
 10
24.1
 20
2.7
 30
0.0
 11
24.1
 21
-0.8
 31
0.0
  0
LINE
  5
28A
330
B8
100
AcDbEntity
  8
PEN1
  6
LTY1
100
AcDbLine
 10
24.1
 20
-0.8
 30
0.0
 11
20.6
 21
-0.8
 31
0.0
  0
LINE
  5
28B
330
B8
100
AcDbEntity
  8
PEN1
  6
LTY1
100
AcDbLine
 10
20.6
 20
-0.8
 30
0.0
 11
20.6
 21
2.7
 31
0.0
  0
LINE
  5
28C
330
B8
100
AcDbEntity
  8
PEN1
  6
LTY1
100
AcDbLine
 10
21.6
 20
1.7
 30
0.0
 11
23.2
 21
1.7
 31
0.0
  0
LINE
  5
28D
330
B8
100
AcDbEntity
  8
PEN1
  6
LTY1
100
AcDbLine
 10
23.2
 20
1.7
 30
0.0
 11
23.9
 21
1.4
 31
0.0
  0
LINE
  5
28E
330
B8
100
AcDbEntity
  8
PEN1
  6
LTY1
100
AcDbLine
 10
23.9
 20
1.4
 30
0.0
 11
23.9
 21
0.5
 31
0.0
  0
LINE
  5
28F
330
B8
100
AcDbEntity
  8
PEN1
  6
LTY1
100
AcDbLine
 10
23.9
 20
0.5
 30
0.0
 11
23.2
 21
0.2
 31
0.0
  0
LINE
  5
290
330
B8
100
AcDbEntity
  8
PEN1
  6
LTY1
100
AcDbLine
 10
23.2
 20
0.2
 30
0.0
 11
21.5
 21
0.2
 31
0.0
  0
LINE
  5
291
330
B8
100
AcDbEntity
  8
PEN1
  6
LTY1
100
AcDbLine
 10
21.5
 20
0.2
 30
0.0
 11
20.9
 21
0.5
 31
0.0
  0
LINE
  5
292
330
B8
100
AcDbEntity
  8
PEN1
  6
LTY1
100
AcDbLine
 10
20.9
 20
0.5
 30
0.0
 11
20.9
 21
1.4
 31
0.0
  0
LINE
  5
293
330
B8
100
AcDbEntity
  8
PEN1
  6
LTY1
100
AcDbLine
 10
20.9
 20
1.4
 30
0.0
 11
21.6
 21
1.7
 31
0.0
  0
LINE
  5
294
330
B8
100
AcDbEntity
  8
PEN1
  6
LTY1
100
AcDbLine
 10
22.9
 20
19.9
 30
0.0
 11
22.9
 21
14.4
 31
0.0
  0
LINE
  5
295
330
B8
100
AcDbEntity
  8
PEN1
  6
LTY1
100
AcDbLine
 10
22.9
 20
14.4
 30
0.0
 11
25.1
 21
14.4
 31
0.0
  0
LINE
  5
296
330
B8
100
AcDbEntity
  8
PEN1
  6
LTY1
100
AcDbLine
 10
25.1
 20
14.4
 30
0.0
 11
25.1
 21
19.9
 31
0.0
  0
LINE
  5
297
330
B8
100
AcDbEntity
  8
PEN1
  6
LTY1
100
AcDbLine
 10
25.1
 20
19.9
 30
0.0
 11
22.9
 21
19.9
 31
0.0
  0
LINE
  5
298
330
B8
100
AcDbEntity
  8
PEN1
  6
LTY1
100
AcDbLine
 10
19.0
 20
34.9
 30
0.0
 11
19.0
 21
-1.8
 31
0.0
  0
LINE
  5
299
330
B8
100
AcDbEntity
  8
PEN1
  6
LTY1
100
AcDbLine
 10
19.0
 20
-1.8
 30
0.0
 11
26.0
 21
-1.8
 31
0.0
  0
LINE
  5
29A
330
B8
100
AcDbEntity
  8
PEN1
  6
LTY1
100
AcDbLine
 10
26.0
 20
-1.8
 30
0.0
 11
26.0
 21
34.9
 31
0.0
  0
LINE
  5
29B
330
B8
100
AcDbEntity
  8
PEN1
  6
LTY1
100
AcDbLine
 10
26.0
 20
34.9
 30
0.0
 11
19.0
 21
34.9
 31
0.0
  0
LINE
  5
29C
330
B8
100
AcDbEntity
  8
PEN1
  6
LTY1
100
AcDbLine
 10
27.0
 20
41.2
 30
0.0
 11
27.0
 21
-8.4
 31
0.0
  0
LINE
  5
29D
330
B8
100
AcDbEntity
  8
PEN1
  6
LTY1
100
AcDbLine
 10
18.0
 20
-8.5
 30
0.0
 11
18.0
 21
41.2
 31
0.0
  0
LINE
  5
29E
330
B8
100
AcDbEntity
  8
PEN1
  6
LTY1
100
AcDbLine
 10
18.0
 20
41.2
 30
0.0
 11
27.0
 21
41.2
 31
0.0
  0
LINE
  5
29F
330
B8
100
AcDbEntity
  8
PEN1
  6
LTY1
100
AcDbLine
 10
27.0
 20
35.6
 30
0.0
 11
18.0
 21
35.6
 31
0.0
  0
LINE
  5
2A0
330
B8
100
AcDbEntity
  8
PEN1
  6
LTY1
100
AcDbLine
 10
27.0
 20
-8.5
 30
0.0
 11
27.0
 21
41.2
 31
0.0
  0
LINE
  5
2A1
330
B8
100
AcDbEntity
  8
PEN1
  6
LTY1
100
AcDbLine
 10
27.0
 20
41.2
 30
0.0
 11
27.0
 21
-8.4
 31
0.0
  0
LINE
  5
2A2
330
B8
100
AcDbEntity
  8
PEN1
  6
LTY1
100
AcDbLine
 10
27.0
 20
-8.5
 30
0.0
 11
27.0
 21
41.2
 31
0.0
  0
LINE
  5
2A3
330
B8
100
AcDbEntity
  8
PEN1
  6
LTY1
100
AcDbLine
 10
27.0
 20
41.2
 30
0.0
 11
27.0
 21
-8.4
 31
0.0
  0
LINE
  5
2A4
330
B8
100
AcDbEntity
  8
PEN1
  6
LTY1
100
AcDbLine
 10
27.0
 20
-8.5
 30
0.0
 11
27.0
 21
41.2
 31
0.0
  0
LINE
  5
2A5
330
B8
100
AcDbEntity
  8
PEN1
  6
LTY1
100
AcDbLine
 10
27.0
 20
41.2
 30
0.0
 11
27.0
 21
-8.4
 31
0.0
  0
LINE
  5
2A6
330
B8
100
AcDbEntity
  8
PEN1
  6
LTY1
100
AcDbLine
 10
27.0
 20
-8.5
 30
0.0
 11
27.0
 21
41.2
 31
0.0
  0
LINE
  5
2A7
330
B8
100
AcDbEntity
  8
PEN1
  6
LTY1
100
AcDbLine
 10
27.0
 20
41.2
 30
0.0
 11
27.0
 21
-8.4
 31
0.0
  0
LINE
  5
2A8
330
B8
100
AcDbEntity
  8
PEN1
  6
LTY1
100
AcDbLine
 10
27.0
 20
-8.5
 30
0.0
 11
27.0
 21
41.2
 31
0.0
  0
LINE
  5
2A9
330
B8
100
AcDbEntity
  8
PEN1
  6
LTY1
100
AcDbLine
 10
27.0
 20
41.2
 30
0.0
 11
27.0
 21
-8.4
 31
0.0
  0
LINE
  5
2AA
330
B8
100
AcDbEntity
  8
PEN1
  6
LTY1
100
AcDbLine
 10
27.0
 20
-8.5
 30
0.0
 11
27.0
 21
41.2
 31
0.0
  0
LINE
  5
2AB
330
B8
100
AcDbEntity
  8
PEN1
  6
LTY1
100
AcDbLine
 10
27.0
 20
41.2
 30
0.0
 11
27.0
 21
-8.4
 31
0.0
  0
LINE
  5
2AC
330
B8
100
AcDbEntity
  8
PEN1
  6
LTY1
100
AcDbLine
 10
27.0
 20
-8.5
 30
0.0
 11
27.0
 21
41.2
 31
0.0
  0
LINE
  5
2AD
330
B8
100
AcDbEntity
  8
PEN1
  6
LTY1
100
AcDbLine
 10
27.0
 20
41.2
 30
0.0
 11
27.0
 21
-8.4
 31
0.0
  0
LINE
  5
2AE
330
B8
100
AcDbEntity
  8
PEN1
  6
LTY1
100
AcDbLine
 10
27.0
 20
-8.5
 30
0.0
 11
27.0
 21
41.2
 31
0.0
  0
LINE
  5
2AF
330
B8
100
AcDbEntity
  8
PEN1
  6
LTY1
100
AcDbLine
 10
27.0
 20
41.2
 30
0.0
 11
27.0
 21
-8.4
 31
0.0
  0
LINE
  5
2B0
330
B8
100
AcDbEntity
  8
PEN1
  6
LTY1
100
AcDbLine
 10
27.0
 20
-8.5
 30
0.0
 11
27.0
 21
41.2
 31
0.0
  0
LINE
  5
2B1
330
B8
100
AcDbEntity
  8
PEN1
  6
LTY1
100
AcDbLine
 10
27.0
 20
41.2
 30
0.0
 11
27.0
 21
-8.4
 31
0.0
  0
LINE
  5
2B2
330
B8
100
AcDbEntity
  8
PEN1
  6
LTY1
100
AcDbLine
 10
27.0
 20
-8.5
 30
0.0
 11
27.0
 21
41.2
 31
0.0
  0
LINE
  5
2B3
330
B8
100
AcDbEntity
  8
PEN1
  6
LTY1
100
AcDbLine
 10
27.0
 20
41.2
 30
0.0
 11
27.0
 21
-8.4
 31
0.0
  0
LINE
  5
2B4
330
B8
100
AcDbEntity
  8
PEN1
  6
LTY1
100
AcDbLine
 10
27.0
 20
-8.5
 30
0.0
 11
27.0
 21
41.2
 31
0.0
  0
LINE
  5
2B5
330
B8
100
AcDbEntity
  8
PEN1
  6
LTY1
100
AcDbLine
 10
27.0
 20
41.2
 30
0.0
 11
27.0
 21
-8.4
 31
0.0
  0
LINE
  5
2B6
330
B8
100
AcDbEntity
  8
PEN1
  6
LTY1
100
AcDbLine
 10
27.0
 20
-8.5
 30
0.0
 11
27.0
 21
41.2
 31
0.0
  0
LINE
  5
2B7
330
B8
100
AcDbEntity
  8
PEN1
  6
LTY1
100
AcDbLine
 10
27.0
 20
41.2
 30
0.0
 11
27.0
 21
-8.4
 31
0.0
  0
LINE
  5
2B8
330
B8
100
AcDbEntity
  8
PEN1
  6
LTY1
100
AcDbLine
 10
27.0
 20
41.2
 30
0.0
 11
27.0
 21
-8.4
 31
0.0
  0
LINE
  5
2B9
330
B8
100
AcDbEntity
  8
PEN1
  6
LTY1
100
AcDbLine
 10
36.0
 20
-8.5
 30
0.0
 11
36.0
 21
41.2
 31
0.0
  0
LINE
  5
2BA
330
B8
100
AcDbEntity
  8
PEN1
  6
LTY1
100
AcDbLine
 10
29.6
 20
2.7
 30
0.0
 11
33.1
 21
2.7
 31
0.0
  0
LINE
  5
2BB
330
B8
100
AcDbEntity
  8
PEN1
  6
LTY1
100
AcDbLine
 10
33.1
 20
2.7
 30
0.0
 11
33.1
 21
-0.8
 31
0.0
  0
LINE
  5
2BC
330
B8
100
AcDbEntity
  8
PEN1
  6
LTY1
100
AcDbLine
 10
33.1
 20
-0.8
 30
0.0
 11
29.6
 21
-0.8
 31
0.0
  0
LINE
  5
2BD
330
B8
100
AcDbEntity
  8
PEN1
  6
LTY1
100
AcDbLine
 10
29.6
 20
-0.8
 30
0.0
 11
29.6
 21
2.7
 31
0.0
  0
LINE
  5
2BE
330
B8
100
AcDbEntity
  8
PEN1
  6
LTY1
100
AcDbLine
 10
30.6
 20
1.7
 30
0.0
 11
32.2
 21
1.7
 31
0.0
  0
LINE
  5
2BF
330
B8
100
AcDbEntity
  8
PEN1
  6
LTY1
100
AcDbLine
 10
32.2
 20
1.7
 30
0.0
 11
32.9
 21
1.4
 31
0.0
  0
LINE
  5
2C0
330
B8
100
AcDbEntity
  8
PEN1
  6
LTY1
100
AcDbLine
 10
32.9
 20
1.4
 30
0.0
 11
32.9
 21
0.5
 31
0.0
  0
LINE
  5
2C1
330
B8
100
AcDbEntity
  8
PEN1
  6
LTY1
100
AcDbLine
 10
32.9
 20
0.5
 30
0.0
 11
32.2
 21
0.2
 31
0.0
  0
LINE
  5
2C2
330
B8
100
AcDbEntity
  8
PEN1
  6
LTY1
100
AcDbLine
 10
32.2
 20
0.2
 30
0.0
 11
30.5
 21
0.2
 31
0.0
  0
LINE
  5
2C3
330
B8
100
AcDbEntity
  8
PEN1
  6
LTY1
100
AcDbLine
 10
30.5
 20
0.2
 30
0.0
 11
29.9
 21
0.5
 31
0.0
  0
LINE
  5
2C4
330
B8
100
AcDbEntity
  8
PEN1
  6
LTY1
100
AcDbLine
 10
29.9
 20
0.5
 30
0.0
 11
29.9
 21
1.4
 31
0.0
  0
LINE
  5
2C5
330
B8
100
AcDbEntity
  8
PEN1
  6
LTY1
100
AcDbLine
 10
29.9
 20
1.4
 30
0.0
 11
30.6
 21
1.7
 31
0.0
  0
LINE
  5
2C6
330
B8
100
AcDbEntity
  8
PEN1
  6
LTY1
100
AcDbLine
 10
31.9
 20
19.9
 30
0.0
 11
31.9
 21
14.4
 31
0.0
  0
LINE
  5
2C7
330
B8
100
AcDbEntity
  8
PEN1
  6
LTY1
100
AcDbLine
 10
31.9
 20
14.4
 30
0.0
 11
34.1
 21
14.4
 31
0.0
  0
LINE
  5
2C8
330
B8
100
AcDbEntity
  8
PEN1
  6
LTY1
100
AcDbLine
 10
34.1
 20
14.4
 30
0.0
 11
34.1
 21
19.9
 31
0.0
  0
LINE
  5
2C9
330
B8
100
AcDbEntity
  8
PEN1
  6
LTY1
100
AcDbLine
 10
34.1
 20
19.9
 30
0.0
 11
31.9
 21
19.9
 31
0.0
  0
LINE
  5
2CA
330
B8
100
AcDbEntity
  8
PEN1
  6
LTY1
100
AcDbLine
 10
28.0
 20
34.9
 30
0.0
 11
28.0
 21
-1.8
 31
0.0
  0
LINE
  5
2CB
330
B8
100
AcDbEntity
  8
PEN1
  6
LTY1
100
AcDbLine
 10
28.0
 20
-1.8
 30
0.0
 11
35.0
 21
-1.8
 31
0.0
  0
LINE
  5
2CC
330
B8
100
AcDbEntity
  8
PEN1
  6
LTY1
100
AcDbLine
 10
35.0
 20
-1.8
 30
0.0
 11
35.0
 21
34.9
 31
0.0
  0
LINE
  5
2CD
330
B8
100
AcDbEntity
  8
PEN1
  6
LTY1
100
AcDbLine
 10
35.0
 20
34.9
 30
0.0
 11
28.0
 21
34.9
 31
0.0
  0
LINE
  5
2CE
330
B8
100
AcDbEntity
  8
PEN1
  6
LTY1
100
AcDbLine
 10
36.0
 20
41.2
 30
0.0
 11
36.0
 21
-8.4
 31
0.0
  0
LINE
  5
2CF
330
B8
100
AcDbEntity
  8
PEN1
  6
LTY1
100
AcDbLine
 10
27.0
 20
-8.5
 30
0.0
 11
27.0
 21
41.2
 31
0.0
  0
LINE
  5
2D0
330
B8
100
AcDbEntity
  8
PEN1
  6
LTY1
100
AcDbLine
 10
27.0
 20
41.2
 30
0.0
 11
36.0
 21
41.2
 31
0.0
  0
LINE
  5
2D1
330
B8
100
AcDbEntity
  8
PEN1
  6
LTY1
100
AcDbLine
 10
36.0
 20
35.6
 30
0.0
 11
27.0
 21
35.6
 31
0.0
  0
LINE
  5
2D2
330
B8
100
AcDbEntity
  8
PEN1
  6
LTY1
100
AcDbLine
 10
-36.0
 20
41.0
 30
0.0
 11
-36.0
 21
-14.5
 31
0.0
  0
ATTDEF
  5
2D3
330
B8
100
AcDbEntity
  8
PEN3
100
AcDbText
 10
30.0
 20
-29.5
 30
0.0
 40
5.0
  1
-
  7
NORMSCHRIFT
 72
     2
 11
33.5
 21
-29.5
 31
0.0
100
AcDbAttributeDefinition
  3
BMK
  2
CODE_4
 70
     8
280
     0
  0
ATTDEF
  5
2D4
330
B8
100
AcDbEntity
  8
PEN3
100
AcDbText
 10
-32.5
 20
-24.5
 30
0.0
 40
5.0
  1
9195-xxxx-xxx-xxx-x
  7
NORMSCHRIFT
100
AcDbAttributeDefinition
  3
Text / Typ
  2
CODE_51
 70
     8
280
     0
  0
ENDBLK
  5
69E
330
B8
100
AcDbEntity
  8
0
100
AcDbBlockEnd
  0
BLOCK
  5
69F
330
2D7
100
AcDbEntity
  8
0
100
AcDbBlockBegin
  2
STAHL94
 70
     0
 10
0.0
 20
0.0
 30
0.0
  3
STAHL94
  1

  0
LINE
  5
2D8
330
2D7
100
AcDbEntity
  8
PEN1
  6
LTY1
100
AcDbLine
 10
18.175
 20
18.175
 30
0.0
 11
0.0
 21
18.175
 31
0.0
  0
LINE
  5
2D9
330
2D7
100
AcDbEntity
  8
PEN1
  6
LTY1
100
AcDbLine
 10
0.0
 20
18.175
 30
0.0
 11
0.0
 21
9.075
 31
0.0
  0
LINE
  5
2DA
330
2D7
100
AcDbEntity
  8
PEN1
  6
LTY1
100
AcDbLine
 10
0.0
 20
9.075
 30
0.0
 11
0.625
 21
9.075
 31
0.0
  0
LINE
  5
2DB
330
2D7
100
AcDbEntity
  8
PEN1
  6
LTY1
100
AcDbLine
 10
0.625
 20
9.075
 30
0.0
 11
0.625
 21
11.825
 31
0.0
  0
LINE
  5
2DC
330
2D7
100
AcDbEntity
  8
PEN1
  6
LTY1
100
AcDbLine
 10
0.625
 20
11.825
 30
0.0
 11
4.4
 21
14.025
 31
0.0
  0
LINE
  5
2DD
330
2D7
100
AcDbEntity
  8
PEN1
  6
LTY1
100
AcDbLine
 10
4.4
 20
14.025
 30
0.0
 11
13.775
 21
14.025
 31
0.0
  0
LINE
  5
2DE
330
2D7
100
AcDbEntity
  8
PEN1
  6
LTY1
100
AcDbLine
 10
13.775
 20
14.025
 30
0.0
 11
17.525
 21
11.825
 31
0.0
  0
LINE
  5
2DF
330
2D7
100
AcDbEntity
  8
PEN1
  6
LTY1
100
AcDbLine
 10
17.525
 20
11.825
 30
0.0
 11
17.525
 21
6.35
 31
0.0
  0
LINE
  5
2E0
330
2D7
100
AcDbEntity
  8
PEN1
  6
LTY1
100
AcDbLine
 10
17.525
 20
6.35
 30
0.0
 11
13.775
 21
4.15
 31
0.0
  0
LINE
  5
2E1
330
2D7
100
AcDbEntity
  8
PEN1
  6
LTY1
100
AcDbLine
 10
13.775
 20
4.15
 30
0.0
 11
4.4
 21
4.15
 31
0.0
  0
LINE
  5
2E2
330
2D7
100
AcDbEntity
  8
PEN1
  6
LTY1
100
AcDbLine
 10
4.4
 20
4.15
 30
0.0
 11
0.625
 21
6.35
 31
0.0
  0
LINE
  5
2E3
330
2D7
100
AcDbEntity
  8
PEN1
  6
LTY1
100
AcDbLine
 10
0.625
 20
6.35
 30
0.0
 11
0.625
 21
9.075
 31
0.0
  0
LINE
  5
2E4
330
2D7
100
AcDbEntity
  8
PEN1
  6
LTY1
100
AcDbLine
 10
0.625
 20
9.075
 30
0.0
 11
0.0
 21
9.075
 31
0.0
  0
LINE
  5
2E5
330
2D7
100
AcDbEntity
  8
PEN1
  6
LTY1
100
AcDbLine
 10
0.0
 20
9.075
 30
0.0
 11
0.0
 21
0.0
 31
0.0
  0
LINE
  5
2E6
330
2D7
100
AcDbEntity
  8
PEN1
  6
LTY1
100
AcDbLine
 10
0.0
 20
0.0
 30
0.0
 11
18.175
 21
0.0
 31
0.0
  0
LINE
  5
2E7
330
2D7
100
AcDbEntity
  8
PEN1
  6
LTY1
100
AcDbLine
 10
18.175
 20
0.0
 30
0.0
 11
18.175
 21
18.175
 31
0.0
  0
LINE
  5
2E8
330
2D7
100
AcDbEntity
  8
PEN1
  6
LTY1
100
AcDbLine
 10
0.0
 20
0.225
 30
0.0
 11
18.175
 21
0.225
 31
0.0
  0
LINE
  5
2E9
330
2D7
100
AcDbEntity
  8
PEN1
  6
LTY1
100
AcDbLine
 10
0.0
 20
0.45
 30
0.0
 11
18.175
 21
0.45
 31
0.0
  0
LINE
  5
2EA
330
2D7
100
AcDbEntity
  8
PEN1
  6
LTY1
100
AcDbLine
 10
0.0
 20
0.675
 30
0.0
 11
18.175
 21
0.675
 31
0.0
  0
LINE
  5
2EB
330
2D7
100
AcDbEntity
  8
PEN1
  6
LTY1
100
AcDbLine
 10
0.0
 20
0.9
 30
0.0
 11
18.175
 21
0.9
 31
0.0
  0
LINE
  5
2EC
330
2D7
100
AcDbEntity
  8
PEN1
  6
LTY1
100
AcDbLine
 10
0.0
 20
1.125
 30
0.0
 11
18.175
 21
1.125
 31
0.0
  0
LINE
  5
2ED
330
2D7
100
AcDbEntity
  8
PEN1
  6
LTY1
100
AcDbLine
 10
0.0
 20
1.35
 30
0.0
 11
18.175
 21
1.35
 31
0.0
  0
LINE
  5
2EE
330
2D7
100
AcDbEntity
  8
PEN1
  6
LTY1
100
AcDbLine
 10
0.0
 20
1.575
 30
0.0
 11
18.175
 21
1.575
 31
0.0
  0
LINE
  5
2EF
330
2D7
100
AcDbEntity
  8
PEN1
  6
LTY1
100
AcDbLine
 10
0.0
 20
1.8
 30
0.0
 11
18.175
 21
1.8
 31
0.0
  0
LINE
  5
2F0
330
2D7
100
AcDbEntity
  8
PEN1
  6
LTY1
100
AcDbLine
 10
0.0
 20
2.025
 30
0.0
 11
18.175
 21
2.025
 31
0.0
  0
LINE
  5
2F1
330
2D7
100
AcDbEntity
  8
PEN1
  6
LTY1
100
AcDbLine
 10
0.0
 20
2.25
 30
0.0
 11
18.175
 21
2.25
 31
0.0
  0
LINE
  5
2F2
330
2D7
100
AcDbEntity
  8
PEN1
  6
LTY1
100
AcDbLine
 10
0.0
 20
2.5
 30
0.0
 11
18.175
 21
2.5
 31
0.0
  0
LINE
  5
2F3
330
2D7
100
AcDbEntity
  8
PEN1
  6
LTY1
100
AcDbLine
 10
0.0
 20
2.725
 30
0.0
 11
18.175
 21
2.725
 31
0.0
  0
LINE
  5
2F4
330
2D7
100
AcDbEntity
  8
PEN1
  6
LTY1
100
AcDbLine
 10
0.0
 20
2.95
 30
0.0
 11
18.175
 21
2.95
 31
0.0
  0
LINE
  5
2F5
330
2D7
100
AcDbEntity
  8
PEN1
  6
LTY1
100
AcDbLine
 10
0.0
 20
3.175
 30
0.0
 11
18.175
 21
3.175
 31
0.0
  0
LINE
  5
2F6
330
2D7
100
AcDbEntity
  8
PEN1
  6
LTY1
100
AcDbLine
 10
0.0
 20
3.4
 30
0.0
 11
18.175
 21
3.4
 31
0.0
  0
LINE
  5
2F7
330
2D7
100
AcDbEntity
  8
PEN1
  6
LTY1
100
AcDbLine
 10
0.0
 20
3.625
 30
0.0
 11
18.175
 21
3.625
 31
0.0
  0
LINE
  5
2F8
330
2D7
100
AcDbEntity
  8
PEN1
  6
LTY1
100
AcDbLine
 10
0.0
 20
3.85
 30
0.0
 11
18.175
 21
3.85
 31
0.0
  0
LINE
  5
2F9
330
2D7
100
AcDbEntity
  8
PEN1
  6
LTY1
100
AcDbLine
 10
0.0
 20
4.075
 30
0.0
 11
18.175
 21
4.075
 31
0.0
  0
LINE
  5
2FA
330
2D7
100
AcDbEntity
  8
PEN1
  6
LTY1
100
AcDbLine
 10
0.0
 20
4.3
 30
0.0
 11
4.125
 21
4.3
 31
0.0
  0
LINE
  5
2FB
330
2D7
100
AcDbEntity
  8
PEN1
  6
LTY1
100
AcDbLine
 10
14.025
 20
4.3
 30
0.0
 11
18.175
 21
4.3
 31
0.0
  0
LINE
  5
2FC
330
2D7
100
AcDbEntity
  8
PEN1
  6
LTY1
100
AcDbLine
 10
0.0
 20
4.525
 30
0.0
 11
3.725
 21
4.525
 31
0.0
  0
LINE
  5
2FD
330
2D7
100
AcDbEntity
  8
PEN1
  6
LTY1
100
AcDbLine
 10
14.425
 20
4.525
 30
0.0
 11
18.175
 21
4.525
 31
0.0
  0
LINE
  5
2FE
330
2D7
100
AcDbEntity
  8
PEN1
  6
LTY1
100
AcDbLine
 10
0.0
 20
4.775
 30
0.0
 11
3.325
 21
4.775
 31
0.0
  0
LINE
  5
2FF
330
2D7
100
AcDbEntity
  8
PEN1
  6
LTY1
100
AcDbLine
 10
14.8
 20
4.775
 30
0.0
 11
18.175
 21
4.775
 31
0.0
  0
LINE
  5
300
330
2D7
100
AcDbEntity
  8
PEN1
  6
LTY1
100
AcDbLine
 10
0.0
 20
5.0
 30
0.0
 11
2.95
 21
5.0
 31
0.0
  0
LINE
  5
301
330
2D7
100
AcDbEntity
  8
PEN1
  6
LTY1
100
AcDbLine
 10
15.2
 20
5.0
 30
0.0
 11
18.175
 21
5.0
 31
0.0
  0
LINE
  5
302
330
2D7
100
AcDbEntity
  8
PEN1
  6
LTY1
100
AcDbLine
 10
0.0
 20
5.225
 30
0.0
 11
2.55
 21
5.225
 31
0.0
  0
LINE
  5
303
330
2D7
100
AcDbEntity
  8
PEN1
  6
LTY1
100
AcDbLine
 10
15.575
 20
5.225
 30
0.0
 11
18.175
 21
5.225
 31
0.0
  0
LINE
  5
304
330
2D7
100
AcDbEntity
  8
PEN1
  6
LTY1
100
AcDbLine
 10
0.0
 20
5.45
 30
0.0
 11
2.175
 21
5.45
 31
0.0
  0
LINE
  5
305
330
2D7
100
AcDbEntity
  8
PEN1
  6
LTY1
100
AcDbLine
 10
15.975
 20
5.45
 30
0.0
 11
18.175
 21
5.45
 31
0.0
  0
LINE
  5
306
330
2D7
100
AcDbEntity
  8
PEN1
  6
LTY1
100
AcDbLine
 10
0.0
 20
5.675
 30
0.0
 11
1.775
 21
5.675
 31
0.0
  0
LINE
  5
307
330
2D7
100
AcDbEntity
  8
PEN1
  6
LTY1
100
AcDbLine
 10
16.375
 20
5.675
 30
0.0
 11
18.175
 21
5.675
 31
0.0
  0
LINE
  5
308
330
2D7
100
AcDbEntity
  8
PEN1
  6
LTY1
100
AcDbLine
 10
0.0
 20
5.9
 30
0.0
 11
1.375
 21
5.9
 31
0.0
  0
LINE
  5
309
330
2D7
100
AcDbEntity
  8
PEN1
  6
LTY1
100
AcDbLine
 10
16.75
 20
5.9
 30
0.0
 11
18.175
 21
5.9
 31
0.0
  0
LINE
  5
30A
330
2D7
100
AcDbEntity
  8
PEN1
  6
LTY1
100
AcDbLine
 10
0.0
 20
6.125
 30
0.0
 11
1.0
 21
6.125
 31
0.0
  0
LINE
  5
30B
330
2D7
100
AcDbEntity
  8
PEN1
  6
LTY1
100
AcDbLine
 10
17.15
 20
6.125
 30
0.0
 11
18.175
 21
6.125
 31
0.0
  0
LINE
  5
30C
330
2D7
100
AcDbEntity
  8
PEN1
  6
LTY1
100
AcDbLine
 10
0.0
 20
6.35
 30
0.0
 11
0.625
 21
6.35
 31
0.0
  0
LINE
  5
30D
330
2D7
100
AcDbEntity
  8
PEN1
  6
LTY1
100
AcDbLine
 10
17.525
 20
6.35
 30
0.0
 11
18.175
 21
6.35
 31
0.0
  0
LINE
  5
30E
330
2D7
100
AcDbEntity
  8
PEN1
  6
LTY1
100
AcDbLine
 10
0.0
 20
6.575
 30
0.0
 11
0.625
 21
6.575
 31
0.0
  0
LINE
  5
30F
330
2D7
100
AcDbEntity
  8
PEN1
  6
LTY1
100
AcDbLine
 10
17.525
 20
6.575
 30
0.0
 11
18.175
 21
6.575
 31
0.0
  0
LINE
  5
310
330
2D7
100
AcDbEntity
  8
PEN1
  6
LTY1
100
AcDbLine
 10
0.0
 20
6.8
 30
0.0
 11
0.625
 21
6.8
 31
0.0
  0
LINE
  5
311
330
2D7
100
AcDbEntity
  8
PEN1
  6
LTY1
100
AcDbLine
 10
17.525
 20
6.8
 30
0.0
 11
18.175
 21
6.8
 31
0.0
  0
LINE
  5
312
330
2D7
100
AcDbEntity
  8
PEN1
  6
LTY1
100
AcDbLine
 10
0.0
 20
7.05
 30
0.0
 11
0.625
 21
7.05
 31
0.0
  0
LINE
  5
313
330
2D7
100
AcDbEntity
  8
PEN1
  6
LTY1
100
AcDbLine
 10
17.525
 20
7.05
 30
0.0
 11
18.175
 21
7.05
 31
0.0
  0
LINE
  5
314
330
2D7
100
AcDbEntity
  8
PEN1
  6
LTY1
100
AcDbLine
 10
0.0
 20
7.275
 30
0.0
 11
0.625
 21
7.275
 31
0.0
  0
LINE
  5
315
330
2D7
100
AcDbEntity
  8
PEN1
  6
LTY1
100
AcDbLine
 10
17.525
 20
7.275
 30
0.0
 11
18.175
 21
7.275
 31
0.0
  0
LINE
  5
316
330
2D7
100
AcDbEntity
  8
PEN1
  6
LTY1
100
AcDbLine
 10
0.0
 20
7.5
 30
0.0
 11
0.625
 21
7.5
 31
0.0
  0
LINE
  5
317
330
2D7
100
AcDbEntity
  8
PEN1
  6
LTY1
100
AcDbLine
 10
17.525
 20
7.5
 30
0.0
 11
18.175
 21
7.5
 31
0.0
  0
LINE
  5
318
330
2D7
100
AcDbEntity
  8
PEN1
  6
LTY1
100
AcDbLine
 10
0.0
 20
7.725
 30
0.0
 11
0.625
 21
7.725
 31
0.0
  0
LINE
  5
319
330
2D7
100
AcDbEntity
  8
PEN1
  6
LTY1
100
AcDbLine
 10
17.525
 20
7.725
 30
0.0
 11
18.175
 21
7.725
 31
0.0
  0
LINE
  5
31A
330
2D7
100
AcDbEntity
  8
PEN1
  6
LTY1
100
AcDbLine
 10
0.0
 20
7.95
 30
0.0
 11
0.625
 21
7.95
 31
0.0
  0
LINE
  5
31B
330
2D7
100
AcDbEntity
  8
PEN1
  6
LTY1
100
AcDbLine
 10
17.525
 20
7.95
 30
0.0
 11
18.175
 21
7.95
 31
0.0
  0
LINE
  5
31C
330
2D7
100
AcDbEntity
  8
PEN1
  6
LTY1
100
AcDbLine
 10
0.0
 20
8.175
 30
0.0
 11
0.625
 21
8.175
 31
0.0
  0
LINE
  5
31D
330
2D7
100
AcDbEntity
  8
PEN1
  6
LTY1
100
AcDbLine
 10
17.525
 20
8.175
 30
0.0
 11
18.175
 21
8.175
 31
0.0
  0
LINE
  5
31E
330
2D7
100
AcDbEntity
  8
PEN1
  6
LTY1
100
AcDbLine
 10
0.0
 20
8.4
 30
0.0
 11
0.625
 21
8.4
 31
0.0
  0
LINE
  5
31F
330
2D7
100
AcDbEntity
  8
PEN1
  6
LTY1
100
AcDbLine
 10
17.525
 20
8.4
 30
0.0
 11
18.175
 21
8.4
 31
0.0
  0
LINE
  5
320
330
2D7
100
AcDbEntity
  8
PEN1
  6
LTY1
100
AcDbLine
 10
0.0
 20
8.625
 30
0.0
 11
0.625
 21
8.625
 31
0.0
  0
LINE
  5
321
330
2D7
100
AcDbEntity
  8
PEN1
  6
LTY1
100
AcDbLine
 10
17.525
 20
8.625
 30
0.0
 11
18.175
 21
8.625
 31
0.0
  0
LINE
  5
322
330
2D7
100
AcDbEntity
  8
PEN1
  6
LTY1
100
AcDbLine
 10
0.0
 20
8.85
 30
0.0
 11
0.625
 21
8.85
 31
0.0
  0
LINE
  5
323
330
2D7
100
AcDbEntity
  8
PEN1
  6
LTY1
100
AcDbLine
 10
17.525
 20
8.85
 30
0.0
 11
18.175
 21
8.85
 31
0.0
  0
LINE
  5
324
330
2D7
100
AcDbEntity
  8
PEN1
  6
LTY1
100
AcDbLine
 10
0.0
 20
9.075
 30
0.0
 11
0.625
 21
9.075
 31
0.0
  0
LINE
  5
325
330
2D7
100
AcDbEntity
  8
PEN1
  6
LTY1
100
AcDbLine
 10
17.525
 20
9.075
 30
0.0
 11
18.175
 21
9.075
 31
0.0
  0
LINE
  5
326
330
2D7
100
AcDbEntity
  8
PEN1
  6
LTY1
100
AcDbLine
 10
0.0
 20
9.325
 30
0.0
 11
0.625
 21
9.325
 31
0.0
  0
LINE
  5
327
330
2D7
100
AcDbEntity
  8
PEN1
  6
LTY1
100
AcDbLine
 10
17.525
 20
9.325
 30
0.0
 11
18.175
 21
9.325
 31
0.0
  0
LINE
  5
328
330
2D7
100
AcDbEntity
  8
PEN1
  6
LTY1
100
AcDbLine
 10
0.0
 20
9.55
 30
0.0
 11
0.625
 21
9.55
 31
0.0
  0
LINE
  5
329
330
2D7
100
AcDbEntity
  8
PEN1
  6
LTY1
100
AcDbLine
 10
17.525
 20
9.55
 30
0.0
 11
18.175
 21
9.55
 31
0.0
  0
LINE
  5
32A
330
2D7
100
AcDbEntity
  8
PEN1
  6
LTY1
100
AcDbLine
 10
0.0
 20
9.775
 30
0.0
 11
0.625
 21
9.775
 31
0.0
  0
LINE
  5
32B
330
2D7
100
AcDbEntity
  8
PEN1
  6
LTY1
100
AcDbLine
 10
17.525
 20
9.775
 30
0.0
 11
18.175
 21
9.775
 31
0.0
  0
LINE
  5
32C
330
2D7
100
AcDbEntity
  8
PEN1
  6
LTY1
100
AcDbLine
 10
0.0
 20
10.0
 30
0.0
 11
0.625
 21
10.0
 31
0.0
  0
LINE
  5
32D
330
2D7
100
AcDbEntity
  8
PEN1
  6
LTY1
100
AcDbLine
 10
17.525
 20
10.0
 30
0.0
 11
18.175
 21
10.0
 31
0.0
  0
LINE
  5
32E
330
2D7
100
AcDbEntity
  8
PEN1
  6
LTY1
100
AcDbLine
 10
0.0
 20
10.225
 30
0.0
 11
0.625
 21
10.225
 31
0.0
  0
LINE
  5
32F
330
2D7
100
AcDbEntity
  8
PEN1
  6
LTY1
100
AcDbLine
 10
17.525
 20
10.225
 30
0.0
 11
18.175
 21
10.225
 31
0.0
  0
LINE
  5
330
330
2D7
100
AcDbEntity
  8
PEN1
  6
LTY1
100
AcDbLine
 10
0.0
 20
10.45
 30
0.0
 11
0.625
 21
10.45
 31
0.0
  0
LINE
  5
331
330
2D7
100
AcDbEntity
  8
PEN1
  6
LTY1
100
AcDbLine
 10
17.525
 20
10.45
 30
0.0
 11
18.175
 21
10.45
 31
0.0
  0
LINE
  5
332
330
2D7
100
AcDbEntity
  8
PEN1
  6
LTY1
100
AcDbLine
 10
0.0
 20
10.675
 30
0.0
 11
0.625
 21
10.675
 31
0.0
  0
LINE
  5
333
330
2D7
100
AcDbEntity
  8
PEN1
  6
LTY1
100
AcDbLine
 10
17.525
 20
10.675
 30
0.0
 11
18.175
 21
10.675
 31
0.0
  0
LINE
  5
334
330
2D7
100
AcDbEntity
  8
PEN1
  6
LTY1
100
AcDbLine
 10
0.0
 20
10.9
 30
0.0
 11
0.625
 21
10.9
 31
0.0
  0
LINE
  5
335
330
2D7
100
AcDbEntity
  8
PEN1
  6
LTY1
100
AcDbLine
 10
17.525
 20
10.9
 30
0.0
 11
18.175
 21
10.9
 31
0.0
  0
LINE
  5
336
330
2D7
100
AcDbEntity
  8
PEN1
  6
LTY1
100
AcDbLine
 10
0.0
 20
11.125
 30
0.0
 11
0.625
 21
11.125
 31
0.0
  0
LINE
  5
337
330
2D7
100
AcDbEntity
  8
PEN1
  6
LTY1
100
AcDbLine
 10
17.525
 20
11.125
 30
0.0
 11
18.175
 21
11.125
 31
0.0
  0
LINE
  5
338
330
2D7
100
AcDbEntity
  8
PEN1
  6
LTY1
100
AcDbLine
 10
0.0
 20
11.35
 30
0.0
 11
0.625
 21
11.35
 31
0.0
  0
LINE
  5
339
330
2D7
100
AcDbEntity
  8
PEN1
  6
LTY1
100
AcDbLine
 10
17.525
 20
11.35
 30
0.0
 11
18.175
 21
11.35
 31
0.0
  0
LINE
  5
33A
330
2D7
100
AcDbEntity
  8
PEN1
  6
LTY1
100
AcDbLine
 10
0.0
 20
11.6
 30
0.0
 11
0.625
 21
11.6
 31
0.0
  0
LINE
  5
33B
330
2D7
100
AcDbEntity
  8
PEN1
  6
LTY1
100
AcDbLine
 10
17.525
 20
11.6
 30
0.0
 11
18.175
 21
11.6
 31
0.0
  0
LINE
  5
33C
330
2D7
100
AcDbEntity
  8
PEN1
  6
LTY1
100
AcDbLine
 10
0.0
 20
11.825
 30
0.0
 11
0.625
 21
11.825
 31
0.0
  0
LINE
  5
33D
330
2D7
100
AcDbEntity
  8
PEN1
  6
LTY1
100
AcDbLine
 10
17.525
 20
11.825
 30
0.0
 11
18.175
 21
11.825
 31
0.0
  0
LINE
  5
33E
330
2D7
100
AcDbEntity
  8
PEN1
  6
LTY1
100
AcDbLine
 10
0.0
 20
12.05
 30
0.0
 11
1.0
 21
12.05
 31
0.0
  0
LINE
  5
33F
330
2D7
100
AcDbEntity
  8
PEN1
  6
LTY1
100
AcDbLine
 10
17.15
 20
12.05
 30
0.0
 11
18.175
 21
12.05
 31
0.0
  0
LINE
  5
340
330
2D7
100
AcDbEntity
  8
PEN1
  6
LTY1
100
AcDbLine
 10
0.0
 20
12.275
 30
0.0
 11
1.375
 21
12.275
 31
0.0
  0
LINE
  5
341
330
2D7
100
AcDbEntity
  8
PEN1
  6
LTY1
100
AcDbLine
 10
16.75
 20
12.275
 30
0.0
 11
18.175
 21
12.275
 31
0.0
  0
LINE
  5
342
330
2D7
100
AcDbEntity
  8
PEN1
  6
LTY1
100
AcDbLine
 10
0.0
 20
12.5
 30
0.0
 11
1.775
 21
12.5
 31
0.0
  0
LINE
  5
343
330
2D7
100
AcDbEntity
  8
PEN1
  6
LTY1
100
AcDbLine
 10
16.375
 20
12.5
 30
0.0
 11
18.175
 21
12.5
 31
0.0
  0
LINE
  5
344
330
2D7
100
AcDbEntity
  8
PEN1
  6
LTY1
100
AcDbLine
 10
0.0
 20
12.725
 30
0.0
 11
2.175
 21
12.725
 31
0.0
  0
LINE
  5
345
330
2D7
100
AcDbEntity
  8
PEN1
  6
LTY1
100
AcDbLine
 10
15.975
 20
12.725
 30
0.0
 11
18.175
 21
12.725
 31
0.0
  0
LINE
  5
346
330
2D7
100
AcDbEntity
  8
PEN1
  6
LTY1
100
AcDbLine
 10
0.0
 20
12.95
 30
0.0
 11
2.55
 21
12.95
 31
0.0
  0
LINE
  5
347
330
2D7
100
AcDbEntity
  8
PEN1
  6
LTY1
100
AcDbLine
 10
15.575
 20
12.95
 30
0.0
 11
18.175
 21
12.95
 31
0.0
  0
LINE
  5
348
330
2D7
100
AcDbEntity
  8
PEN1
  6
LTY1
100
AcDbLine
 10
0.0
 20
13.175
 30
0.0
 11
2.95
 21
13.175
 31
0.0
  0
LINE
  5
349
330
2D7
100
AcDbEntity
  8
PEN1
  6
LTY1
100
AcDbLine
 10
15.2
 20
13.175
 30
0.0
 11
18.175
 21
13.175
 31
0.0
  0
LINE
  5
34A
330
2D7
100
AcDbEntity
  8
PEN1
  6
LTY1
100
AcDbLine
 10
0.0
 20
13.4
 30
0.0
 11
3.325
 21
13.4
 31
0.0
  0
LINE
  5
34B
330
2D7
100
AcDbEntity
  8
PEN1
  6
LTY1
100
AcDbLine
 10
14.8
 20
13.4
 30
0.0
 11
18.175
 21
13.4
 31
0.0
  0
LINE
  5
34C
330
2D7
100
AcDbEntity
  8
PEN1
  6
LTY1
100
AcDbLine
 10
0.0
 20
13.625
 30
0.0
 11
3.725
 21
13.625
 31
0.0
  0
LINE
  5
34D
330
2D7
100
AcDbEntity
  8
PEN1
  6
LTY1
100
AcDbLine
 10
14.425
 20
13.625
 30
0.0
 11
18.175
 21
13.625
 31
0.0
  0
LINE
  5
34E
330
2D7
100
AcDbEntity
  8
PEN1
  6
LTY1
100
AcDbLine
 10
0.0
 20
13.875
 30
0.0
 11
4.125
 21
13.875
 31
0.0
  0
LINE
  5
34F
330
2D7
100
AcDbEntity
  8
PEN1
  6
LTY1
100
AcDbLine
 10
14.025
 20
13.875
 30
0.0
 11
18.175
 21
13.875
 31
0.0
  0
LINE
  5
350
330
2D7
100
AcDbEntity
  8
PEN1
  6
LTY1
100
AcDbLine
 10
0.0
 20
14.1
 30
0.0
 11
18.175
 21
14.1
 31
0.0
  0
LINE
  5
351
330
2D7
100
AcDbEntity
  8
PEN1
  6
LTY1
100
AcDbLine
 10
0.0
 20
14.325
 30
0.0
 11
18.175
 21
14.325
 31
0.0
  0
LINE
  5
352
330
2D7
100
AcDbEntity
  8
PEN1
  6
LTY1
100
AcDbLine
 10
0.0
 20
14.55
 30
0.0
 11
18.175
 21
14.55
 31
0.0
  0
LINE
  5
353
330
2D7
100
AcDbEntity
  8
PEN1
  6
LTY1
100
AcDbLine
 10
0.0
 20
14.775
 30
0.0
 11
18.175
 21
14.775
 31
0.0
  0
LINE
  5
354
330
2D7
100
AcDbEntity
  8
PEN1
  6
LTY1
100
AcDbLine
 10
0.0
 20
15.0
 30
0.0
 11
18.175
 21
15.0
 31
0.0
  0
LINE
  5
355
330
2D7
100
AcDbEntity
  8
PEN1
  6
LTY1
100
AcDbLine
 10
0.0
 20
15.225
 30
0.0
 11
18.175
 21
15.225
 31
0.0
  0
LINE
  5
356
330
2D7
100
AcDbEntity
  8
PEN1
  6
LTY1
100
AcDbLine
 10
0.0
 20
15.45
 30
0.0
 11
18.175
 21
15.45
 31
0.0
  0
LINE
  5
357
330
2D7
100
AcDbEntity
  8
PEN1
  6
LTY1
100
AcDbLine
 10
0.0
 20
15.675
 30
0.0
 11
18.175
 21
15.675
 31
0.0
  0
LINE
  5
358
330
2D7
100
AcDbEntity
  8
PEN1
  6
LTY1
100
AcDbLine
 10
0.0
 20
15.9
 30
0.0
 11
18.175
 21
15.9
 31
0.0
  0
LINE
  5
359
330
2D7
100
AcDbEntity
  8
PEN1
  6
LTY1
100
AcDbLine
 10
0.0
 20
16.15
 30
0.0
 11
18.175
 21
16.15
 31
0.0
  0
LINE
  5
35A
330
2D7
100
AcDbEntity
  8
PEN1
  6
LTY1
100
AcDbLine
 10
0.0
 20
16.375
 30
0.0
 11
18.175
 21
16.375
 31
0.0
  0
LINE
  5
35B
330
2D7
100
AcDbEntity
  8
PEN1
  6
LTY1
100
AcDbLine
 10
0.0
 20
16.6
 30
0.0
 11
18.175
 21
16.6
 31
0.0
  0
LINE
  5
35C
330
2D7
100
AcDbEntity
  8
PEN1
  6
LTY1
100
AcDbLine
 10
0.0
 20
16.825
 30
0.0
 11
18.175
 21
16.825
 31
0.0
  0
LINE
  5
35D
330
2D7
100
AcDbEntity
  8
PEN1
  6
LTY1
100
AcDbLine
 10
0.0
 20
17.05
 30
0.0
 11
18.175
 21
17.05
 31
0.0
  0
LINE
  5
35E
330
2D7
100
AcDbEntity
  8
PEN1
  6
LTY1
100
AcDbLine
 10
0.0
 20
17.275
 30
0.0
 11
18.175
 21
17.275
 31
0.0
  0
LINE
  5
35F
330
2D7
100
AcDbEntity
  8
PEN1
  6
LTY1
100
AcDbLine
 10
0.0
 20
17.5
 30
0.0
 11
18.175
 21
17.5
 31
0.0
  0
LINE
  5
360
330
2D7
100
AcDbEntity
  8
PEN1
  6
LTY1
100
AcDbLine
 10
0.0
 20
17.725
 30
0.0
 11
18.175
 21
17.725
 31
0.0
  0
LINE
  5
361
330
2D7
100
AcDbEntity
  8
PEN1
  6
LTY1
100
AcDbLine
 10
0.0
 20
17.95
 30
0.0
 11
18.175
 21
17.95
 31
0.0
  0
LINE
  5
362
330
2D7
100
AcDbEntity
  8
PEN1
  6
LTY1
100
AcDbLine
 10
0.0
 20
18.175
 30
0.0
 11
18.175
 21
18.175
 31
0.0
  0
LINE
  5
363
330
2D7
100
AcDbEntity
  8
PEN2
  6
LTY1
100
AcDbLine
 10
16.625
 20
7.65
 30
0.0
 11
15.45
 21
7.65
 31
0.0
  0
LINE
  5
364
330
2D7
100
AcDbEntity
  8
PEN2
  6
LTY1
100
AcDbLine
 10
15.45
 20
7.65
 30
0.0
 11
15.45
 21
7.65
 31
0.0
  0
LINE
  5
365
330
2D7
100
AcDbEntity
  8
PEN2
  6
LTY1
100
AcDbLine
 10
15.45
 20
7.65
 30
0.0
 11
3.225
 21
7.65
 31
0.0
  0
LINE
  5
366
330
2D7
100
AcDbEntity
  8
PEN2
  6
LTY1
100
AcDbLine
 10
3.225
 20
7.65
 30
0.0
 11
3.225
 21
7.65
 31
0.0
  0
LINE
  5
367
330
2D7
100
AcDbEntity
  8
PEN2
  6
LTY1
100
AcDbLine
 10
3.225
 20
7.65
 30
0.0
 11
1.55
 21
7.65
 31
0.0
  0
LINE
  5
368
330
2D7
100
AcDbEntity
  8
PEN2
  6
LTY1
100
AcDbLine
 10
1.55
 20
7.65
 30
0.0
 11
1.55
 21
6.95
 31
0.0
  0
LINE
  5
369
330
2D7
100
AcDbEntity
  8
PEN2
  6
LTY1
100
AcDbLine
 10
1.55
 20
6.95
 30
0.0
 11
4.925
 21
5.05
 31
0.0
  0
LINE
  5
36A
330
2D7
100
AcDbEntity
  8
PEN2
  6
LTY1
100
AcDbLine
 10
4.925
 20
5.05
 30
0.0
 11
13.25
 21
5.05
 31
0.0
  0
LINE
  5
36B
330
2D7
100
AcDbEntity
  8
PEN2
  6
LTY1
100
AcDbLine
 10
13.25
 20
5.05
 30
0.0
 11
16.625
 21
6.95
 31
0.0
  0
LINE
  5
36C
330
2D7
100
AcDbEntity
  8
PEN2
  6
LTY1
100
AcDbLine
 10
16.625
 20
6.95
 30
0.0
 11
16.625
 21
7.65
 31
0.0
  0
LINE
  5
36D
330
2D7
100
AcDbEntity
  8
PEN2
  6
LTY1
100
AcDbLine
 10
4.625
 20
5.225
 30
0.0
 11
13.5
 21
5.225
 31
0.0
  0
LINE
  5
36E
330
2D7
100
AcDbEntity
  8
PEN2
  6
LTY1
100
AcDbLine
 10
4.35
 20
5.375
 30
0.0
 11
13.8
 21
5.375
 31
0.0
  0
LINE
  5
36F
330
2D7
100
AcDbEntity
  8
PEN2
  6
LTY1
100
AcDbLine
 10
4.05
 20
5.55
 30
0.0
 11
14.1
 21
5.55
 31
0.0
  0
LINE
  5
370
330
2D7
100
AcDbEntity
  8
PEN2
  6
LTY1
100
AcDbLine
 10
3.75
 20
5.7
 30
0.0
 11
14.375
 21
5.7
 31
0.0
  0
LINE
  5
371
330
2D7
100
AcDbEntity
  8
PEN2
  6
LTY1
100
AcDbLine
 10
3.475
 20
5.875
 30
0.0
 11
14.675
 21
5.875
 31
0.0
  0
LINE
  5
372
330
2D7
100
AcDbEntity
  8
PEN2
  6
LTY1
100
AcDbLine
 10
3.175
 20
6.025
 30
0.0
 11
14.975
 21
6.025
 31
0.0
  0
LINE
  5
373
330
2D7
100
AcDbEntity
  8
PEN2
  6
LTY1
100
AcDbLine
 10
2.875
 20
6.2
 30
0.0
 11
15.25
 21
6.2
 31
0.0
  0
LINE
  5
374
330
2D7
100
AcDbEntity
  8
PEN2
  6
LTY1
100
AcDbLine
 10
2.575
 20
6.35
 30
0.0
 11
15.55
 21
6.35
 31
0.0
  0
LINE
  5
375
330
2D7
100
AcDbEntity
  8
PEN2
  6
LTY1
100
AcDbLine
 10
2.3
 20
6.525
 30
0.0
 11
15.85
 21
6.525
 31
0.0
  0
LINE
  5
376
330
2D7
100
AcDbEntity
  8
PEN2
  6
LTY1
100
AcDbLine
 10
2.0
 20
6.675
 30
0.0
 11
16.15
 21
6.675
 31
0.0
  0
LINE
  5
377
330
2D7
100
AcDbEntity
  8
PEN2
  6
LTY1
100
AcDbLine
 10
1.7
 20
6.85
 30
0.0
 11
16.425
 21
6.85
 31
0.0
  0
LINE
  5
378
330
2D7
100
AcDbEntity
  8
PEN2
  6
LTY1
100
AcDbLine
 10
1.55
 20
7.0
 30
0.0
 11
16.625
 21
7.0
 31
0.0
  0
LINE
  5
379
330
2D7
100
AcDbEntity
  8
PEN2
  6
LTY1
100
AcDbLine
 10
1.55
 20
7.175
 30
0.0
 11
16.625
 21
7.175
 31
0.0
  0
LINE
  5
37A
330
2D7
100
AcDbEntity
  8
PEN2
  6
LTY1
100
AcDbLine
 10
1.55
 20
7.325
 30
0.0
 11
16.625
 21
7.325
 31
0.0
  0
LINE
  5
37B
330
2D7
100
AcDbEntity
  8
PEN2
  6
LTY1
100
AcDbLine
 10
1.55
 20
7.5
 30
0.0
 11
16.625
 21
7.5
 31
0.0
  0
LINE
  5
37C
330
2D7
100
AcDbEntity
  8
PEN2
  6
LTY1
100
AcDbLine
 10
1.55
 20
7.65
 30
0.0
 11
3.225
 21
7.65
 31
0.0
  0
LINE
  5
37D
330
2D7
100
AcDbEntity
  8
PEN2
  6
LTY1
100
AcDbLine
 10
3.225
 20
7.65
 30
0.0
 11
15.45
 21
7.65
 31
0.0
  0
LINE
  5
37E
330
2D7
100
AcDbEntity
  8
PEN2
  6
LTY1
100
AcDbLine
 10
15.45
 20
7.65
 30
0.0
 11
16.625
 21
7.65
 31
0.0
  0
LINE
  5
37F
330
2D7
100
AcDbEntity
  8
PEN2
  6
LTY1
100
AcDbLine
 10
16.625
 20
7.65
 30
0.0
 11
15.45
 21
7.65
 31
0.0
  0
LINE
  5
380
330
2D7
100
AcDbEntity
  8
PEN2
  6
LTY1
100
AcDbLine
 10
15.45
 20
7.65
 30
0.0
 11
15.45
 21
8.575
 31
0.0
  0
LINE
  5
381
330
2D7
100
AcDbEntity
  8
PEN2
  6
LTY1
100
AcDbLine
 10
15.45
 20
8.575
 30
0.0
 11
14.15
 21
8.575
 31
0.0
  0
LINE
  5
382
330
2D7
100
AcDbEntity
  8
PEN2
  6
LTY1
100
AcDbLine
 10
14.15
 20
8.575
 30
0.0
 11
14.15
 21
10.525
 31
0.0
  0
LINE
  5
383
330
2D7
100
AcDbEntity
  8
PEN2
  6
LTY1
100
AcDbLine
 10
14.15
 20
10.525
 30
0.0
 11
12.325
 21
10.525
 31
0.0
  0
LINE
  5
384
330
2D7
100
AcDbEntity
  8
PEN2
  6
LTY1
100
AcDbLine
 10
12.325
 20
10.525
 30
0.0
 11
12.325
 21
9.475
 31
0.0
  0
LINE
  5
385
330
2D7
100
AcDbEntity
  8
PEN2
  6
LTY1
100
AcDbLine
 10
12.325
 20
9.475
 30
0.0
 11
11.55
 21
9.475
 31
0.0
  0
LINE
  5
386
330
2D7
100
AcDbEntity
  8
PEN2
  6
LTY1
100
AcDbLine
 10
11.55
 20
9.475
 30
0.0
 11
11.55
 21
10.525
 31
0.0
  0
LINE
  5
387
330
2D7
100
AcDbEntity
  8
PEN2
  6
LTY1
100
AcDbLine
 10
11.55
 20
10.525
 30
0.0
 11
10.65
 21
10.525
 31
0.0
  0
LINE
  5
388
330
2D7
100
AcDbEntity
  8
PEN2
  6
LTY1
100
AcDbLine
 10
10.65
 20
10.525
 30
0.0
 11
10.65
 21
7.65
 31
0.0
  0
LINE
  5
389
330
2D7
100
AcDbEntity
  8
PEN2
  6
LTY1
100
AcDbLine
 10
10.65
 20
7.65
 30
0.0
 11
9.875
 21
10.525
 31
0.0
  0
LINE
  5
38A
330
2D7
100
AcDbEntity
  8
PEN2
  6
LTY1
100
AcDbLine
 10
9.875
 20
10.525
 30
0.0
 11
8.825
 21
10.525
 31
0.0
  0
LINE
  5
38B
330
2D7
100
AcDbEntity
  8
PEN2
  6
LTY1
100
AcDbLine
 10
8.825
 20
10.525
 30
0.0
 11
8.05
 21
7.65
 31
0.0
  0
LINE
  5
38C
330
2D7
100
AcDbEntity
  8
PEN2
  6
LTY1
100
AcDbLine
 10
8.05
 20
7.65
 30
0.0
 11
7.4
 21
7.65
 31
0.0
  0
LINE
  5
38D
330
2D7
100
AcDbEntity
  8
PEN2
  6
LTY1
100
AcDbLine
 10
7.4
 20
7.65
 30
0.0
 11
7.4
 21
9.725
 31
0.0
  0
LINE
  5
38E
330
2D7
100
AcDbEntity
  8
PEN2
  6
LTY1
100
AcDbLine
 10
7.4
 20
9.725
 30
0.0
 11
8.3
 21
9.725
 31
0.0
  0
LINE
  5
38F
330
2D7
100
AcDbEntity
  8
PEN2
  6
LTY1
100
AcDbLine
 10
8.3
 20
9.725
 30
0.0
 11
8.3
 21
10.525
 31
0.0
  0
LINE
  5
390
330
2D7
100
AcDbEntity
  8
PEN2
  6
LTY1
100
AcDbLine
 10
8.3
 20
10.525
 30
0.0
 11
3.225
 21
10.525
 31
0.0
  0
LINE
  5
391
330
2D7
100
AcDbEntity
  8
PEN2
  6
LTY1
100
AcDbLine
 10
3.225
 20
10.525
 30
0.0
 11
3.225
 21
7.65
 31
0.0
  0
LINE
  5
392
330
2D7
100
AcDbEntity
  8
PEN2
  6
LTY1
100
AcDbLine
 10
3.225
 20
7.65
 30
0.0
 11
1.55
 21
7.65
 31
0.0
  0
LINE
  5
393
330
2D7
100
AcDbEntity
  8
PEN2
  6
LTY1
100
AcDbLine
 10
1.55
 20
7.65
 30
0.0
 11
1.55
 21
11.225
 31
0.0
  0
LINE
  5
394
330
2D7
100
AcDbEntity
  8
PEN2
  6
LTY1
100
AcDbLine
 10
1.55
 20
11.225
 30
0.0
 11
4.925
 21
13.125
 31
0.0
  0
LINE
  5
395
330
2D7
100
AcDbEntity
  8
PEN2
  6
LTY1
100
AcDbLine
 10
4.925
 20
13.125
 30
0.0
 11
13.25
 21
13.125
 31
0.0
  0
LINE
  5
396
330
2D7
100
AcDbEntity
  8
PEN2
  6
LTY1
100
AcDbLine
 10
13.25
 20
13.125
 30
0.0
 11
16.625
 21
11.225
 31
0.0
  0
LINE
  5
397
330
2D7
100
AcDbEntity
  8
PEN2
  6
LTY1
100
AcDbLine
 10
16.625
 20
11.225
 30
0.0
 11
16.625
 21
7.65
 31
0.0
  0
LINE
  5
398
330
2D7
100
AcDbEntity
  8
PEN2
  6
LTY1
100
AcDbLine
 10
1.55
 20
7.825
 30
0.0
 11
3.225
 21
7.825
 31
0.0
  0
LINE
  5
399
330
2D7
100
AcDbEntity
  8
PEN2
  6
LTY1
100
AcDbLine
 10
7.4
 20
7.825
 30
0.0
 11
8.075
 21
7.825
 31
0.0
  0
LINE
  5
39A
330
2D7
100
AcDbEntity
  8
PEN2
  6
LTY1
100
AcDbLine
 10
10.575
 20
7.825
 30
0.0
 11
10.65
 21
7.825
 31
0.0
  0
LINE
  5
39B
330
2D7
100
AcDbEntity
  8
PEN2
  6
LTY1
100
AcDbLine
 10
15.45
 20
7.825
 30
0.0
 11
16.625
 21
7.825
 31
0.0
  0
LINE
  5
39C
330
2D7
100
AcDbEntity
  8
PEN2
  6
LTY1
100
AcDbLine
 10
1.55
 20
7.975
 30
0.0
 11
3.225
 21
7.975
 31
0.0
  0
LINE
  5
39D
330
2D7
100
AcDbEntity
  8
PEN2
  6
LTY1
100
AcDbLine
 10
7.4
 20
7.975
 30
0.0
 11
8.1
 21
7.975
 31
0.0
  0
LINE
  5
39E
330
2D7
100
AcDbEntity
  8
PEN2
  6
LTY1
100
AcDbLine
 10
10.55
 20
7.975
 30
0.0
 11
10.65
 21
7.975
 31
0.0
  0
LINE
  5
39F
330
2D7
100
AcDbEntity
  8
PEN2
  6
LTY1
100
AcDbLine
 10
15.45
 20
7.975
 30
0.0
 11
16.625
 21
7.975
 31
0.0
  0
LINE
  5
3A0
330
2D7
100
AcDbEntity
  8
PEN2
  6
LTY1
100
AcDbLine
 10
1.55
 20
8.15
 30
0.0
 11
3.225
 21
8.15
 31
0.0
  0
LINE
  5
3A1
330
2D7
100
AcDbEntity
  8
PEN2
  6
LTY1
100
AcDbLine
 10
7.4
 20
8.15
 30
0.0
 11
8.175
 21
8.15
 31
0.0
  0
LINE
  5
3A2
330
2D7
100
AcDbEntity
  8
PEN2
  6
LTY1
100
AcDbLine
 10
10.475
 20
8.15
 30
0.0
 11
10.65
 21
8.15
 31
0.0
  0
LINE
  5
3A3
330
2D7
100
AcDbEntity
  8
PEN2
  6
LTY1
100
AcDbLine
 10
15.45
 20
8.15
 30
0.0
 11
16.625
 21
8.15
 31
0.0
  0
LINE
  5
3A4
330
2D7
100
AcDbEntity
  8
PEN2
  6
LTY1
100
AcDbLine
 10
1.55
 20
8.3
 30
0.0
 11
3.225
 21
8.3
 31
0.0
  0
LINE
  5
3A5
330
2D7
100
AcDbEntity
  8
PEN2
  6
LTY1
100
AcDbLine
 10
7.4
 20
8.3
 30
0.0
 11
8.2
 21
8.3
 31
0.0
  0
LINE
  5
3A6
330
2D7
100
AcDbEntity
  8
PEN2
  6
LTY1
100
AcDbLine
 10
10.45
 20
8.3
 30
0.0
 11
10.65
 21
8.3
 31
0.0
  0
LINE
  5
3A7
330
2D7
100
AcDbEntity
  8
PEN2
  6
LTY1
100
AcDbLine
 10
15.45
 20
8.3
 30
0.0
 11
16.625
 21
8.3
 31
0.0
  0
LINE
  5
3A8
330
2D7
100
AcDbEntity
  8
PEN2
  6
LTY1
100
AcDbLine
 10
1.55
 20
8.475
 30
0.0
 11
3.225
 21
8.475
 31
0.0
  0
LINE
  5
3A9
330
2D7
100
AcDbEntity
  8
PEN2
  6
LTY1
100
AcDbLine
 10
7.4
 20
8.475
 30
0.0
 11
8.25
 21
8.475
 31
0.0
  0
LINE
  5
3AA
330
2D7
100
AcDbEntity
  8
PEN2
  6
LTY1
100
AcDbLine
 10
10.425
 20
8.475
 30
0.0
 11
10.65
 21
8.475
 31
0.0
  0
LINE
  5
3AB
330
2D7
100
AcDbEntity
  8
PEN2
  6
LTY1
100
AcDbLine
 10
15.45
 20
8.475
 30
0.0
 11
16.625
 21
8.475
 31
0.0
  0
LINE
  5
3AC
330
2D7
100
AcDbEntity
  8
PEN2
  6
LTY1
100
AcDbLine
 10
1.55
 20
8.625
 30
0.0
 11
3.225
 21
8.625
 31
0.0
  0
LINE
  5
3AD
330
2D7
100
AcDbEntity
  8
PEN2
  6
LTY1
100
AcDbLine
 10
7.4
 20
8.625
 30
0.0
 11
8.3
 21
8.625
 31
0.0
  0
LINE
  5
3AE
330
2D7
100
AcDbEntity
  8
PEN2
  6
LTY1
100
AcDbLine
 10
10.35
 20
8.625
 30
0.0
 11
10.65
 21
8.625
 31
0.0
  0
LINE
  5
3AF
330
2D7
100
AcDbEntity
  8
PEN2
  6
LTY1
100
AcDbLine
 10
14.15
 20
8.625
 30
0.0
 11
16.625
 21
8.625
 31
0.0
  0
LINE
  5
3B0
330
2D7
100
AcDbEntity
  8
PEN2
  6
LTY1
100
AcDbLine
 10
1.55
 20
8.8
 30
0.0
 11
3.225
 21
8.8
 31
0.0
  0
LINE
  5
3B1
330
2D7
100
AcDbEntity
  8
PEN2
  6
LTY1
100
AcDbLine
 10
7.4
 20
8.8
 30
0.0
 11
8.35
 21
8.8
 31
0.0
  0
LINE
  5
3B2
330
2D7
100
AcDbEntity
  8
PEN2
  6
LTY1
100
AcDbLine
 10
10.325
 20
8.8
 30
0.0
 11
10.65
 21
8.8
 31
0.0
  0
LINE
  5
3B3
330
2D7
100
AcDbEntity
  8
PEN2
  6
LTY1
100
AcDbLine
 10
14.15
 20
8.8
 30
0.0
 11
16.625
 21
8.8
 31
0.0
  0
LINE
  5
3B4
330
2D7
100
AcDbEntity
  8
PEN2
  6
LTY1
100
AcDbLine
 10
1.55
 20
8.95
 30
0.0
 11
3.225
 21
8.95
 31
0.0
  0
LINE
  5
3B5
330
2D7
100
AcDbEntity
  8
PEN2
  6
LTY1
100
AcDbLine
 10
7.4
 20
8.95
 30
0.0
 11
8.375
 21
8.95
 31
0.0
  0
LINE
  5
3B6
330
2D7
100
AcDbEntity
  8
PEN2
  6
LTY1
100
AcDbLine
 10
10.3
 20
8.95
 30
0.0
 11
10.65
 21
8.95
 31
0.0
  0
LINE
  5
3B7
330
2D7
100
AcDbEntity
  8
PEN2
  6
LTY1
100
AcDbLine
 10
14.15
 20
8.95
 30
0.0
 11
16.625
 21
8.95
 31
0.0
  0
LINE
  5
3B8
330
2D7
100
AcDbEntity
  8
PEN2
  6
LTY1
100
AcDbLine
 10
1.55
 20
9.125
 30
0.0
 11
3.225
 21
9.125
 31
0.0
  0
LINE
  5
3B9
330
2D7
100
AcDbEntity
  8
PEN2
  6
LTY1
100
AcDbLine
 10
7.4
 20
9.125
 30
0.0
 11
8.425
 21
9.125
 31
0.0
  0
LINE
  5
3BA
330
2D7
100
AcDbEntity
  8
PEN2
  6
LTY1
100
AcDbLine
 10
10.225
 20
9.125
 30
0.0
 11
10.65
 21
9.125
 31
0.0
  0
LINE
  5
3BB
330
2D7
100
AcDbEntity
  8
PEN2
  6
LTY1
100
AcDbLine
 10
14.15
 20
9.125
 30
0.0
 11
16.625
 21
9.125
 31
0.0
  0
LINE
  5
3BC
330
2D7
100
AcDbEntity
  8
PEN2
  6
LTY1
100
AcDbLine
 10
1.55
 20
9.275
 30
0.0
 11
3.225
 21
9.275
 31
0.0
  0
LINE
  5
3BD
330
2D7
100
AcDbEntity
  8
PEN2
  6
LTY1
100
AcDbLine
 10
7.4
 20
9.275
 30
0.0
 11
8.475
 21
9.275
 31
0.0
  0
LINE
  5
3BE
330
2D7
100
AcDbEntity
  8
PEN2
  6
LTY1
100
AcDbLine
 10
10.2
 20
9.275
 30
0.0
 11
10.65
 21
9.275
 31
0.0
  0
LINE
  5
3BF
330
2D7
100
AcDbEntity
  8
PEN2
  6
LTY1
100
AcDbLine
 10
14.15
 20
9.275
 30
0.0
 11
16.625
 21
9.275
 31
0.0
  0
LINE
  5
3C0
330
2D7
100
AcDbEntity
  8
PEN2
  6
LTY1
100
AcDbLine
 10
1.55
 20
9.45
 30
0.0
 11
3.225
 21
9.45
 31
0.0
  0
LINE
  5
3C1
330
2D7
100
AcDbEntity
  8
PEN2
  6
LTY1
100
AcDbLine
 10
7.4
 20
9.45
 30
0.0
 11
8.525
 21
9.45
 31
0.0
  0
LINE
  5
3C2
330
2D7
100
AcDbEntity
  8
PEN2
  6
LTY1
100
AcDbLine
 10
10.15
 20
9.45
 30
0.0
 11
10.65
 21
9.45
 31
0.0
  0
LINE
  5
3C3
330
2D7
100
AcDbEntity
  8
PEN2
  6
LTY1
100
AcDbLine
 10
14.15
 20
9.45
 30
0.0
 11
16.625
 21
9.45
 31
0.0
  0
LINE
  5
3C4
330
2D7
100
AcDbEntity
  8
PEN2
  6
LTY1
100
AcDbLine
 10
1.55
 20
9.6
 30
0.0
 11
3.225
 21
9.6
 31
0.0
  0
LINE
  5
3C5
330
2D7
100
AcDbEntity
  8
PEN2
  6
LTY1
100
AcDbLine
 10
7.4
 20
9.6
 30
0.0
 11
8.575
 21
9.6
 31
0.0
  0
LINE
  5
3C6
330
2D7
100
AcDbEntity
  8
PEN2
  6
LTY1
100
AcDbLine
 10
10.1
 20
9.6
 30
0.0
 11
10.65
 21
9.6
 31
0.0
  0
LINE
  5
3C7
330
2D7
100
AcDbEntity
  8
PEN2
  6
LTY1
100
AcDbLine
 10
11.55
 20
9.6
 30
0.0
 11
12.325
 21
9.6
 31
0.0
  0
LINE
  5
3C8
330
2D7
100
AcDbEntity
  8
PEN2
  6
LTY1
100
AcDbLine
 10
14.15
 20
9.6
 30
0.0
 11
16.625
 21
9.6
 31
0.0
  0
LINE
  5
3C9
330
2D7
100
AcDbEntity
  8
PEN2
  6
LTY1
100
AcDbLine
 10
1.55
 20
9.775
 30
0.0
 11
3.225
 21
9.775
 31
0.0
  0
LINE
  5
3CA
330
2D7
100
AcDbEntity
  8
PEN2
  6
LTY1
100
AcDbLine
 10
8.3
 20
9.775
 30
0.0
 11
8.6
 21
9.775
 31
0.0
  0
LINE
  5
3CB
330
2D7
100
AcDbEntity
  8
PEN2
  6
LTY1
100
AcDbLine
 10
10.05
 20
9.775
 30
0.0
 11
10.65
 21
9.775
 31
0.0
  0
LINE
  5
3CC
330
2D7
100
AcDbEntity
  8
PEN2
  6
LTY1
100
AcDbLine
 10
11.55
 20
9.775
 30
0.0
 11
12.325
 21
9.775
 31
0.0
  0
LINE
  5
3CD
330
2D7
100
AcDbEntity
  8
PEN2
  6
LTY1
100
AcDbLine
 10
14.15
 20
9.775
 30
0.0
 11
16.625
 21
9.775
 31
0.0
  0
LINE
  5
3CE
330
2D7
100
AcDbEntity
  8
PEN2
  6
LTY1
100
AcDbLine
 10
1.55
 20
9.925
 30
0.0
 11
3.225
 21
9.925
 31
0.0
  0
LINE
  5
3CF
330
2D7
100
AcDbEntity
  8
PEN2
  6
LTY1
100
AcDbLine
 10
8.3
 20
9.925
 30
0.0
 11
8.675
 21
9.925
 31
0.0
  0
LINE
  5
3D0
330
2D7
100
AcDbEntity
  8
PEN2
  6
LTY1
100
AcDbLine
 10
10.0
 20
9.925
 30
0.0
 11
10.65
 21
9.925
 31
0.0
  0
LINE
  5
3D1
330
2D7
100
AcDbEntity
  8
PEN2
  6
LTY1
100
AcDbLine
 10
11.55
 20
9.925
 30
0.0
 11
12.325
 21
9.925
 31
0.0
  0
LINE
  5
3D2
330
2D7
100
AcDbEntity
  8
PEN2
  6
LTY1
100
AcDbLine
 10
14.15
 20
9.925
 30
0.0
 11
16.625
 21
9.925
 31
0.0
  0
LINE
  5
3D3
330
2D7
100
AcDbEntity
  8
PEN2
  6
LTY1
100
AcDbLine
 10
1.55
 20
10.1
 30
0.0
 11
3.225
 21
10.1
 31
0.0
  0
LINE
  5
3D4
330
2D7
100
AcDbEntity
  8
PEN2
  6
LTY1
100
AcDbLine
 10
8.3
 20
10.1
 30
0.0
 11
8.7
 21
10.1
 31
0.0
  0
LINE
  5
3D5
330
2D7
100
AcDbEntity
  8
PEN2
  6
LTY1
100
AcDbLine
 10
9.975
 20
10.1
 30
0.0
 11
10.65
 21
10.1
 31
0.0
  0
LINE
  5
3D6
330
2D7
100
AcDbEntity
  8
PEN2
  6
LTY1
100
AcDbLine
 10
11.55
 20
10.1
 30
0.0
 11
12.325
 21
10.1
 31
0.0
  0
LINE
  5
3D7
330
2D7
100
AcDbEntity
  8
PEN2
  6
LTY1
100
AcDbLine
 10
14.15
 20
10.1
 30
0.0
 11
16.625
 21
10.1
 31
0.0
  0
LINE
  5
3D8
330
2D7
100
AcDbEntity
  8
PEN2
  6
LTY1
100
AcDbLine
 10
1.55
 20
10.25
 30
0.0
 11
3.225
 21
10.25
 31
0.0
  0
LINE
  5
3D9
330
2D7
100
AcDbEntity
  8
PEN2
  6
LTY1
100
AcDbLine
 10
8.3
 20
10.25
 30
0.0
 11
8.725
 21
10.25
 31
0.0
  0
LINE
  5
3DA
330
2D7
100
AcDbEntity
  8
PEN2
  6
LTY1
100
AcDbLine
 10
9.925
 20
10.25
 30
0.0
 11
10.65
 21
10.25
 31
0.0
  0
LINE
  5
3DB
330
2D7
100
AcDbEntity
  8
PEN2
  6
LTY1
100
AcDbLine
 10
11.55
 20
10.25
 30
0.0
 11
12.325
 21
10.25
 31
0.0
  0
LINE
  5
3DC
330
2D7
100
AcDbEntity
  8
PEN2
  6
LTY1
100
AcDbLine
 10
14.15
 20
10.25
 30
0.0
 11
16.625
 21
10.25
 31
0.0
  0
LINE
  5
3DD
330
2D7
100
AcDbEntity
  8
PEN2
  6
LTY1
100
AcDbLine
 10
1.55
 20
10.425
 30
0.0
 11
3.225
 21
10.425
 31
0.0
  0
LINE
  5
3DE
330
2D7
100
AcDbEntity
  8
PEN2
  6
LTY1
100
AcDbLine
 10
8.3
 20
10.425
 30
0.0
 11
8.8
 21
10.425
 31
0.0
  0
LINE
  5
3DF
330
2D7
100
AcDbEntity
  8
PEN2
  6
LTY1
100
AcDbLine
 10
9.875
 20
10.425
 30
0.0
 11
10.65
 21
10.425
 31
0.0
  0
LINE
  5
3E0
330
2D7
100
AcDbEntity
  8
PEN2
  6
LTY1
100
AcDbLine
 10
11.55
 20
10.425
 30
0.0
 11
12.325
 21
10.425
 31
0.0
  0
LINE
  5
3E1
330
2D7
100
AcDbEntity
  8
PEN2
  6
LTY1
100
AcDbLine
 10
14.15
 20
10.425
 30
0.0
 11
16.625
 21
10.425
 31
0.0
  0
LINE
  5
3E2
330
2D7
100
AcDbEntity
  8
PEN2
  6
LTY1
100
AcDbLine
 10
1.55
 20
10.575
 30
0.0
 11
16.625
 21
10.575
 31
0.0
  0
LINE
  5
3E3
330
2D7
100
AcDbEntity
  8
PEN2
  6
LTY1
100
AcDbLine
 10
1.55
 20
10.75
 30
0.0
 11
16.625
 21
10.75
 31
0.0
  0
LINE
  5
3E4
330
2D7
100
AcDbEntity
  8
PEN2
  6
LTY1
100
AcDbLine
 10
1.55
 20
10.9
 30
0.0
 11
16.625
 21
10.9
 31
0.0
  0
LINE
  5
3E5
330
2D7
100
AcDbEntity
  8
PEN2
  6
LTY1
100
AcDbLine
 10
1.55
 20
11.075
 30
0.0
 11
16.625
 21
11.075
 31
0.0
  0
LINE
  5
3E6
330
2D7
100
AcDbEntity
  8
PEN2
  6
LTY1
100
AcDbLine
 10
1.55
 20
11.225
 30
0.0
 11
16.625
 21
11.225
 31
0.0
  0
LINE
  5
3E7
330
2D7
100
AcDbEntity
  8
PEN2
  6
LTY1
100
AcDbLine
 10
1.8
 20
11.4
 30
0.0
 11
16.325
 21
11.4
 31
0.0
  0
LINE
  5
3E8
330
2D7
100
AcDbEntity
  8
PEN2
  6
LTY1
100
AcDbLine
 10
2.1
 20
11.55
 30
0.0
 11
16.05
 21
11.55
 31
0.0
  0
LINE
  5
3E9
330
2D7
100
AcDbEntity
  8
PEN2
  6
LTY1
100
AcDbLine
 10
2.4
 20
11.725
 30
0.0
 11
15.75
 21
11.725
 31
0.0
  0
LINE
  5
3EA
330
2D7
100
AcDbEntity
  8
PEN2
  6
LTY1
100
AcDbLine
 10
2.675
 20
11.875
 30
0.0
 11
15.45
 21
11.875
 31
0.0
  0
LINE
  5
3EB
330
2D7
100
AcDbEntity
  8
PEN2
  6
LTY1
100
AcDbLine
 10
2.975
 20
12.05
 30
0.0
 11
15.175
 21
12.05
 31
0.0
  0
LINE
  5
3EC
330
2D7
100
AcDbEntity
  8
PEN2
  6
LTY1
100
AcDbLine
 10
3.275
 20
12.2
 30
0.0
 11
14.875
 21
12.2
 31
0.0
  0
LINE
  5
3ED
330
2D7
100
AcDbEntity
  8
PEN2
  6
LTY1
100
AcDbLine
 10
3.55
 20
12.375
 30
0.0
 11
14.575
 21
12.375
 31
0.0
  0
LINE
  5
3EE
330
2D7
100
AcDbEntity
  8
PEN2
  6
LTY1
100
AcDbLine
 10
3.85
 20
12.525
 30
0.0
 11
14.275
 21
12.525
 31
0.0
  0
LINE
  5
3EF
330
2D7
100
AcDbEntity
  8
PEN2
  6
LTY1
100
AcDbLine
 10
4.15
 20
12.7
 30
0.0
 11
14.0
 21
12.7
 31
0.0
  0
LINE
  5
3F0
330
2D7
100
AcDbEntity
  8
PEN2
  6
LTY1
100
AcDbLine
 10
4.45
 20
12.85
 30
0.0
 11
13.7
 21
12.85
 31
0.0
  0
LINE
  5
3F1
330
2D7
100
AcDbEntity
  8
PEN2
  6
LTY1
100
AcDbLine
 10
4.725
 20
13.025
 30
0.0
 11
13.4
 21
13.025
 31
0.0
  0
LINE
  5
3F2
330
2D7
100
AcDbEntity
  8
PEN2
  6
LTY1
100
AcDbLine
 10
15.45
 20
7.65
 30
0.0
 11
12.325
 21
7.65
 31
0.0
  0
LINE
  5
3F3
330
2D7
100
AcDbEntity
  8
PEN2
  6
LTY1
100
AcDbLine
 10
12.325
 20
7.65
 30
0.0
 11
12.325
 21
8.7
 31
0.0
  0
LINE
  5
3F4
330
2D7
100
AcDbEntity
  8
PEN2
  6
LTY1
100
AcDbLine
 10
12.325
 20
8.7
 30
0.0
 11
11.55
 21
8.7
 31
0.0
  0
LINE
  5
3F5
330
2D7
100
AcDbEntity
  8
PEN2
  6
LTY1
100
AcDbLine
 10
11.55
 20
8.7
 30
0.0
 11
11.55
 21
7.65
 31
0.0
  0
LINE
  5
3F6
330
2D7
100
AcDbEntity
  8
PEN2
  6
LTY1
100
AcDbLine
 10
11.55
 20
7.65
 30
0.0
 11
9.725
 21
7.65
 31
0.0
  0
LINE
  5
3F7
330
2D7
100
AcDbEntity
  8
PEN2
  6
LTY1
100
AcDbLine
 10
9.725
 20
7.65
 30
0.0
 11
9.6
 21
8.175
 31
0.0
  0
LINE
  5
3F8
330
2D7
100
AcDbEntity
  8
PEN2
  6
LTY1
100
AcDbLine
 10
9.6
 20
8.175
 30
0.0
 11
9.075
 21
8.175
 31
0.0
  0
LINE
  5
3F9
330
2D7
100
AcDbEntity
  8
PEN2
  6
LTY1
100
AcDbLine
 10
9.075
 20
8.175
 30
0.0
 11
8.95
 21
7.65
 31
0.0
  0
LINE
  5
3FA
330
2D7
100
AcDbEntity
  8
PEN2
  6
LTY1
100
AcDbLine
 10
8.95
 20
7.65
 30
0.0
 11
6.625
 21
7.65
 31
0.0
  0
LINE
  5
3FB
330
2D7
100
AcDbEntity
  8
PEN2
  6
LTY1
100
AcDbLine
 10
6.625
 20
7.65
 30
0.0
 11
6.625
 21
9.725
 31
0.0
  0
LINE
  5
3FC
330
2D7
100
AcDbEntity
  8
PEN2
  6
LTY1
100
AcDbLine
 10
6.625
 20
9.725
 30
0.0
 11
5.7
 21
9.725
 31
0.0
  0
LINE
  5
3FD
330
2D7
100
AcDbEntity
  8
PEN2
  6
LTY1
100
AcDbLine
 10
5.7
 20
9.725
 30
0.0
 11
5.7
 21
7.65
 31
0.0
  0
LINE
  5
3FE
330
2D7
100
AcDbEntity
  8
PEN2
  6
LTY1
100
AcDbLine
 10
5.7
 20
7.65
 30
0.0
 11
3.225
 21
7.65
 31
0.0
  0
LINE
  5
3FF
330
2D7
100
AcDbEntity
  8
PEN2
  6
LTY1
100
AcDbLine
 10
3.225
 20
7.65
 30
0.0
 11
3.225
 21
7.65
 31
0.0
  0
LINE
  5
400
330
2D7
100
AcDbEntity
  8
PEN2
  6
LTY1
100
AcDbLine
 10
3.225
 20
7.65
 30
0.0
 11
15.45
 21
7.65
 31
0.0
  0
LINE
  5
401
330
2D7
100
AcDbEntity
  8
PEN2
  6
LTY1
100
AcDbLine
 10
15.45
 20
7.65
 30
0.0
 11
15.45
 21
7.65
 31
0.0
  0
LINE
  5
402
330
2D7
100
AcDbEntity
  8
PEN2
  6
LTY1
100
AcDbLine
 10
5.7
 20
7.825
 30
0.0
 11
6.625
 21
7.825
 31
0.0
  0
LINE
  5
403
330
2D7
100
AcDbEntity
  8
PEN2
  6
LTY1
100
AcDbLine
 10
9.0
 20
7.825
 30
0.0
 11
9.675
 21
7.825
 31
0.0
  0
LINE
  5
404
330
2D7
100
AcDbEntity
  8
PEN2
  6
LTY1
100
AcDbLine
 10
11.55
 20
7.825
 30
0.0
 11
12.325
 21
7.825
 31
0.0
  0
LINE
  5
405
330
2D7
100
AcDbEntity
  8
PEN2
  6
LTY1
100
AcDbLine
 10
5.7
 20
7.975
 30
0.0
 11
6.625
 21
7.975
 31
0.0
  0
LINE
  5
406
330
2D7
100
AcDbEntity
  8
PEN2
  6
LTY1
100
AcDbLine
 10
9.025
 20
7.975
 30
0.0
 11
9.65
 21
7.975
 31
0.0
  0
LINE
  5
407
330
2D7
100
AcDbEntity
  8
PEN2
  6
LTY1
100
AcDbLine
 10
11.55
 20
7.975
 30
0.0
 11
12.325
 21
7.975
 31
0.0
  0
LINE
  5
408
330
2D7
100
AcDbEntity
  8
PEN2
  6
LTY1
100
AcDbLine
 10
5.7
 20
8.15
 30
0.0
 11
6.625
 21
8.15
 31
0.0
  0
LINE
  5
409
330
2D7
100
AcDbEntity
  8
PEN2
  6
LTY1
100
AcDbLine
 10
9.05
 20
8.15
 30
0.0
 11
9.6
 21
8.15
 31
0.0
  0
LINE
  5
40A
330
2D7
100
AcDbEntity
  8
PEN2
  6
LTY1
100
AcDbLine
 10
11.55
 20
8.15
 30
0.0
 11
12.325
 21
8.15
 31
0.0
  0
LINE
  5
40B
330
2D7
100
AcDbEntity
  8
PEN2
  6
LTY1
100
AcDbLine
 10
5.7
 20
8.3
 30
0.0
 11
6.625
 21
8.3
 31
0.0
  0
LINE
  5
40C
330
2D7
100
AcDbEntity
  8
PEN2
  6
LTY1
100
AcDbLine
 10
11.55
 20
8.3
 30
0.0
 11
12.325
 21
8.3
 31
0.0
  0
LINE
  5
40D
330
2D7
100
AcDbEntity
  8
PEN2
  6
LTY1
100
AcDbLine
 10
5.7
 20
8.475
 30
0.0
 11
6.625
 21
8.475
 31
0.0
  0
LINE
  5
40E
330
2D7
100
AcDbEntity
  8
PEN2
  6
LTY1
100
AcDbLine
 10
11.55
 20
8.475
 30
0.0
 11
12.325
 21
8.475
 31
0.0
  0
LINE
  5
40F
330
2D7
100
AcDbEntity
  8
PEN2
  6
LTY1
100
AcDbLine
 10
5.7
 20
8.625
 30
0.0
 11
6.625
 21
8.625
 31
0.0
  0
LINE
  5
410
330
2D7
100
AcDbEntity
  8
PEN2
  6
LTY1
100
AcDbLine
 10
11.55
 20
8.625
 30
0.0
 11
12.325
 21
8.625
 31
0.0
  0
LINE
  5
411
330
2D7
100
AcDbEntity
  8
PEN2
  6
LTY1
100
AcDbLine
 10
5.7
 20
8.8
 30
0.0
 11
6.625
 21
8.8
 31
0.0
  0
LINE
  5
412
330
2D7
100
AcDbEntity
  8
PEN2
  6
LTY1
100
AcDbLine
 10
5.7
 20
8.95
 30
0.0
 11
6.625
 21
8.95
 31
0.0
  0
LINE
  5
413
330
2D7
100
AcDbEntity
  8
PEN2
  6
LTY1
100
AcDbLine
 10
5.7
 20
9.125
 30
0.0
 11
6.625
 21
9.125
 31
0.0
  0
LINE
  5
414
330
2D7
100
AcDbEntity
  8
PEN2
  6
LTY1
100
AcDbLine
 10
5.7
 20
9.275
 30
0.0
 11
6.625
 21
9.275
 31
0.0
  0
LINE
  5
415
330
2D7
100
AcDbEntity
  8
PEN2
  6
LTY1
100
AcDbLine
 10
5.7
 20
9.45
 30
0.0
 11
6.625
 21
9.45
 31
0.0
  0
LINE
  5
416
330
2D7
100
AcDbEntity
  8
PEN2
  6
LTY1
100
AcDbLine
 10
5.7
 20
9.6
 30
0.0
 11
6.625
 21
9.6
 31
0.0
  0
LINE
  5
417
330
2D7
100
AcDbEntity
  8
PEN2
  6
LTY1
100
AcDbLine
 10
13.25
 20
7.65
 30
0.0
 11
13.25
 21
10.525
 31
0.0
  0
LINE
  5
418
330
2D7
100
AcDbEntity
  8
PEN2
  6
LTY1
100
AcDbLine
 10
9.35
 20
8.95
 30
0.0
 11
9.35
 21
9.35
 31
0.0
  0
LINE
  5
419
330
2D7
100
AcDbEntity
  8
PEN2
  6
LTY1
100
AcDbLine
 10
5.7
 20
10.525
 30
0.0
 11
5.7
 21
9.6
 31
0.0
  0
LINE
  5
41A
330
2D7
100
AcDbEntity
  8
PEN2
  6
LTY1
100
AcDbLine
 10
5.7
 20
9.6
 30
0.0
 11
4.15
 21
9.6
 31
0.0
  0
LINE
  5
41B
330
2D7
100
AcDbEntity
  8
PEN2
  6
LTY1
100
AcDbLine
 10
4.15
 20
9.6
 30
0.0
 11
4.15
 21
9.475
 31
0.0
  0
LINE
  5
41C
330
2D7
100
AcDbEntity
  8
PEN2
  6
LTY1
100
AcDbLine
 10
4.15
 20
9.475
 30
0.0
 11
5.7
 21
9.475
 31
0.0
  0
LINE
  5
41D
330
2D7
100
AcDbEntity
  8
PEN2
  6
LTY1
100
AcDbLine
 10
3.225
 20
8.575
 30
0.0
 11
4.8
 21
8.575
 31
0.0
  0
LINE
  5
41E
330
2D7
100
AcDbEntity
  8
PEN2
  6
LTY1
100
AcDbLine
 10
4.8
 20
8.575
 30
0.0
 11
4.8
 21
8.425
 31
0.0
  0
LINE
  5
41F
330
2D7
100
AcDbEntity
  8
PEN2
  6
LTY1
100
AcDbLine
 10
4.8
 20
8.425
 30
0.0
 11
3.225
 21
8.425
 31
0.0
  0
LINE
  5
420
330
2D7
100
AcDbEntity
  8
PEN2
  6
LTY1
100
AcDbLine
 10
8.3
 20
10.525
 30
0.0
 11
12.325
 21
10.525
 31
0.0
  0
ENDBLK
  5
6A0
330
2D7
100
AcDbEntity
  8
0
100
AcDbBlockEnd
  0
ENDSEC
  0
SECTION
  2
ENTITIES
  0
INSERT
  5
422
330
1F
100
AcDbEntity
  8
SF
100
AcDbBlockReference
 66
     1
  2
SF_KORA7_00
 10
0.0
 20
0.0
 30
0.0
  0
ATTRIB
  5
423
330
422
100
AcDbEntity
  8
PEN1
100
AcDbText
 10
289.35
 20
0.0
 30
0.0
 40
3.5
  1
Eplan
  7
NORMSCHRIFT
100
AcDbAttribute
  2
CODE_60
 70
     1
280
     0
  0
ATTRIB
  5
424
330
422
100
AcDbEntity
  8
PEN1
100
AcDbText
 10
289.35
 20
0.0
 30
0.0
 40
3.5
  1
MSR
  7
NORMSCHRIFT
100
AcDbAttribute
  2
CODE_61
 70
     1
280
     0
  0
ATTRIB
  5
425
330
422
100
AcDbEntity
  8
PEN2
100
AcDbText
 10
373.65
 20
5.0
 30
0.0
 40
2.5
  1
IS_PAC_8
  7
NORMSCHRIFT
 72
     2
 11
392.75
 21
5.0
 31
0.0
100
AcDbAttribute
  2
CODE_62
 70
     0
280
     0
  0
ATTRIB
  5
426
330
422
100
AcDbEntity
  8
PEN4
100
AcDbText
 10
0.0
 20
0.0
 30
0.0
 40
0.2
  1

  7
NORMSCHRIFT
100
AcDbAttribute
  2
CODE_63
 70
     1
280
     0
  0
ATTRIB
  5
427
330
422
100
AcDbEntity
  8
PEN2
100
AcDbText
 10
207.25
 20
15.0
 30
0.0
 40
2.5
  1

  7
NORMSCHRIFT
100
AcDbAttribute
  2
CODE_77
 70
     0
280
     0
  0
ATTRIB
  5
428
330
422
100
AcDbEntity
  8
PEN1
100
AcDbText
 10
206.85
 20
7.5
 30
0.0
 40
3.5
  1

  7
NORMSCHRIFT
100
AcDbAttribute
  2
CODE_66
 70
     0
280
     0
  0
ATTRIB
  5
429
330
422
100
AcDbEntity
  8
PEN1
100
AcDbText
 10
206.85
 20
0.5
 30
0.0
 40
3.5
  1

  7
NORMSCHRIFT
100
AcDbAttribute
  2
CODE_65
 70
     0
280
     0
  0
ATTRIB
  5
42A
330
422
100
AcDbEntity
  8
PEN2
100
AcDbText
 10
183.75
 20
15.0
 30
0.0
 40
2.5
  1

  7
NORMSCHRIFT
 72
     2
 11
183.75
 21
15.0
 31
0.0
100
AcDbAttribute
  2
CODE_68
 70
     1
280
     0
  0
ATTRIB
  5
42B
330
422
100
AcDbEntity
  8
PEN2
100
AcDbText
 10
183.75
 20
15.0
 30
0.0
 40
2.5
  1

  7
NORMSCHRIFT
 72
     2
 11
183.75
 21
15.0
 31
0.0
100
AcDbAttribute
  2
CODE_160
 70
     1
280
     0
  0
ATTRIB
  5
42C
330
422
100
AcDbEntity
  8
PEN1
100
AcDbText
 10
322.35
 20
11.5
 30
0.0
 40
3.5
  1

  7
NORMSCHRIFT
100
AcDbAttribute
  2
CODE_3
 70
     0
280
     0
  0
ATTRIB
  5
42D
330
422
100
AcDbEntity
  8
PEN2
100
AcDbText
 10
183.75
 20
10.0
 30
0.0
 40
2.5
  1

  7
NORMSCHRIFT
 72
     2
 11
183.75
 21
10.0
 31
0.0
100
AcDbAttribute
  2
CODE_67
 70
     0
280
     0
  0
ATTRIB
  5
42E
330
422
100
AcDbEntity
  8
PEN2
100
AcDbText
 10
183.75
 20
5.0
 30
0.0
 40
2.5
  1

  7
NORMSCHRIFT
 72
     2
 11
183.75
 21
5.0
 31
0.0
100
AcDbAttribute
  2
CODE_78
 70
     0
280
     0
  0
ATTRIB
  5
42F
330
422
100
AcDbEntity
  8
PEN2
100
AcDbText
 10
84.25
 20
14.5
 30
0.0
 40
2.5
  1
14.04.2010
  7
NORMSCHRIFT
100
AcDbAttribute
  2
CODE_72
 70
     0
280
     0
  0
ATTRIB
  5
430
330
422
100
AcDbEntity
  8
PEN2
100
AcDbText
 10
84.25
 20
9.5
 30
0.0
 40
2.5
  1

  7
NORMSCHRIFT
100
AcDbAttribute
  2
CODE_424
 70
     0
280
     0
  0
ATTRIB
  5
431
330
422
100
AcDbEntity
  8
PEN2
100
AcDbText
 10
84.25
 20
4.5
 30
0.0
 40
2.5
  1

  7
NORMSCHRIFT
100
AcDbAttribute
  2
CODE_423
 70
     0
280
     0
  0
ATTRIB
  5
432
330
422
100
AcDbEntity
  8
PEN2
100
AcDbText
 10
84.25
 20
0.0
 30
0.0
 40
2.5
  1

  7
NORMSCHRIFT
100
AcDbAttribute
  2
CODE_425
 70
     0
280
     0
  0
ATTRIB
  5
433
330
422
100
AcDbEntity
  8
PEN2
100
AcDbText
 10
390.375
 20
0.0
 30
0.0
 40
2.5
  1
9
  7
NORMSCHRIFT
 72
     2
 11
392.75
 21
0.0
 31
0.0
100
AcDbAttribute
  2
CODE_71
 70
     0
280
     0
  0
ATTRIB
  5
434
330
422
100
AcDbEntity
  8
PEN4
100
AcDbText
 10
4.2
 20
5.0
 30
0.0
 40
2.0
  1

  7
NORMSCHRIFT
100
AcDbAttribute
  2
CODE_430
 70
     0
280
     0
  0
ATTRIB
  5
435
330
422
100
AcDbEntity
  8
PEN4
100
AcDbText
 10
38.7
 20
5.0
 30
0.0
 40
2.0
  1

  7
NORMSCHRIFT
100
AcDbAttribute
  2
CODE_431
 70
     0
280
     0
  0
ATTRIB
  5
436
330
422
100
AcDbEntity
  8
PEN4
100
AcDbText
 10
53.2
 20
5.0
 30
0.0
 40
2.0
  1

  7
NORMSCHRIFT
100
AcDbAttribute
  2
CODE_432
 70
     0
280
     0
  0
ATTRIB
  5
437
330
422
100
AcDbEntity
  8
PEN4
100
AcDbText
 10
4.2
 20
10.0
 30
0.0
 40
2.0
  1

  7
NORMSCHRIFT
100
AcDbAttribute
  2
CODE_433
 70
     0
280
     0
  0
ATTRIB
  5
438
330
422
100
AcDbEntity
  8
PEN4
100
AcDbText
 10
38.7
 20
10.0
 30
0.0
 40
2.0
  1

  7
NORMSCHRIFT
100
AcDbAttribute
  2
CODE_434
 70
     0
280
     0
  0
ATTRIB
  5
439
330
422
100
AcDbEntity
  8
PEN4
100
AcDbText
 10
53.2
 20
10.0
 30
0.0
 40
2.0
  1

  7
NORMSCHRIFT
100
AcDbAttribute
  2
CODE_435
 70
     0
280
     0
  0
ATTRIB
  5
43A
330
422
100
AcDbEntity
  8
PEN4
100
AcDbText
 10
4.2
 20
15.0
 30
0.0
 40
2.0
  1

  7
NORMSCHRIFT
100
AcDbAttribute
  2
CODE_436
 70
     0
280
     0
  0
ATTRIB
  5
43B
330
422
100
AcDbEntity
  8
PEN4
100
AcDbText
 10
38.7
 20
15.0
 30
0.0
 40
2.0
  1

  7
NORMSCHRIFT
100
AcDbAttribute
  2
CODE_437
 70
     0
280
     0
  0
ATTRIB
  5
43C
330
422
100
AcDbEntity
  8
PEN4
100
AcDbText
 10
53.2
 20
15.0
 30
0.0
 40
2.0
  1

  7
NORMSCHRIFT
100
AcDbAttribute
  2
CODE_438
 70
     0
280
     0
  0
ATTRIB
  5
43D
330
422
100
AcDbEntity
  8
PEN1
100
AcDbText
 10
374.5
 20
10.5
 30
0.0
 40
3.5
  1

  7
NORMSCHRIFT
 72
     1
 11
374.5
 21
10.5
 31
0.0
100
AcDbAttribute
  2
CODE_1
 70
     1
280
     0
  0
ATTRIB
  5
43E
330
422
100
AcDbEntity
  8
PEN1
100
AcDbText
 10
374.5
 20
10.5
 30
0.0
 40
3.5
  1

  7
NORMSCHRIFT
 72
     1
 11
374.5
 21
10.5
 31
0.0
100
AcDbAttribute
  2
CODE_2
 70
     1
280
     0
  0
ATTRIB
  5
43F
330
422
100
AcDbEntity
  8
PEN4
100
AcDbText
 10
107.2
 20
0.5
 30
0.0
 40
2.0
  1

  7
NORMSCHRIFT
100
AcDbAttribute
  2
CODE_73
 70
     0
280
     0
  0
ATTRIB
  5
440
330
422
100
AcDbEntity
  8
PEN4
100
AcDbText
 10
140.0
 20
0.5
 30
0.0
 40
2.0
  1

  7
NORMSCHRIFT
 72
     1
 11
140.0
 21
0.5
 31
0.0
100
AcDbAttribute
  2
CODE_74
 70
     0
280
     0
  0
ATTRIB
  5
441
330
422
100
AcDbEntity
  8
PEN4
100
AcDbText
 10
183.9
 20
0.5
 30
0.0
 40
2.0
  1

  7
NORMSCHRIFT
 72
     2
 11
183.9
 21
0.5
 31
0.0
100
AcDbAttribute
  2
CODE_75
 70
     0
280
     0
  0
ATTRIB
  5
442
330
422
100
AcDbEntity
  8
PEN4
100
AcDbText
 10
0.0
 20
0.0
 30
0.0
 40
0.2
  1
60
  7
NORMSCHRIFT
100
AcDbAttribute
  2
CODE_2000
 70
     1
280
     0
  0
ATTRIB
  5
443
330
422
100
AcDbEntity
  8
PEN4
100
AcDbText
 10
0.0
 20
0.0
 30
0.0
 40
0.2
  1
61
  7
NORMSCHRIFT
100
AcDbAttribute
  2
CODE_2001
 70
     1
280
     0
  0
ATTRIB
  5
444
330
422
100
AcDbEntity
  8
PEN4
100
AcDbText
 10
0.0
 20
0.0
 30
0.0
 40
0.2
  1
62
  7
NORMSCHRIFT
100
AcDbAttribute
  2
CODE_2002
 70
     1
280
     0
  0
ATTRIB
  5
445
330
422
100
AcDbEntity
  8
PEN4
100
AcDbText
 10
0.0
 20
0.0
 30
0.0
 40
0.2
  1
63
  7
NORMSCHRIFT
100
AcDbAttribute
  2
CODE_2003
 70
     1
280
     0
  0
ATTRIB
  5
446
330
422
100
AcDbEntity
  8
PEN4
100
AcDbText
 10
0.0
 20
0.0
 30
0.0
 40
0.2
  1
Anlage ............
  7
NORMSCHRIFT
100
AcDbAttribute
  2
CODE_2005
 70
     1
280
     0
  0
ATTRIB
  5
447
330
422
100
AcDbEntity
  8
PEN4
100
AcDbText
 10
0.0
 20
0.0
 30
0.0
 40
0.2
  1
Gruppe ............
  7
NORMSCHRIFT
100
AcDbAttribute
  2
CODE_2006
 70
     1
280
     0
  0
ATTRIB
  5
448
330
422
100
AcDbEntity
  8
PEN4
100
AcDbText
 10
0.0
 20
0.0
 30
0.0
 40
0.2
  1
Blatt .............
  7
NORMSCHRIFT
100
AcDbAttribute
  2
CODE_2007
 70
     1
280
     0
  0
ATTRIB
  5
449
330
422
100
AcDbEntity
  8
PEN4
100
AcDbText
 10
0.0
 20
0.0
 30
0.0
 40
0.2
  1
Variante ..........
  7
NORMSCHRIFT
100
AcDbAttribute
  2
CODE_2008
 70
     1
280
     0
  0
ATTRIB
  5
44A
330
422
100
AcDbEntity
  8
PEN4
100
AcDbText
 10
0.0
 20
0.0
 30
0.0
 40
0.2
  1
110
  7
NORMSCHRIFT
100
AcDbAttribute
  2
CODE_2011
 70
     1
280
     0
  0
ATTRIB
  5
44B
330
422
100
AcDbEntity
  8
PEN4
100
AcDbText
 10
0.0
 20
0.0
 30
0.0
 40
0.2
  1
N
  7
NORMSCHRIFT
100
AcDbAttribute
  2
CODE_2010
 70
     1
280
     0
  0
ATTRIB
  5
44C
330
422
100
AcDbEntity
  8
PEN4
100
AcDbText
 10
0.0
 20
0.0
 30
0.0
 40
0.2
  1
J
  7
NORMSCHRIFT
100
AcDbAttribute
  2
CODE_2012
 70
     1
280
     0
  0
ATTRIB
  5
44D
330
422
100
AcDbEntity
  8
PEN4
100
AcDbText
 10
0.0
 20
0.0
 30
0.0
 40
0.2
  1
24.5
  7
NORMSCHRIFT
100
AcDbAttribute
  2
CODE_2013
 70
     1
280
     0
  0
ATTRIB
  5
44E
330
422
100
AcDbEntity
  8
PEN4
100
AcDbText
 10
0.0
 20
0.0
 30
0.0
 40
0.2
  1
3.5
  7
NORMSCHRIFT
100
AcDbAttribute
  2
CODE_2014
 70
     1
280
     0
  0
ATTRIB
  5
44F
330
422
100
AcDbEntity
  8
PEN4
100
AcDbText
 10
0.0
 20
0.0
 30
0.0
 40
0.2
  1
/C0
  7
NORMSCHRIFT
100
AcDbAttribute
  2
CODE_2015
 70
     1
280
     0
  0
ATTRIB
  5
450
330
422
100
AcDbEntity
  8
PEN4
100
AcDbText
 10
0.0
 20
0.0
 30
0.0
 40
0.2
  1
400.000
  7
NORMSCHRIFT
100
AcDbAttribute
  2
CODE_2130
 70
     1
280
     0
  0
ATTRIB
  5
451
330
422
100
AcDbEntity
  8
PEN4
100
AcDbText
 10
0.0
 20
0.0
 30
0.0
 40
0.2
  1
270.000
  7
NORMSCHRIFT
100
AcDbAttribute
  2
CODE_2131
 70
     1
280
     0
  0
ATTRIB
  5
452
330
422
100
AcDbEntity
  8
PEN4
100
AcDbText
 10
0.0
 20
0.0
 30
0.0
 40
0.2
  1
20.000
  7
NORMSCHRIFT
100
AcDbAttribute
  2
CODE_2132
 70
     1
280
     0
  0
ATTRIB
  5
453
330
422
100
AcDbEntity
  8
PEN4
100
AcDbText
 10
0.0
 20
0.0
 30
0.0
 40
0.2
  1
100.000
  7
NORMSCHRIFT
100
AcDbAttribute
  2
CODE_2133
 70
     1
280
     0
  0
ATTRIB
  5
454
330
422
100
AcDbEntity
  8
PEN4
100
AcDbText
 10
0.0
 20
0.0
 30
0.0
 40
0.2
  1
10.000
  7
NORMSCHRIFT
100
AcDbAttribute
  2
CODE_2134
 70
     1
280
     0
  0
ATTRIB
  5
455
330
422
100
AcDbEntity
  8
PEN4
100
AcDbText
 10
0.0
 20
0.0
 30
0.0
 40
0.2
  1
J
  7
NORMSCHRIFT
100
AcDbAttribute
  2
CODE_2016
 70
     1
280
     0
  0
ATTRIB
  5
456
330
422
100
AcDbEntity
  8
PEN4
100
AcDbText
 10
0.0
 20
0.0
 30
0.0
 40
0.2
  1
60
  7
NORMSCHRIFT
100
AcDbAttribute
  2
CODE_2011
 70
     1
280
     0
  0
ATTRIB
  5
457
330
422
100
AcDbEntity
  8
PEN4
100
AcDbText
 10
0.0
 20
0.0
 30
0.0
 40
0.2
  1
245
  7
NORMSCHRIFT
100
AcDbAttribute
  2
CODE_2017
 70
     1
280
     0
  0
ATTRIB
  5
458
330
422
100
AcDbEntity
  8
PEN4
100
AcDbText
 10
0.0
 20
0.0
 30
0.0
 40
0.2
  1
3.5
  7
NORMSCHRIFT
100
AcDbAttribute
  2
CODE_2018
 70
     1
280
     0
  0
ATTRIB
  5
459
330
422
100
AcDbEntity
  8
PEN4
100
AcDbText
 10
0.0
 20
0.0
 30
0.0
 40
0.2
  1
A20
  7
NORMSCHRIFT
100
AcDbAttribute
  2
CODE_2019
 70
     1
280
     0
  0
ATTRIB
  5
45A
330
422
100
AcDbEntity
  8
PEN4
100
AcDbText
 10
300.98
 20
6.0
 30
0.0
 40
2.0
  1
Engineering Base Gross
  7
NORMSCHRIFT
 72
     2
 11
337.1
 21
6.0
 31
0.0
100
AcDbAttribute
  2
CODE_51
 70
     1
280
     0
  0
ATTRIB
  5
45B
330
422
100
AcDbEntity
  8
PEN4
100
AcDbText
 10
0.0
 20
0.0
 30
0.0
 40
0.2
  1
1:2
  7
NORMSCHRIFT
100
AcDbAttribute
  2
CODE_4006
 70
     1
280
     0
  0
ATTRIB
  5
45C
330
422
100
AcDbEntity
  8
PEN2
100
AcDbText
 10
400.0
 20
4.75
 30
0.0
 40
2.5
  1
20.04.2010
 50
90.0
  7
NORMSCHRIFT
100
AcDbAttribute
  2
CODE_4901
 70
     1
280
     0
  0
ATTRIB
  5
45D
330
422
100
AcDbEntity
  8
PEN2
100
AcDbText
 10
400.0
 20
4.75
 30
0.0
 40
2.5
  1
grossph
 50
90.0
  7
NORMSCHRIFT
100
AcDbAttribute
  2
CODE_4902
 70
     1
280
     0
  0
ATTRIB
  5
45E
330
422
100
AcDbEntity
  8
PEN2
100
AcDbText
 10
400.0
 20
4.75
 30
0.0
 40
2.5
  1
7.3.2 SP1
 50
90.0
  7
NORMSCHRIFT
100
AcDbAttribute
  2
CODE_4903
 70
     1
280
     0
  0
ATTRIB
  5
45F
330
422
100
AcDbEntity
  8
PEN4
100
AcDbText
 10
0.59
 20
5.0
 30
0.0
 40
2.0
  1
a
  7
NORMSCHRIFT
 72
     1
 11
1.5
 21
5.0
 31
0.0
100
AcDbAttribute
  2
CODE_4800
 70
     0
280
     0
  0
ATTRIB
  5
460
330
422
100
AcDbEntity
  8
PEN4
100
AcDbText
 10
0.59
 20
10.0
 30
0.0
 40
2.0
  1
b
  7
NORMSCHRIFT
 72
     1
 11
1.5
 21
10.0
 31
0.0
100
AcDbAttribute
  2
CODE_4800
 70
     0
280
     0
  0
ATTRIB
  5
461
330
422
100
AcDbEntity
  8
PEN4
100
AcDbText
 10
0.65
 20
15.0
 30
0.0
 40
2.0
  1
c
  7
NORMSCHRIFT
 72
     1
 11
1.5
 21
15.0
 31
0.0
100
AcDbAttribute
  2
CODE_4800
 70
     0
280
     0
  0
SEQEND
  5
6AE
330
422
100
AcDbEntity
  8
SF
  0
TEXT
  5
463
330
1F
100
AcDbEntity
  8
PEN2
100
AcDbText
 10
400.0
 20
4.75
 30
0.0
 40
2.5
  1
gedruckt am / printed : 20.04.2010         durch /by: grossph         ELCAD Version:7.3.2 SP1
 50
90.0
  7
NORMSCHRIFT
100
AcDbText
  0
TEXT
  5
464
330
1F
100
AcDbEntity
  8
PEN2
100
AcDbText
 10
173.75
 20
15.0
 30
0.0
 40
2.5
  1
 / 
  7
NORMSCHRIFT
 72
     2
 11
183.75
 21
15.0
 31
0.0
100
AcDbText
  0
TEXT
  5
465
330
1F
100
AcDbEntity
  8
PEN1
100
AcDbText
 10
289.35
 20
0.0
 30
0.0
 40
3.5
  1
Eplan - MSR
  7
NORMSCHRIFT
100
AcDbText
  0
TEXT
  5
466
330
1F
100
AcDbEntity
  8
PEN4
100
AcDbText
 10
308.92
 20
6.0
 30
0.0
 40
2.0
  1
Project: Engineering Base Gross
  7
NORMSCHRIFT
 72
     2
 11
365.9
 21
6.0
 31
0.0
100
AcDbText
  0
TEXT
  5
467
330
1F
100
AcDbEntity
  8
PEN1
100
AcDbText
 10
374.5
 20
10.5
 30
0.0
 40
3.5
  1

  7
NORMSCHRIFT
 72
     1
 11
374.5
 21
10.5
 31
0.0
100
AcDbText
  0
LINE
  5
472
330
1F
100
AcDbEntity
  8
PEN1
  6
LTY1
100
AcDbLine
 10
163.5
 20
131.5
 30
0.0
 11
172.5
 21
131.5
 31
0.0
  0
LINE
  5
473
330
1F
100
AcDbEntity
  8
PEN1
  6
LTY1
100
AcDbLine
 10
172.5
 20
131.5
 30
0.0
 11
172.5
 21
125.5
 31
0.0
  0
LINE
  5
474
330
1F
100
AcDbEntity
  8
PEN1
  6
LTY1
100
AcDbLine
 10
172.5
 20
125.5
 30
0.0
 11
163.5
 21
125.5
 31
0.0
  0
LINE
  5
475
330
1F
100
AcDbEntity
  8
PEN1
  6
LTY1
100
AcDbLine
 10
163.5
 20
125.5
 30
0.0
 11
163.5
 21
131.5
 31
0.0
  0
LINE
  5
476
330
1F
100
AcDbEntity
  8
PEN1
  6
LTY1
100
AcDbLine
 10
163.5
 20
126.5
 30
0.0
 11
164.0
 21
126.0
 31
0.0
  0
LINE
  5
477
330
1F
100
AcDbEntity
  8
PEN1
  6
LTY1
100
AcDbLine
 10
164.0
 20
126.0
 30
0.0
 11
172.0
 21
126.0
 31
0.0
  0
LINE
  5
478
330
1F
100
AcDbEntity
  8
PEN1
  6
LTY1
100
AcDbLine
 10
172.0
 20
126.0
 30
0.0
 11
172.5
 21
126.5
 31
0.0
  0
LINE
  5
479
330
1F
100
AcDbEntity
  8
PEN1
  6
LTY1
100
AcDbLine
 10
163.5
 20
127.5
 30
0.0
 11
164.0
 21
127.0
 31
0.0
  0
LINE
  5
47A
330
1F
100
AcDbEntity
  8
PEN1
  6
LTY1
100
AcDbLine
 10
164.0
 20
127.0
 30
0.0
 11
172.0
 21
127.0
 31
0.0
  0
LINE
  5
47B
330
1F
100
AcDbEntity
  8
PEN1
  6
LTY1
100
AcDbLine
 10
172.0
 20
127.0
 30
0.0
 11
172.5
 21
127.5
 31
0.0
  0
LINE
  5
47C
330
1F
100
AcDbEntity
  8
PEN1
  6
LTY1
100
AcDbLine
 10
163.5
 20
128.5
 30
0.0
 11
164.0
 21
128.0
 31
0.0
  0
LINE
  5
47D
330
1F
100
AcDbEntity
  8
PEN1
  6
LTY1
100
AcDbLine
 10
164.0
 20
128.0
 30
0.0
 11
172.0
 21
128.0
 31
0.0
  0
LINE
  5
47E
330
1F
100
AcDbEntity
  8
PEN1
  6
LTY1
100
AcDbLine
 10
172.0
 20
128.0
 30
0.0
 11
172.5
 21
128.5
 31
0.0
  0
LINE
  5
47F
330
1F
100
AcDbEntity
  8
PEN1
  6
LTY1
100
AcDbLine
 10
163.5
 20
129.5
 30
0.0
 11
164.0
 21
129.0
 31
0.0
  0
LINE
  5
480
330
1F
100
AcDbEntity
  8
PEN1
  6
LTY1
100
AcDbLine
 10
164.0
 20
129.0
 30
0.0
 11
172.0
 21
129.0
 31
0.0
  0
LINE
  5
481
330
1F
100
AcDbEntity
  8
PEN1
  6
LTY1
100
AcDbLine
 10
172.0
 20
129.0
 30
0.0
 11
172.5
 21
129.5
 31
0.0
  0
LINE
  5
482
330
1F
100
AcDbEntity
  8
PEN1
  6
LTY1
100
AcDbLine
 10
169.5
 20
131.0
 30
0.0
 11
169.5
 21
129.0
 31
0.0
  0
LINE
  5
483
330
1F
100
AcDbEntity
  8
PEN1
  6
LTY1
100
AcDbLine
 10
169.5
 20
129.0
 30
0.0
 11
171.0
 21
129.0
 31
0.0
  0
LINE
  5
484
330
1F
100
AcDbEntity
  8
PEN1
  6
LTY1
100
AcDbLine
 10
171.0
 20
129.0
 30
0.0
 11
171.5
 21
129.0
 31
0.0
  0
LINE
  5
485
330
1F
100
AcDbEntity
  8
PEN1
  6
LTY1
100
AcDbLine
 10
171.5
 20
129.0
 30
0.0
 11
171.5
 21
131.0
 31
0.0
  0
LINE
  5
486
330
1F
100
AcDbEntity
  8
PEN1
  6
LTY1
100
AcDbLine
 10
171.5
 20
131.0
 30
0.0
 11
169.5
 21
131.0
 31
0.0
  0
LINE
  5
487
330
1F
100
AcDbEntity
  8
PEN1
  6
LTY1
100
AcDbLine
 10
172.5
 20
131.5
 30
0.0
 11
181.5
 21
131.5
 31
0.0
  0
LINE
  5
488
330
1F
100
AcDbEntity
  8
PEN1
  6
LTY1
100
AcDbLine
 10
181.5
 20
131.5
 30
0.0
 11
181.5
 21
125.5
 31
0.0
  0
LINE
  5
489
330
1F
100
AcDbEntity
  8
PEN1
  6
LTY1
100
AcDbLine
 10
181.5
 20
125.5
 30
0.0
 11
172.5
 21
125.5
 31
0.0
  0
LINE
  5
48A
330
1F
100
AcDbEntity
  8
PEN1
  6
LTY1
100
AcDbLine
 10
172.5
 20
125.5
 30
0.0
 11
172.5
 21
131.5
 31
0.0
  0
LINE
  5
48B
330
1F
100
AcDbEntity
  8
PEN1
  6
LTY1
100
AcDbLine
 10
172.5
 20
126.5
 30
0.0
 11
173.0
 21
126.0
 31
0.0
  0
LINE
  5
48C
330
1F
100
AcDbEntity
  8
PEN1
  6
LTY1
100
AcDbLine
 10
173.0
 20
126.0
 30
0.0
 11
181.0
 21
126.0
 31
0.0
  0
LINE
  5
48D
330
1F
100
AcDbEntity
  8
PEN1
  6
LTY1
100
AcDbLine
 10
181.0
 20
126.0
 30
0.0
 11
181.5
 21
126.5
 31
0.0
  0
LINE
  5
48E
330
1F
100
AcDbEntity
  8
PEN1
  6
LTY1
100
AcDbLine
 10
172.5
 20
127.5
 30
0.0
 11
173.0
 21
127.0
 31
0.0
  0
LINE
  5
48F
330
1F
100
AcDbEntity
  8
PEN1
  6
LTY1
100
AcDbLine
 10
173.0
 20
127.0
 30
0.0
 11
181.0
 21
127.0
 31
0.0
  0
LINE
  5
490
330
1F
100
AcDbEntity
  8
PEN1
  6
LTY1
100
AcDbLine
 10
181.0
 20
127.0
 30
0.0
 11
181.5
 21
127.5
 31
0.0
  0
LINE
  5
491
330
1F
100
AcDbEntity
  8
PEN1
  6
LTY1
100
AcDbLine
 10
172.5
 20
128.5
 30
0.0
 11
173.0
 21
128.0
 31
0.0
  0
LINE
  5
492
330
1F
100
AcDbEntity
  8
PEN1
  6
LTY1
100
AcDbLine
 10
173.0
 20
128.0
 30
0.0
 11
181.0
 21
128.0
 31
0.0
  0
LINE
  5
493
330
1F
100
AcDbEntity
  8
PEN1
  6
LTY1
100
AcDbLine
 10
181.0
 20
128.0
 30
0.0
 11
181.5
 21
128.5
 31
0.0
  0
LINE
  5
494
330
1F
100
AcDbEntity
  8
PEN1
  6
LTY1
100
AcDbLine
 10
172.5
 20
129.5
 30
0.0
 11
173.0
 21
129.0
 31
0.0
  0
LINE
  5
495
330
1F
100
AcDbEntity
  8
PEN1
  6
LTY1
100
AcDbLine
 10
173.0
 20
129.0
 30
0.0
 11
181.0
 21
129.0
 31
0.0
  0
LINE
  5
496
330
1F
100
AcDbEntity
  8
PEN1
  6
LTY1
100
AcDbLine
 10
181.0
 20
129.0
 30
0.0
 11
181.5
 21
129.5
 31
0.0
  0
LINE
  5
497
330
1F
100
AcDbEntity
  8
PEN1
  6
LTY1
100
AcDbLine
 10
178.5
 20
131.0
 30
0.0
 11
178.5
 21
129.0
 31
0.0
  0
LINE
  5
498
330
1F
100
AcDbEntity
  8
PEN1
  6
LTY1
100
AcDbLine
 10
178.5
 20
129.0
 30
0.0
 11
180.0
 21
129.0
 31
0.0
  0
LINE
  5
499
330
1F
100
AcDbEntity
  8
PEN1
  6
LTY1
100
AcDbLine
 10
180.0
 20
129.0
 30
0.0
 11
180.5
 21
129.0
 31
0.0
  0
LINE
  5
49A
330
1F
100
AcDbEntity
  8
PEN1
  6
LTY1
100
AcDbLine
 10
180.5
 20
129.0
 30
0.0
 11
180.5
 21
131.0
 31
0.0
  0
LINE
  5
49B
330
1F
100
AcDbEntity
  8
PEN1
  6
LTY1
100
AcDbLine
 10
180.5
 20
131.0
 30
0.0
 11
178.5
 21
131.0
 31
0.0
  0
LINE
  5
49C
330
1F
100
AcDbEntity
  8
PEN1
  6
LTY1
100
AcDbLine
 10
181.5
 20
131.5
 30
0.0
 11
190.5
 21
131.5
 31
0.0
  0
LINE
  5
49D
330
1F
100
AcDbEntity
  8
PEN1
  6
LTY1
100
AcDbLine
 10
190.5
 20
131.5
 30
0.0
 11
190.5
 21
125.5
 31
0.0
  0
LINE
  5
49E
330
1F
100
AcDbEntity
  8
PEN1
  6
LTY1
100
AcDbLine
 10
190.5
 20
125.5
 30
0.0
 11
181.5
 21
125.5
 31
0.0
  0
LINE
  5
49F
330
1F
100
AcDbEntity
  8
PEN1
  6
LTY1
100
AcDbLine
 10
181.5
 20
125.5
 30
0.0
 11
181.5
 21
131.5
 31
0.0
  0
LINE
  5
4A0
330
1F
100
AcDbEntity
  8
PEN1
  6
LTY1
100
AcDbLine
 10
181.5
 20
126.5
 30
0.0
 11
182.0
 21
126.0
 31
0.0
  0
LINE
  5
4A1
330
1F
100
AcDbEntity
  8
PEN1
  6
LTY1
100
AcDbLine
 10
182.0
 20
126.0
 30
0.0
 11
190.0
 21
126.0
 31
0.0
  0
LINE
  5
4A2
330
1F
100
AcDbEntity
  8
PEN1
  6
LTY1
100
AcDbLine
 10
190.0
 20
126.0
 30
0.0
 11
190.5
 21
126.5
 31
0.0
  0
LINE
  5
4A3
330
1F
100
AcDbEntity
  8
PEN1
  6
LTY1
100
AcDbLine
 10
181.5
 20
127.5
 30
0.0
 11
182.0
 21
127.0
 31
0.0
  0
LINE
  5
4A4
330
1F
100
AcDbEntity
  8
PEN1
  6
LTY1
100
AcDbLine
 10
182.0
 20
127.0
 30
0.0
 11
190.0
 21
127.0
 31
0.0
  0
LINE
  5
4A5
330
1F
100
AcDbEntity
  8
PEN1
  6
LTY1
100
AcDbLine
 10
190.0
 20
127.0
 30
0.0
 11
190.5
 21
127.5
 31
0.0
  0
LINE
  5
4A6
330
1F
100
AcDbEntity
  8
PEN1
  6
LTY1
100
AcDbLine
 10
181.5
 20
128.5
 30
0.0
 11
182.0
 21
128.0
 31
0.0
  0
LINE
  5
4A7
330
1F
100
AcDbEntity
  8
PEN1
  6
LTY1
100
AcDbLine
 10
182.0
 20
128.0
 30
0.0
 11
190.0
 21
128.0
 31
0.0
  0
LINE
  5
4A8
330
1F
100
AcDbEntity
  8
PEN1
  6
LTY1
100
AcDbLine
 10
190.0
 20
128.0
 30
0.0
 11
190.5
 21
128.5
 31
0.0
  0
LINE
  5
4A9
330
1F
100
AcDbEntity
  8
PEN1
  6
LTY1
100
AcDbLine
 10
181.5
 20
129.5
 30
0.0
 11
182.0
 21
129.0
 31
0.0
  0
LINE
  5
4AA
330
1F
100
AcDbEntity
  8
PEN1
  6
LTY1
100
AcDbLine
 10
182.0
 20
129.0
 30
0.0
 11
190.0
 21
129.0
 31
0.0
  0
LINE
  5
4AB
330
1F
100
AcDbEntity
  8
PEN1
  6
LTY1
100
AcDbLine
 10
190.0
 20
129.0
 30
0.0
 11
190.5
 21
129.5
 31
0.0
  0
LINE
  5
4AC
330
1F
100
AcDbEntity
  8
PEN1
  6
LTY1
100
AcDbLine
 10
187.5
 20
131.0
 30
0.0
 11
187.5
 21
129.0
 31
0.0
  0
LINE
  5
4AD
330
1F
100
AcDbEntity
  8
PEN1
  6
LTY1
100
AcDbLine
 10
187.5
 20
129.0
 30
0.0
 11
189.0
 21
129.0
 31
0.0
  0
LINE
  5
4AE
330
1F
100
AcDbEntity
  8
PEN1
  6
LTY1
100
AcDbLine
 10
189.0
 20
129.0
 30
0.0
 11
189.5
 21
129.0
 31
0.0
  0
LINE
  5
4AF
330
1F
100
AcDbEntity
  8
PEN1
  6
LTY1
100
AcDbLine
 10
189.5
 20
129.0
 30
0.0
 11
189.5
 21
131.0
 31
0.0
  0
LINE
  5
4B0
330
1F
100
AcDbEntity
  8
PEN1
  6
LTY1
100
AcDbLine
 10
189.5
 20
131.0
 30
0.0
 11
187.5
 21
131.0
 31
0.0
  0
LINE
  5
4B1
330
1F
100
AcDbEntity
  8
PEN1
  6
LTY1
100
AcDbLine
 10
190.5
 20
131.5
 30
0.0
 11
199.5
 21
131.5
 31
0.0
  0
LINE
  5
4B2
330
1F
100
AcDbEntity
  8
PEN1
  6
LTY1
100
AcDbLine
 10
199.5
 20
131.5
 30
0.0
 11
199.5
 21
125.5
 31
0.0
  0
LINE
  5
4B3
330
1F
100
AcDbEntity
  8
PEN1
  6
LTY1
100
AcDbLine
 10
199.5
 20
125.5
 30
0.0
 11
190.5
 21
125.5
 31
0.0
  0
LINE
  5
4B4
330
1F
100
AcDbEntity
  8
PEN1
  6
LTY1
100
AcDbLine
 10
190.5
 20
125.5
 30
0.0
 11
190.5
 21
131.5
 31
0.0
  0
LINE
  5
4B5
330
1F
100
AcDbEntity
  8
PEN1
  6
LTY1
100
AcDbLine
 10
190.5
 20
126.5
 30
0.0
 11
191.0
 21
126.0
 31
0.0
  0
LINE
  5
4B6
330
1F
100
AcDbEntity
  8
PEN1
  6
LTY1
100
AcDbLine
 10
191.0
 20
126.0
 30
0.0
 11
199.0
 21
126.0
 31
0.0
  0
LINE
  5
4B7
330
1F
100
AcDbEntity
  8
PEN1
  6
LTY1
100
AcDbLine
 10
199.0
 20
126.0
 30
0.0
 11
199.5
 21
126.5
 31
0.0
  0
LINE
  5
4B8
330
1F
100
AcDbEntity
  8
PEN1
  6
LTY1
100
AcDbLine
 10
190.5
 20
127.5
 30
0.0
 11
191.0
 21
127.0
 31
0.0
  0
LINE
  5
4B9
330
1F
100
AcDbEntity
  8
PEN1
  6
LTY1
100
AcDbLine
 10
191.0
 20
127.0
 30
0.0
 11
199.0
 21
127.0
 31
0.0
  0
LINE
  5
4BA
330
1F
100
AcDbEntity
  8
PEN1
  6
LTY1
100
AcDbLine
 10
199.0
 20
127.0
 30
0.0
 11
199.5
 21
127.5
 31
0.0
  0
LINE
  5
4BB
330
1F
100
AcDbEntity
  8
PEN1
  6
LTY1
100
AcDbLine
 10
190.5
 20
128.5
 30
0.0
 11
191.0
 21
128.0
 31
0.0
  0
LINE
  5
4BC
330
1F
100
AcDbEntity
  8
PEN1
  6
LTY1
100
AcDbLine
 10
191.0
 20
128.0
 30
0.0
 11
199.0
 21
128.0
 31
0.0
  0
LINE
  5
4BD
330
1F
100
AcDbEntity
  8
PEN1
  6
LTY1
100
AcDbLine
 10
199.0
 20
128.0
 30
0.0
 11
199.5
 21
128.5
 31
0.0
  0
LINE
  5
4BE
330
1F
100
AcDbEntity
  8
PEN1
  6
LTY1
100
AcDbLine
 10
190.5
 20
129.5
 30
0.0
 11
191.0
 21
129.0
 31
0.0
  0
LINE
  5
4BF
330
1F
100
AcDbEntity
  8
PEN1
  6
LTY1
100
AcDbLine
 10
191.0
 20
129.0
 30
0.0
 11
199.0
 21
129.0
 31
0.0
  0
LINE
  5
4C0
330
1F
100
AcDbEntity
  8
PEN1
  6
LTY1
100
AcDbLine
 10
199.0
 20
129.0
 30
0.0
 11
199.5
 21
129.5
 31
0.0
  0
LINE
  5
4C1
330
1F
100
AcDbEntity
  8
PEN1
  6
LTY1
100
AcDbLine
 10
196.5
 20
131.0
 30
0.0
 11
196.5
 21
129.0
 31
0.0
  0
LINE
  5
4C2
330
1F
100
AcDbEntity
  8
PEN1
  6
LTY1
100
AcDbLine
 10
196.5
 20
129.0
 30
0.0
 11
198.0
 21
129.0
 31
0.0
  0
LINE
  5
4C3
330
1F
100
AcDbEntity
  8
PEN1
  6
LTY1
100
AcDbLine
 10
198.0
 20
129.0
 30
0.0
 11
198.5
 21
129.0
 31
0.0
  0
LINE
  5
4C4
330
1F
100
AcDbEntity
  8
PEN1
  6
LTY1
100
AcDbLine
 10
198.5
 20
129.0
 30
0.0
 11
198.5
 21
131.0
 31
0.0
  0
LINE
  5
4C5
330
1F
100
AcDbEntity
  8
PEN1
  6
LTY1
100
AcDbLine
 10
198.5
 20
131.0
 30
0.0
 11
196.5
 21
131.0
 31
0.0
  0
LINE
  5
4C6
330
1F
100
AcDbEntity
  8
PEN1
  6
LTY1
100
AcDbLine
 10
199.5
 20
131.5
 30
0.0
 11
208.5
 21
131.5
 31
0.0
  0
LINE
  5
4C7
330
1F
100
AcDbEntity
  8
PEN1
  6
LTY1
100
AcDbLine
 10
208.5
 20
131.5
 30
0.0
 11
208.5
 21
125.5
 31
0.0
  0
LINE
  5
4C8
330
1F
100
AcDbEntity
  8
PEN1
  6
LTY1
100
AcDbLine
 10
208.5
 20
125.5
 30
0.0
 11
199.5
 21
125.5
 31
0.0
  0
LINE
  5
4C9
330
1F
100
AcDbEntity
  8
PEN1
  6
LTY1
100
AcDbLine
 10
199.5
 20
125.5
 30
0.0
 11
199.5
 21
131.5
 31
0.0
  0
LINE
  5
4CA
330
1F
100
AcDbEntity
  8
PEN1
  6
LTY1
100
AcDbLine
 10
199.5
 20
126.5
 30
0.0
 11
200.0
 21
126.0
 31
0.0
  0
LINE
  5
4CB
330
1F
100
AcDbEntity
  8
PEN1
  6
LTY1
100
AcDbLine
 10
200.0
 20
126.0
 30
0.0
 11
208.0
 21
126.0
 31
0.0
  0
LINE
  5
4CC
330
1F
100
AcDbEntity
  8
PEN1
  6
LTY1
100
AcDbLine
 10
208.0
 20
126.0
 30
0.0
 11
208.5
 21
126.5
 31
0.0
  0
LINE
  5
4CD
330
1F
100
AcDbEntity
  8
PEN1
  6
LTY1
100
AcDbLine
 10
199.5
 20
127.5
 30
0.0
 11
200.0
 21
127.0
 31
0.0
  0
LINE
  5
4CE
330
1F
100
AcDbEntity
  8
PEN1
  6
LTY1
100
AcDbLine
 10
200.0
 20
127.0
 30
0.0
 11
208.0
 21
127.0
 31
0.0
  0
LINE
  5
4CF
330
1F
100
AcDbEntity
  8
PEN1
  6
LTY1
100
AcDbLine
 10
208.0
 20
127.0
 30
0.0
 11
208.5
 21
127.5
 31
0.0
  0
LINE
  5
4D0
330
1F
100
AcDbEntity
  8
PEN1
  6
LTY1
100
AcDbLine
 10
199.5
 20
128.5
 30
0.0
 11
200.0
 21
128.0
 31
0.0
  0
LINE
  5
4D1
330
1F
100
AcDbEntity
  8
PEN1
  6
LTY1
100
AcDbLine
 10
200.0
 20
128.0
 30
0.0
 11
208.0
 21
128.0
 31
0.0
  0
LINE
  5
4D2
330
1F
100
AcDbEntity
  8
PEN1
  6
LTY1
100
AcDbLine
 10
208.0
 20
128.0
 30
0.0
 11
208.5
 21
128.5
 31
0.0
  0
LINE
  5
4D3
330
1F
100
AcDbEntity
  8
PEN1
  6
LTY1
100
AcDbLine
 10
199.5
 20
129.5
 30
0.0
 11
200.0
 21
129.0
 31
0.0
  0
LINE
  5
4D4
330
1F
100
AcDbEntity
  8
PEN1
  6
LTY1
100
AcDbLine
 10
200.0
 20
129.0
 30
0.0
 11
208.0
 21
129.0
 31
0.0
  0
LINE
  5
4D5
330
1F
100
AcDbEntity
  8
PEN1
  6
LTY1
100
AcDbLine
 10
208.0
 20
129.0
 30
0.0
 11
208.5
 21
129.5
 31
0.0
  0
LINE
  5
4D6
330
1F
100
AcDbEntity
  8
PEN1
  6
LTY1
100
AcDbLine
 10
205.5
 20
131.0
 30
0.0
 11
205.5
 21
129.0
 31
0.0
  0
LINE
  5
4D7
330
1F
100
AcDbEntity
  8
PEN1
  6
LTY1
100
AcDbLine
 10
205.5
 20
129.0
 30
0.0
 11
207.0
 21
129.0
 31
0.0
  0
LINE
  5
4D8
330
1F
100
AcDbEntity
  8
PEN1
  6
LTY1
100
AcDbLine
 10
207.0
 20
129.0
 30
0.0
 11
207.5
 21
129.0
 31
0.0
  0
LINE
  5
4D9
330
1F
100
AcDbEntity
  8
PEN1
  6
LTY1
100
AcDbLine
 10
207.5
 20
129.0
 30
0.0
 11
207.5
 21
131.0
 31
0.0
  0
LINE
  5
4DA
330
1F
100
AcDbEntity
  8
PEN1
  6
LTY1
100
AcDbLine
 10
207.5
 20
131.0
 30
0.0
 11
205.5
 21
131.0
 31
0.0
  0
LINE
  5
4DB
330
1F
100
AcDbEntity
  8
PEN1
  6
LTY1
100
AcDbLine
 10
208.5
 20
131.5
 30
0.0
 11
217.5
 21
131.5
 31
0.0
  0
LINE
  5
4DC
330
1F
100
AcDbEntity
  8
PEN1
  6
LTY1
100
AcDbLine
 10
217.5
 20
131.5
 30
0.0
 11
217.5
 21
125.5
 31
0.0
  0
LINE
  5
4DD
330
1F
100
AcDbEntity
  8
PEN1
  6
LTY1
100
AcDbLine
 10
217.5
 20
125.5
 30
0.0
 11
208.5
 21
125.5
 31
0.0
  0
LINE
  5
4DE
330
1F
100
AcDbEntity
  8
PEN1
  6
LTY1
100
AcDbLine
 10
208.5
 20
125.5
 30
0.0
 11
208.5
 21
131.5
 31
0.0
  0
LINE
  5
4DF
330
1F
100
AcDbEntity
  8
PEN1
  6
LTY1
100
AcDbLine
 10
208.5
 20
126.5
 30
0.0
 11
209.0
 21
126.0
 31
0.0
  0
LINE
  5
4E0
330
1F
100
AcDbEntity
  8
PEN1
  6
LTY1
100
AcDbLine
 10
209.0
 20
126.0
 30
0.0
 11
217.0
 21
126.0
 31
0.0
  0
LINE
  5
4E1
330
1F
100
AcDbEntity
  8
PEN1
  6
LTY1
100
AcDbLine
 10
217.0
 20
126.0
 30
0.0
 11
217.5
 21
126.5
 31
0.0
  0
LINE
  5
4E2
330
1F
100
AcDbEntity
  8
PEN1
  6
LTY1
100
AcDbLine
 10
208.5
 20
127.5
 30
0.0
 11
209.0
 21
127.0
 31
0.0
  0
LINE
  5
4E3
330
1F
100
AcDbEntity
  8
PEN1
  6
LTY1
100
AcDbLine
 10
209.0
 20
127.0
 30
0.0
 11
217.0
 21
127.0
 31
0.0
  0
LINE
  5
4E4
330
1F
100
AcDbEntity
  8
PEN1
  6
LTY1
100
AcDbLine
 10
217.0
 20
127.0
 30
0.0
 11
217.5
 21
127.5
 31
0.0
  0
LINE
  5
4E5
330
1F
100
AcDbEntity
  8
PEN1
  6
LTY1
100
AcDbLine
 10
208.5
 20
128.5
 30
0.0
 11
209.0
 21
128.0
 31
0.0
  0
LINE
  5
4E6
330
1F
100
AcDbEntity
  8
PEN1
  6
LTY1
100
AcDbLine
 10
209.0
 20
128.0
 30
0.0
 11
217.0
 21
128.0
 31
0.0
  0
LINE
  5
4E7
330
1F
100
AcDbEntity
  8
PEN1
  6
LTY1
100
AcDbLine
 10
217.0
 20
128.0
 30
0.0
 11
217.5
 21
128.5
 31
0.0
  0
LINE
  5
4E8
330
1F
100
AcDbEntity
  8
PEN1
  6
LTY1
100
AcDbLine
 10
208.5
 20
129.5
 30
0.0
 11
209.0
 21
129.0
 31
0.0
  0
LINE
  5
4E9
330
1F
100
AcDbEntity
  8
PEN1
  6
LTY1
100
AcDbLine
 10
209.0
 20
129.0
 30
0.0
 11
217.0
 21
129.0
 31
0.0
  0
LINE
  5
4EA
330
1F
100
AcDbEntity
  8
PEN1
  6
LTY1
100
AcDbLine
 10
217.0
 20
129.0
 30
0.0
 11
217.5
 21
129.5
 31
0.0
  0
LINE
  5
4EB
330
1F
100
AcDbEntity
  8
PEN1
  6
LTY1
100
AcDbLine
 10
214.5
 20
131.0
 30
0.0
 11
214.5
 21
129.0
 31
0.0
  0
LINE
  5
4EC
330
1F
100
AcDbEntity
  8
PEN1
  6
LTY1
100
AcDbLine
 10
214.5
 20
129.0
 30
0.0
 11
216.0
 21
129.0
 31
0.0
  0
LINE
  5
4ED
330
1F
100
AcDbEntity
  8
PEN1
  6
LTY1
100
AcDbLine
 10
216.0
 20
129.0
 30
0.0
 11
216.5
 21
129.0
 31
0.0
  0
LINE
  5
4EE
330
1F
100
AcDbEntity
  8
PEN1
  6
LTY1
100
AcDbLine
 10
216.5
 20
129.0
 30
0.0
 11
216.5
 21
131.0
 31
0.0
  0
LINE
  5
4EF
330
1F
100
AcDbEntity
  8
PEN1
  6
LTY1
100
AcDbLine
 10
216.5
 20
131.0
 30
0.0
 11
214.5
 21
131.0
 31
0.0
  0
LINE
  5
4F0
330
1F
100
AcDbEntity
  8
PEN1
  6
LTY1
100
AcDbLine
 10
217.5
 20
131.5
 30
0.0
 11
226.5
 21
131.5
 31
0.0
  0
LINE
  5
4F1
330
1F
100
AcDbEntity
  8
PEN1
  6
LTY1
100
AcDbLine
 10
226.5
 20
131.5
 30
0.0
 11
226.5
 21
125.5
 31
0.0
  0
LINE
  5
4F2
330
1F
100
AcDbEntity
  8
PEN1
  6
LTY1
100
AcDbLine
 10
226.5
 20
125.5
 30
0.0
 11
217.5
 21
125.5
 31
0.0
  0
LINE
  5
4F3
330
1F
100
AcDbEntity
  8
PEN1
  6
LTY1
100
AcDbLine
 10
217.5
 20
125.5
 30
0.0
 11
217.5
 21
131.5
 31
0.0
  0
LINE
  5
4F4
330
1F
100
AcDbEntity
  8
PEN1
  6
LTY1
100
AcDbLine
 10
217.5
 20
126.5
 30
0.0
 11
218.0
 21
126.0
 31
0.0
  0
LINE
  5
4F5
330
1F
100
AcDbEntity
  8
PEN1
  6
LTY1
100
AcDbLine
 10
218.0
 20
126.0
 30
0.0
 11
226.0
 21
126.0
 31
0.0
  0
LINE
  5
4F6
330
1F
100
AcDbEntity
  8
PEN1
  6
LTY1
100
AcDbLine
 10
226.0
 20
126.0
 30
0.0
 11
226.5
 21
126.5
 31
0.0
  0
LINE
  5
4F7
330
1F
100
AcDbEntity
  8
PEN1
  6
LTY1
100
AcDbLine
 10
217.5
 20
127.5
 30
0.0
 11
218.0
 21
127.0
 31
0.0
  0
LINE
  5
4F8
330
1F
100
AcDbEntity
  8
PEN1
  6
LTY1
100
AcDbLine
 10
218.0
 20
127.0
 30
0.0
 11
226.0
 21
127.0
 31
0.0
  0
LINE
  5
4F9
330
1F
100
AcDbEntity
  8
PEN1
  6
LTY1
100
AcDbLine
 10
226.0
 20
127.0
 30
0.0
 11
226.5
 21
127.5
 31
0.0
  0
LINE
  5
4FA
330
1F
100
AcDbEntity
  8
PEN1
  6
LTY1
100
AcDbLine
 10
217.5
 20
128.5
 30
0.0
 11
218.0
 21
128.0
 31
0.0
  0
LINE
  5
4FB
330
1F
100
AcDbEntity
  8
PEN1
  6
LTY1
100
AcDbLine
 10
218.0
 20
128.0
 30
0.0
 11
226.0
 21
128.0
 31
0.0
  0
LINE
  5
4FC
330
1F
100
AcDbEntity
  8
PEN1
  6
LTY1
100
AcDbLine
 10
226.0
 20
128.0
 30
0.0
 11
226.5
 21
128.5
 31
0.0
  0
LINE
  5
4FD
330
1F
100
AcDbEntity
  8
PEN1
  6
LTY1
100
AcDbLine
 10
217.5
 20
129.5
 30
0.0
 11
218.0
 21
129.0
 31
0.0
  0
LINE
  5
4FE
330
1F
100
AcDbEntity
  8
PEN1
  6
LTY1
100
AcDbLine
 10
218.0
 20
129.0
 30
0.0
 11
226.0
 21
129.0
 31
0.0
  0
LINE
  5
4FF
330
1F
100
AcDbEntity
  8
PEN1
  6
LTY1
100
AcDbLine
 10
226.0
 20
129.0
 30
0.0
 11
226.5
 21
129.5
 31
0.0
  0
LINE
  5
500
330
1F
100
AcDbEntity
  8
PEN1
  6
LTY1
100
AcDbLine
 10
223.5
 20
131.0
 30
0.0
 11
223.5
 21
129.0
 31
0.0
  0
LINE
  5
501
330
1F
100
AcDbEntity
  8
PEN1
  6
LTY1
100
AcDbLine
 10
223.5
 20
129.0
 30
0.0
 11
225.0
 21
129.0
 31
0.0
  0
LINE
  5
502
330
1F
100
AcDbEntity
  8
PEN1
  6
LTY1
100
AcDbLine
 10
225.0
 20
129.0
 30
0.0
 11
225.5
 21
129.0
 31
0.0
  0
LINE
  5
503
330
1F
100
AcDbEntity
  8
PEN1
  6
LTY1
100
AcDbLine
 10
225.5
 20
129.0
 30
0.0
 11
225.5
 21
131.0
 31
0.0
  0
LINE
  5
504
330
1F
100
AcDbEntity
  8
PEN1
  6
LTY1
100
AcDbLine
 10
225.5
 20
131.0
 30
0.0
 11
223.5
 21
131.0
 31
0.0
  0
LINE
  5
505
330
1F
100
AcDbEntity
  8
PEN1
  6
LTY1
100
AcDbLine
 10
226.5
 20
131.5
 30
0.0
 11
235.5
 21
131.5
 31
0.0
  0
LINE
  5
506
330
1F
100
AcDbEntity
  8
PEN1
  6
LTY1
100
AcDbLine
 10
235.5
 20
131.5
 30
0.0
 11
235.5
 21
125.5
 31
0.0
  0
LINE
  5
507
330
1F
100
AcDbEntity
  8
PEN1
  6
LTY1
100
AcDbLine
 10
235.5
 20
125.5
 30
0.0
 11
226.5
 21
125.5
 31
0.0
  0
LINE
  5
508
330
1F
100
AcDbEntity
  8
PEN1
  6
LTY1
100
AcDbLine
 10
226.5
 20
125.5
 30
0.0
 11
226.5
 21
131.5
 31
0.0
  0
LINE
  5
509
330
1F
100
AcDbEntity
  8
PEN1
  6
LTY1
100
AcDbLine
 10
226.5
 20
126.5
 30
0.0
 11
227.0
 21
126.0
 31
0.0
  0
LINE
  5
50A
330
1F
100
AcDbEntity
  8
PEN1
  6
LTY1
100
AcDbLine
 10
227.0
 20
126.0
 30
0.0
 11
235.0
 21
126.0
 31
0.0
  0
LINE
  5
50B
330
1F
100
AcDbEntity
  8
PEN1
  6
LTY1
100
AcDbLine
 10
235.0
 20
126.0
 30
0.0
 11
235.5
 21
126.5
 31
0.0
  0
LINE
  5
50C
330
1F
100
AcDbEntity
  8
PEN1
  6
LTY1
100
AcDbLine
 10
226.5
 20
127.5
 30
0.0
 11
227.0
 21
127.0
 31
0.0
  0
LINE
  5
50D
330
1F
100
AcDbEntity
  8
PEN1
  6
LTY1
100
AcDbLine
 10
227.0
 20
127.0
 30
0.0
 11
235.0
 21
127.0
 31
0.0
  0
LINE
  5
50E
330
1F
100
AcDbEntity
  8
PEN1
  6
LTY1
100
AcDbLine
 10
235.0
 20
127.0
 30
0.0
 11
235.5
 21
127.5
 31
0.0
  0
LINE
  5
50F
330
1F
100
AcDbEntity
  8
PEN1
  6
LTY1
100
AcDbLine
 10
226.5
 20
128.5
 30
0.0
 11
227.0
 21
128.0
 31
0.0
  0
LINE
  5
510
330
1F
100
AcDbEntity
  8
PEN1
  6
LTY1
100
AcDbLine
 10
227.0
 20
128.0
 30
0.0
 11
235.0
 21
128.0
 31
0.0
  0
LINE
  5
511
330
1F
100
AcDbEntity
  8
PEN1
  6
LTY1
100
AcDbLine
 10
235.0
 20
128.0
 30
0.0
 11
235.5
 21
128.5
 31
0.0
  0
LINE
  5
512
330
1F
100
AcDbEntity
  8
PEN1
  6
LTY1
100
AcDbLine
 10
226.5
 20
129.5
 30
0.0
 11
227.0
 21
129.0
 31
0.0
  0
LINE
  5
513
330
1F
100
AcDbEntity
  8
PEN1
  6
LTY1
100
AcDbLine
 10
227.0
 20
129.0
 30
0.0
 11
235.0
 21
129.0
 31
0.0
  0
LINE
  5
514
330
1F
100
AcDbEntity
  8
PEN1
  6
LTY1
100
AcDbLine
 10
235.0
 20
129.0
 30
0.0
 11
235.5
 21
129.5
 31
0.0
  0
LINE
  5
515
330
1F
100
AcDbEntity
  8
PEN1
  6
LTY1
100
AcDbLine
 10
232.5
 20
131.0
 30
0.0
 11
232.5
 21
129.0
 31
0.0
  0
LINE
  5
516
330
1F
100
AcDbEntity
  8
PEN1
  6
LTY1
100
AcDbLine
 10
232.5
 20
129.0
 30
0.0
 11
234.0
 21
129.0
 31
0.0
  0
LINE
  5
517
330
1F
100
AcDbEntity
  8
PEN1
  6
LTY1
100
AcDbLine
 10
234.0
 20
129.0
 30
0.0
 11
234.5
 21
129.0
 31
0.0
  0
LINE
  5
518
330
1F
100
AcDbEntity
  8
PEN1
  6
LTY1
100
AcDbLine
 10
234.5
 20
129.0
 30
0.0
 11
234.5
 21
131.0
 31
0.0
  0
LINE
  5
519
330
1F
100
AcDbEntity
  8
PEN1
  6
LTY1
100
AcDbLine
 10
234.5
 20
131.0
 30
0.0
 11
232.5
 21
131.0
 31
0.0
  0
LINE
  5
51A
330
1F
100
AcDbEntity
  8
PEN1
  6
LTY1
100
AcDbLine
 10
169.5
 20
115.5
 30
0.0
 11
169.5
 21
109.0
 31
0.0
  0
LINE
  5
51B
330
1F
100
AcDbEntity
  8
PEN1
  6
LTY1
100
AcDbLine
 10
169.5
 20
109.0
 30
0.0
 11
208.5
 21
109.0
 31
0.0
  0
LINE
  5
51C
330
1F
100
AcDbEntity
  8
PEN1
  6
LTY1
100
AcDbLine
 10
208.5
 20
109.0
 30
0.0
 11
208.5
 21
115.5
 31
0.0
  0
LINE
  5
51D
330
1F
100
AcDbEntity
  8
PEN1
  6
LTY1
100
AcDbLine
 10
208.5
 20
115.5
 30
0.0
 11
169.5
 21
115.5
 31
0.0
  0
LINE
  5
51E
330
1F
100
AcDbEntity
  8
PEN1
  6
LTY1
100
AcDbLine
 10
169.5
 20
107.5
 30
0.0
 11
169.5
 21
101.0
 31
0.0
  0
LINE
  5
51F
330
1F
100
AcDbEntity
  8
PEN1
  6
LTY1
100
AcDbLine
 10
169.5
 20
101.0
 30
0.0
 11
208.5
 21
101.0
 31
0.0
  0
LINE
  5
520
330
1F
100
AcDbEntity
  8
PEN1
  6
LTY1
100
AcDbLine
 10
208.5
 20
101.0
 30
0.0
 11
208.5
 21
107.5
 31
0.0
  0
LINE
  5
521
330
1F
100
AcDbEntity
  8
PEN1
  6
LTY1
100
AcDbLine
 10
208.5
 20
107.5
 30
0.0
 11
169.5
 21
107.5
 31
0.0
  0
ARC
  5
522
330
1F
100
AcDbEntity
  8
PEN1
  6
LTY1
100
AcDbCircle
 10
166.0
 20
102.0
 30
0.0
 40
2.5
100
AcDbArc
 50
180.0
 51
270.0
  0
ARC
  5
523
330
1F
100
AcDbEntity
  8
PEN1
  6
LTY1
100
AcDbCircle
 10
233.0
 20
102.0
 30
0.0
 40
2.5
100
AcDbArc
 50
270.0
 51
0.0
  0
LINE
  5
524
330
1F
100
AcDbEntity
  8
PEN1
  6
LTY1
100
AcDbLine
 10
214.5
 20
105.0
 30
0.0
 11
214.5
 21
100.5
 31
0.0
  0
LINE
  5
525
330
1F
100
AcDbEntity
  8
PEN1
  6
LTY1
100
AcDbLine
 10
214.5
 20
100.5
 30
0.0
 11
229.0
 21
100.5
 31
0.0
  0
LINE
  5
526
330
1F
100
AcDbEntity
  8
PEN1
  6
LTY1
100
AcDbLine
 10
229.0
 20
100.5
 30
0.0
 11
229.0
 21
105.0
 31
0.0
  0
LINE
  5
527
330
1F
100
AcDbEntity
  8
PEN1
  6
LTY1
100
AcDbLine
 10
229.0
 20
105.0
 30
0.0
 11
214.5
 21
105.0
 31
0.0
  0
CIRCLE
  5
528
330
1F
100
AcDbEntity
  8
PEN1
  6
LTY1
100
AcDbCircle
 10
216.5
 20
102.5
 30
0.0
 40
1.5
  0
CIRCLE
  5
529
330
1F
100
AcDbEntity
  8
PEN1
  6
LTY1
100
AcDbCircle
 10
220.0
 20
102.5
 30
0.0
 40
1.5
  0
CIRCLE
  5
52A
330
1F
100
AcDbEntity
  8
PEN1
  6
LTY1
100
AcDbCircle
 10
223.5
 20
102.5
 30
0.0
 40
1.5
  0
CIRCLE
  5
52B
330
1F
100
AcDbEntity
  8
PEN1
  6
LTY1
100
AcDbCircle
 10
227.0
 20
102.5
 30
0.0
 40
1.5
  0
LINE
  5
52C
330
1F
100
AcDbEntity
  8
PEN1
  6
LTY1
100
AcDbLine
 10
211.5
 20
109.5
 30
0.0
 11
211.5
 21
105.0
 31
0.0
  0
LINE
  5
52D
330
1F
100
AcDbEntity
  8
PEN1
  6
LTY1
100
AcDbLine
 10
211.5
 20
105.0
 30
0.0
 11
226.0
 21
105.0
 31
0.0
  0
LINE
  5
52E
330
1F
100
AcDbEntity
  8
PEN1
  6
LTY1
100
AcDbLine
 10
226.0
 20
105.0
 30
0.0
 11
226.0
 21
109.5
 31
0.0
  0
LINE
  5
52F
330
1F
100
AcDbEntity
  8
PEN1
  6
LTY1
100
AcDbLine
 10
226.0
 20
109.5
 30
0.0
 11
211.5
 21
109.5
 31
0.0
  0
CIRCLE
  5
530
330
1F
100
AcDbEntity
  8
PEN1
  6
LTY1
100
AcDbCircle
 10
213.5
 20
107.0
 30
0.0
 40
1.5
  0
CIRCLE
  5
531
330
1F
100
AcDbEntity
  8
PEN1
  6
LTY1
100
AcDbCircle
 10
217.0
 20
107.0
 30
0.0
 40
1.5
  0
CIRCLE
  5
532
330
1F
100
AcDbEntity
  8
PEN1
  6
LTY1
100
AcDbCircle
 10
220.5
 20
107.0
 30
0.0
 40
1.5
  0
CIRCLE
  5
533
330
1F
100
AcDbEntity
  8
PEN1
  6
LTY1
100
AcDbCircle
 10
224.0
 20
107.0
 30
0.0
 40
1.5
  0
LINE
  5
534
330
1F
100
AcDbEntity
  8
PEN1
  6
LTY1
100
AcDbLine
 10
175.5
 20
105.5
 30
0.0
 11
175.5
 21
102.5
 31
0.0
  0
LINE
  5
535
330
1F
100
AcDbEntity
  8
PEN1
  6
LTY1
100
AcDbLine
 10
175.5
 20
102.5
 30
0.0
 11
203.0
 21
102.5
 31
0.0
  0
LINE
  5
536
330
1F
100
AcDbEntity
  8
PEN1
  6
LTY1
100
AcDbLine
 10
203.0
 20
102.5
 30
0.0
 11
203.0
 21
105.5
 31
0.0
  0
LINE
  5
537
330
1F
100
AcDbEntity
  8
PEN1
  6
LTY1
100
AcDbLine
 10
203.0
 20
105.5
 30
0.0
 11
175.5
 21
105.5
 31
0.0
  0
LINE
  5
538
330
1F
100
AcDbEntity
  8
PEN1
  6
LTY1
100
AcDbLine
 10
175.5
 20
113.5
 30
0.0
 11
175.5
 21
110.5
 31
0.0
  0
LINE
  5
539
330
1F
100
AcDbEntity
  8
PEN1
  6
LTY1
100
AcDbLine
 10
175.5
 20
110.5
 30
0.0
 11
203.0
 21
110.5
 31
0.0
  0
LINE
  5
53A
330
1F
100
AcDbEntity
  8
PEN1
  6
LTY1
100
AcDbLine
 10
203.0
 20
110.5
 30
0.0
 11
203.0
 21
113.5
 31
0.0
  0
LINE
  5
53B
330
1F
100
AcDbEntity
  8
PEN1
  6
LTY1
100
AcDbLine
 10
203.0
 20
113.5
 30
0.0
 11
175.5
 21
113.5
 31
0.0
  0
LINE
  5
53C
330
1F
100
AcDbEntity
  8
PEN1
  6
LTY1
100
AcDbLine
 10
166.0
 20
99.5
 30
0.0
 11
233.0
 21
99.5
 31
0.0
  0
LINE
  5
53D
330
1F
100
AcDbEntity
  8
PEN1
  6
LTY1
100
AcDbLine
 10
163.5
 20
102.5
 30
0.0
 11
163.5
 21
131.0
 31
0.0
  0
LINE
  5
53E
330
1F
100
AcDbEntity
  8
PEN1
  6
LTY1
100
AcDbLine
 10
235.5
 20
102.5
 30
0.0
 11
235.5
 21
131.0
 31
0.0
  0
LINE
  5
53F
330
1F
100
AcDbEntity
  8
PEN1
  6
LTY1
100
AcDbLine
 10
172.5
 20
131.5
 30
0.0
 11
172.5
 21
181.2
 31
0.0
  0
LINE
  5
540
330
1F
100
AcDbEntity
  8
PEN1
  6
LTY1
100
AcDbLine
 10
166.1
 20
142.7
 30
0.0
 11
169.6
 21
142.7
 31
0.0
  0
LINE
  5
541
330
1F
100
AcDbEntity
  8
PEN1
  6
LTY1
100
AcDbLine
 10
169.6
 20
142.7
 30
0.0
 11
169.6
 21
139.2
 31
0.0
  0
LINE
  5
542
330
1F
100
AcDbEntity
  8
PEN1
  6
LTY1
100
AcDbLine
 10
169.6
 20
139.2
 30
0.0
 11
166.1
 21
139.2
 31
0.0
  0
LINE
  5
543
330
1F
100
AcDbEntity
  8
PEN1
  6
LTY1
100
AcDbLine
 10
166.1
 20
139.2
 30
0.0
 11
166.1
 21
142.7
 31
0.0
  0
LINE
  5
544
330
1F
100
AcDbEntity
  8
PEN1
  6
LTY1
100
AcDbLine
 10
167.1
 20
141.7
 30
0.0
 11
168.7
 21
141.7
 31
0.0
  0
LINE
  5
545
330
1F
100
AcDbEntity
  8
PEN1
  6
LTY1
100
AcDbLine
 10
168.7
 20
141.7
 30
0.0
 11
169.4
 21
141.4
 31
0.0
  0
LINE
  5
546
330
1F
100
AcDbEntity
  8
PEN1
  6
LTY1
100
AcDbLine
 10
169.4
 20
141.4
 30
0.0
 11
169.4
 21
140.5
 31
0.0
  0
LINE
  5
547
330
1F
100
AcDbEntity
  8
PEN1
  6
LTY1
100
AcDbLine
 10
169.4
 20
140.5
 30
0.0
 11
168.7
 21
140.2
 31
0.0
  0
LINE
  5
548
330
1F
100
AcDbEntity
  8
PEN1
  6
LTY1
100
AcDbLine
 10
168.7
 20
140.2
 30
0.0
 11
167.0
 21
140.2
 31
0.0
  0
LINE
  5
549
330
1F
100
AcDbEntity
  8
PEN1
  6
LTY1
100
AcDbLine
 10
167.0
 20
140.2
 30
0.0
 11
166.4
 21
140.5
 31
0.0
  0
LINE
  5
54A
330
1F
100
AcDbEntity
  8
PEN1
  6
LTY1
100
AcDbLine
 10
166.4
 20
140.5
 30
0.0
 11
166.4
 21
141.4
 31
0.0
  0
LINE
  5
54B
330
1F
100
AcDbEntity
  8
PEN1
  6
LTY1
100
AcDbLine
 10
166.4
 20
141.4
 30
0.0
 11
167.1
 21
141.7
 31
0.0
  0
LINE
  5
54C
330
1F
100
AcDbEntity
  8
PEN1
  6
LTY1
100
AcDbLine
 10
168.4
 20
159.9
 30
0.0
 11
168.4
 21
154.4
 31
0.0
  0
LINE
  5
54D
330
1F
100
AcDbEntity
  8
PEN1
  6
LTY1
100
AcDbLine
 10
168.4
 20
154.4
 30
0.0
 11
170.6
 21
154.4
 31
0.0
  0
LINE
  5
54E
330
1F
100
AcDbEntity
  8
PEN1
  6
LTY1
100
AcDbLine
 10
170.6
 20
154.4
 30
0.0
 11
170.6
 21
159.9
 31
0.0
  0
LINE
  5
54F
330
1F
100
AcDbEntity
  8
PEN1
  6
LTY1
100
AcDbLine
 10
170.6
 20
159.9
 30
0.0
 11
168.4
 21
159.9
 31
0.0
  0
LINE
  5
550
330
1F
100
AcDbEntity
  8
PEN1
  6
LTY1
100
AcDbLine
 10
164.5
 20
174.9
 30
0.0
 11
164.5
 21
138.2
 31
0.0
  0
LINE
  5
551
330
1F
100
AcDbEntity
  8
PEN1
  6
LTY1
100
AcDbLine
 10
164.5
 20
138.2
 30
0.0
 11
171.5
 21
138.2
 31
0.0
  0
LINE
  5
552
330
1F
100
AcDbEntity
  8
PEN1
  6
LTY1
100
AcDbLine
 10
171.5
 20
138.2
 30
0.0
 11
171.5
 21
174.9
 31
0.0
  0
LINE
  5
553
330
1F
100
AcDbEntity
  8
PEN1
  6
LTY1
100
AcDbLine
 10
171.5
 20
174.9
 30
0.0
 11
164.5
 21
174.9
 31
0.0
  0
LINE
  5
554
330
1F
100
AcDbEntity
  8
PEN1
  6
LTY1
100
AcDbLine
 10
172.5
 20
181.2
 30
0.0
 11
172.5
 21
131.6
 31
0.0
  0
LINE
  5
555
330
1F
100
AcDbEntity
  8
PEN1
  6
LTY1
100
AcDbLine
 10
163.5
 20
181.2
 30
0.0
 11
172.5
 21
181.2
 31
0.0
  0
LINE
  5
556
330
1F
100
AcDbEntity
  8
PEN1
  6
LTY1
100
AcDbLine
 10
172.5
 20
175.6
 30
0.0
 11
163.5
 21
175.6
 31
0.0
  0
LINE
  5
557
330
1F
100
AcDbEntity
  8
PEN1
  6
LTY1
100
AcDbLine
 10
172.5
 20
131.5
 30
0.0
 11
172.5
 21
181.2
 31
0.0
  0
LINE
  5
558
330
1F
100
AcDbEntity
  8
PEN1
  6
LTY1
100
AcDbLine
 10
172.5
 20
181.2
 30
0.0
 11
172.5
 21
131.6
 31
0.0
  0
LINE
  5
559
330
1F
100
AcDbEntity
  8
PEN1
  6
LTY1
100
AcDbLine
 10
172.5
 20
131.5
 30
0.0
 11
172.5
 21
181.2
 31
0.0
  0
LINE
  5
55A
330
1F
100
AcDbEntity
  8
PEN1
  6
LTY1
100
AcDbLine
 10
172.5
 20
181.2
 30
0.0
 11
172.5
 21
131.6
 31
0.0
  0
LINE
  5
55B
330
1F
100
AcDbEntity
  8
PEN1
  6
LTY1
100
AcDbLine
 10
172.5
 20
131.5
 30
0.0
 11
172.5
 21
181.2
 31
0.0
  0
LINE
  5
55C
330
1F
100
AcDbEntity
  8
PEN1
  6
LTY1
100
AcDbLine
 10
172.5
 20
181.2
 30
0.0
 11
172.5
 21
131.6
 31
0.0
  0
LINE
  5
55D
330
1F
100
AcDbEntity
  8
PEN1
  6
LTY1
100
AcDbLine
 10
172.5
 20
131.5
 30
0.0
 11
172.5
 21
181.2
 31
0.0
  0
LINE
  5
55E
330
1F
100
AcDbEntity
  8
PEN1
  6
LTY1
100
AcDbLine
 10
172.5
 20
181.2
 30
0.0
 11
172.5
 21
131.6
 31
0.0
  0
LINE
  5
55F
330
1F
100
AcDbEntity
  8
PEN1
  6
LTY1
100
AcDbLine
 10
172.5
 20
131.5
 30
0.0
 11
172.5
 21
181.2
 31
0.0
  0
LINE
  5
560
330
1F
100
AcDbEntity
  8
PEN1
  6
LTY1
100
AcDbLine
 10
172.5
 20
181.2
 30
0.0
 11
172.5
 21
131.6
 31
0.0
  0
LINE
  5
561
330
1F
100
AcDbEntity
  8
PEN1
  6
LTY1
100
AcDbLine
 10
172.5
 20
131.5
 30
0.0
 11
172.5
 21
181.2
 31
0.0
  0
LINE
  5
562
330
1F
100
AcDbEntity
  8
PEN1
  6
LTY1
100
AcDbLine
 10
172.5
 20
181.2
 30
0.0
 11
172.5
 21
131.6
 31
0.0
  0
LINE
  5
563
330
1F
100
AcDbEntity
  8
PEN1
  6
LTY1
100
AcDbLine
 10
172.5
 20
181.2
 30
0.0
 11
172.5
 21
131.6
 31
0.0
  0
LINE
  5
564
330
1F
100
AcDbEntity
  8
PEN1
  6
LTY1
100
AcDbLine
 10
181.5
 20
131.5
 30
0.0
 11
181.5
 21
181.2
 31
0.0
  0
LINE
  5
565
330
1F
100
AcDbEntity
  8
PEN1
  6
LTY1
100
AcDbLine
 10
175.1
 20
142.7
 30
0.0
 11
178.6
 21
142.7
 31
0.0
  0
LINE
  5
566
330
1F
100
AcDbEntity
  8
PEN1
  6
LTY1
100
AcDbLine
 10
178.6
 20
142.7
 30
0.0
 11
178.6
 21
139.2
 31
0.0
  0
LINE
  5
567
330
1F
100
AcDbEntity
  8
PEN1
  6
LTY1
100
AcDbLine
 10
178.6
 20
139.2
 30
0.0
 11
175.1
 21
139.2
 31
0.0
  0
LINE
  5
568
330
1F
100
AcDbEntity
  8
PEN1
  6
LTY1
100
AcDbLine
 10
175.1
 20
139.2
 30
0.0
 11
175.1
 21
142.7
 31
0.0
  0
LINE
  5
569
330
1F
100
AcDbEntity
  8
PEN1
  6
LTY1
100
AcDbLine
 10
176.1
 20
141.7
 30
0.0
 11
177.7
 21
141.7
 31
0.0
  0
LINE
  5
56A
330
1F
100
AcDbEntity
  8
PEN1
  6
LTY1
100
AcDbLine
 10
177.7
 20
141.7
 30
0.0
 11
178.4
 21
141.4
 31
0.0
  0
LINE
  5
56B
330
1F
100
AcDbEntity
  8
PEN1
  6
LTY1
100
AcDbLine
 10
178.4
 20
141.4
 30
0.0
 11
178.4
 21
140.5
 31
0.0
  0
LINE
  5
56C
330
1F
100
AcDbEntity
  8
PEN1
  6
LTY1
100
AcDbLine
 10
178.4
 20
140.5
 30
0.0
 11
177.7
 21
140.2
 31
0.0
  0
LINE
  5
56D
330
1F
100
AcDbEntity
  8
PEN1
  6
LTY1
100
AcDbLine
 10
177.7
 20
140.2
 30
0.0
 11
176.0
 21
140.2
 31
0.0
  0
LINE
  5
56E
330
1F
100
AcDbEntity
  8
PEN1
  6
LTY1
100
AcDbLine
 10
176.0
 20
140.2
 30
0.0
 11
175.4
 21
140.5
 31
0.0
  0
LINE
  5
56F
330
1F
100
AcDbEntity
  8
PEN1
  6
LTY1
100
AcDbLine
 10
175.4
 20
140.5
 30
0.0
 11
175.4
 21
141.4
 31
0.0
  0
LINE
  5
570
330
1F
100
AcDbEntity
  8
PEN1
  6
LTY1
100
AcDbLine
 10
175.4
 20
141.4
 30
0.0
 11
176.1
 21
141.7
 31
0.0
  0
LINE
  5
571
330
1F
100
AcDbEntity
  8
PEN1
  6
LTY1
100
AcDbLine
 10
177.4
 20
159.9
 30
0.0
 11
177.4
 21
154.4
 31
0.0
  0
LINE
  5
572
330
1F
100
AcDbEntity
  8
PEN1
  6
LTY1
100
AcDbLine
 10
177.4
 20
154.4
 30
0.0
 11
179.6
 21
154.4
 31
0.0
  0
LINE
  5
573
330
1F
100
AcDbEntity
  8
PEN1
  6
LTY1
100
AcDbLine
 10
179.6
 20
154.4
 30
0.0
 11
179.6
 21
159.9
 31
0.0
  0
LINE
  5
574
330
1F
100
AcDbEntity
  8
PEN1
  6
LTY1
100
AcDbLine
 10
179.6
 20
159.9
 30
0.0
 11
177.4
 21
159.9
 31
0.0
  0
LINE
  5
575
330
1F
100
AcDbEntity
  8
PEN1
  6
LTY1
100
AcDbLine
 10
173.5
 20
174.9
 30
0.0
 11
173.5
 21
138.2
 31
0.0
  0
LINE
  5
576
330
1F
100
AcDbEntity
  8
PEN1
  6
LTY1
100
AcDbLine
 10
173.5
 20
138.2
 30
0.0
 11
180.5
 21
138.2
 31
0.0
  0
LINE
  5
577
330
1F
100
AcDbEntity
  8
PEN1
  6
LTY1
100
AcDbLine
 10
180.5
 20
138.2
 30
0.0
 11
180.5
 21
174.9
 31
0.0
  0
LINE
  5
578
330
1F
100
AcDbEntity
  8
PEN1
  6
LTY1
100
AcDbLine
 10
180.5
 20
174.9
 30
0.0
 11
173.5
 21
174.9
 31
0.0
  0
LINE
  5
579
330
1F
100
AcDbEntity
  8
PEN1
  6
LTY1
100
AcDbLine
 10
181.5
 20
181.2
 30
0.0
 11
181.5
 21
131.6
 31
0.0
  0
LINE
  5
57A
330
1F
100
AcDbEntity
  8
PEN1
  6
LTY1
100
AcDbLine
 10
172.5
 20
131.5
 30
0.0
 11
172.5
 21
181.2
 31
0.0
  0
LINE
  5
57B
330
1F
100
AcDbEntity
  8
PEN1
  6
LTY1
100
AcDbLine
 10
172.5
 20
181.2
 30
0.0
 11
181.5
 21
181.2
 31
0.0
  0
LINE
  5
57C
330
1F
100
AcDbEntity
  8
PEN1
  6
LTY1
100
AcDbLine
 10
181.5
 20
175.6
 30
0.0
 11
172.5
 21
175.6
 31
0.0
  0
LINE
  5
57D
330
1F
100
AcDbEntity
  8
PEN1
  6
LTY1
100
AcDbLine
 10
181.5
 20
131.5
 30
0.0
 11
181.5
 21
181.2
 31
0.0
  0
LINE
  5
57E
330
1F
100
AcDbEntity
  8
PEN1
  6
LTY1
100
AcDbLine
 10
181.5
 20
181.2
 30
0.0
 11
181.5
 21
131.6
 31
0.0
  0
LINE
  5
57F
330
1F
100
AcDbEntity
  8
PEN1
  6
LTY1
100
AcDbLine
 10
181.5
 20
131.5
 30
0.0
 11
181.5
 21
181.2
 31
0.0
  0
LINE
  5
580
330
1F
100
AcDbEntity
  8
PEN1
  6
LTY1
100
AcDbLine
 10
181.5
 20
181.2
 30
0.0
 11
181.5
 21
131.6
 31
0.0
  0
LINE
  5
581
330
1F
100
AcDbEntity
  8
PEN1
  6
LTY1
100
AcDbLine
 10
181.5
 20
131.5
 30
0.0
 11
181.5
 21
181.2
 31
0.0
  0
LINE
  5
582
330
1F
100
AcDbEntity
  8
PEN1
  6
LTY1
100
AcDbLine
 10
181.5
 20
181.2
 30
0.0
 11
181.5
 21
131.6
 31
0.0
  0
LINE
  5
583
330
1F
100
AcDbEntity
  8
PEN1
  6
LTY1
100
AcDbLine
 10
181.5
 20
131.5
 30
0.0
 11
181.5
 21
181.2
 31
0.0
  0
LINE
  5
584
330
1F
100
AcDbEntity
  8
PEN1
  6
LTY1
100
AcDbLine
 10
181.5
 20
181.2
 30
0.0
 11
181.5
 21
131.6
 31
0.0
  0
LINE
  5
585
330
1F
100
AcDbEntity
  8
PEN1
  6
LTY1
100
AcDbLine
 10
181.5
 20
131.5
 30
0.0
 11
181.5
 21
181.2
 31
0.0
  0
LINE
  5
586
330
1F
100
AcDbEntity
  8
PEN1
  6
LTY1
100
AcDbLine
 10
181.5
 20
181.2
 30
0.0
 11
181.5
 21
131.6
 31
0.0
  0
LINE
  5
587
330
1F
100
AcDbEntity
  8
PEN1
  6
LTY1
100
AcDbLine
 10
181.5
 20
131.5
 30
0.0
 11
181.5
 21
181.2
 31
0.0
  0
LINE
  5
588
330
1F
100
AcDbEntity
  8
PEN1
  6
LTY1
100
AcDbLine
 10
181.5
 20
181.2
 30
0.0
 11
181.5
 21
131.6
 31
0.0
  0
LINE
  5
589
330
1F
100
AcDbEntity
  8
PEN1
  6
LTY1
100
AcDbLine
 10
181.5
 20
131.5
 30
0.0
 11
181.5
 21
181.2
 31
0.0
  0
LINE
  5
58A
330
1F
100
AcDbEntity
  8
PEN1
  6
LTY1
100
AcDbLine
 10
181.5
 20
181.2
 30
0.0
 11
181.5
 21
131.6
 31
0.0
  0
LINE
  5
58B
330
1F
100
AcDbEntity
  8
PEN1
  6
LTY1
100
AcDbLine
 10
181.5
 20
181.2
 30
0.0
 11
181.5
 21
131.6
 31
0.0
  0
LINE
  5
58C
330
1F
100
AcDbEntity
  8
PEN1
  6
LTY1
100
AcDbLine
 10
190.5
 20
131.5
 30
0.0
 11
190.5
 21
181.2
 31
0.0
  0
LINE
  5
58D
330
1F
100
AcDbEntity
  8
PEN1
  6
LTY1
100
AcDbLine
 10
184.1
 20
142.7
 30
0.0
 11
187.6
 21
142.7
 31
0.0
  0
LINE
  5
58E
330
1F
100
AcDbEntity
  8
PEN1
  6
LTY1
100
AcDbLine
 10
187.6
 20
142.7
 30
0.0
 11
187.6
 21
139.2
 31
0.0
  0
LINE
  5
58F
330
1F
100
AcDbEntity
  8
PEN1
  6
LTY1
100
AcDbLine
 10
187.6
 20
139.2
 30
0.0
 11
184.1
 21
139.2
 31
0.0
  0
LINE
  5
590
330
1F
100
AcDbEntity
  8
PEN1
  6
LTY1
100
AcDbLine
 10
184.1
 20
139.2
 30
0.0
 11
184.1
 21
142.7
 31
0.0
  0
LINE
  5
591
330
1F
100
AcDbEntity
  8
PEN1
  6
LTY1
100
AcDbLine
 10
185.1
 20
141.7
 30
0.0
 11
186.7
 21
141.7
 31
0.0
  0
LINE
  5
592
330
1F
100
AcDbEntity
  8
PEN1
  6
LTY1
100
AcDbLine
 10
186.7
 20
141.7
 30
0.0
 11
187.4
 21
141.4
 31
0.0
  0
LINE
  5
593
330
1F
100
AcDbEntity
  8
PEN1
  6
LTY1
100
AcDbLine
 10
187.4
 20
141.4
 30
0.0
 11
187.4
 21
140.5
 31
0.0
  0
LINE
  5
594
330
1F
100
AcDbEntity
  8
PEN1
  6
LTY1
100
AcDbLine
 10
187.4
 20
140.5
 30
0.0
 11
186.7
 21
140.2
 31
0.0
  0
LINE
  5
595
330
1F
100
AcDbEntity
  8
PEN1
  6
LTY1
100
AcDbLine
 10
186.7
 20
140.2
 30
0.0
 11
185.0
 21
140.2
 31
0.0
  0
LINE
  5
596
330
1F
100
AcDbEntity
  8
PEN1
  6
LTY1
100
AcDbLine
 10
185.0
 20
140.2
 30
0.0
 11
184.4
 21
140.5
 31
0.0
  0
LINE
  5
597
330
1F
100
AcDbEntity
  8
PEN1
  6
LTY1
100
AcDbLine
 10
184.4
 20
140.5
 30
0.0
 11
184.4
 21
141.4
 31
0.0
  0
LINE
  5
598
330
1F
100
AcDbEntity
  8
PEN1
  6
LTY1
100
AcDbLine
 10
184.4
 20
141.4
 30
0.0
 11
185.1
 21
141.7
 31
0.0
  0
LINE
  5
599
330
1F
100
AcDbEntity
  8
PEN1
  6
LTY1
100
AcDbLine
 10
186.4
 20
159.9
 30
0.0
 11
186.4
 21
154.4
 31
0.0
  0
LINE
  5
59A
330
1F
100
AcDbEntity
  8
PEN1
  6
LTY1
100
AcDbLine
 10
186.4
 20
154.4
 30
0.0
 11
188.6
 21
154.4
 31
0.0
  0
LINE
  5
59B
330
1F
100
AcDbEntity
  8
PEN1
  6
LTY1
100
AcDbLine
 10
188.6
 20
154.4
 30
0.0
 11
188.6
 21
159.9
 31
0.0
  0
LINE
  5
59C
330
1F
100
AcDbEntity
  8
PEN1
  6
LTY1
100
AcDbLine
 10
188.6
 20
159.9
 30
0.0
 11
186.4
 21
159.9
 31
0.0
  0
LINE
  5
59D
330
1F
100
AcDbEntity
  8
PEN1
  6
LTY1
100
AcDbLine
 10
182.5
 20
174.9
 30
0.0
 11
182.5
 21
138.2
 31
0.0
  0
LINE
  5
59E
330
1F
100
AcDbEntity
  8
PEN1
  6
LTY1
100
AcDbLine
 10
182.5
 20
138.2
 30
0.0
 11
189.5
 21
138.2
 31
0.0
  0
LINE
  5
59F
330
1F
100
AcDbEntity
  8
PEN1
  6
LTY1
100
AcDbLine
 10
189.5
 20
138.2
 30
0.0
 11
189.5
 21
174.9
 31
0.0
  0
LINE
  5
5A0
330
1F
100
AcDbEntity
  8
PEN1
  6
LTY1
100
AcDbLine
 10
189.5
 20
174.9
 30
0.0
 11
182.5
 21
174.9
 31
0.0
  0
LINE
  5
5A1
330
1F
100
AcDbEntity
  8
PEN1
  6
LTY1
100
AcDbLine
 10
190.5
 20
181.2
 30
0.0
 11
190.5
 21
131.6
 31
0.0
  0
LINE
  5
5A2
330
1F
100
AcDbEntity
  8
PEN1
  6
LTY1
100
AcDbLine
 10
181.5
 20
131.5
 30
0.0
 11
181.5
 21
181.2
 31
0.0
  0
LINE
  5
5A3
330
1F
100
AcDbEntity
  8
PEN1
  6
LTY1
100
AcDbLine
 10
181.5
 20
181.2
 30
0.0
 11
190.5
 21
181.2
 31
0.0
  0
LINE
  5
5A4
330
1F
100
AcDbEntity
  8
PEN1
  6
LTY1
100
AcDbLine
 10
190.5
 20
175.6
 30
0.0
 11
181.5
 21
175.6
 31
0.0
  0
LINE
  5
5A5
330
1F
100
AcDbEntity
  8
PEN1
  6
LTY1
100
AcDbLine
 10
190.5
 20
131.5
 30
0.0
 11
190.5
 21
181.2
 31
0.0
  0
LINE
  5
5A6
330
1F
100
AcDbEntity
  8
PEN1
  6
LTY1
100
AcDbLine
 10
190.5
 20
181.2
 30
0.0
 11
190.5
 21
131.6
 31
0.0
  0
LINE
  5
5A7
330
1F
100
AcDbEntity
  8
PEN1
  6
LTY1
100
AcDbLine
 10
190.5
 20
131.5
 30
0.0
 11
190.5
 21
181.2
 31
0.0
  0
LINE
  5
5A8
330
1F
100
AcDbEntity
  8
PEN1
  6
LTY1
100
AcDbLine
 10
190.5
 20
181.2
 30
0.0
 11
190.5
 21
131.6
 31
0.0
  0
LINE
  5
5A9
330
1F
100
AcDbEntity
  8
PEN1
  6
LTY1
100
AcDbLine
 10
190.5
 20
131.5
 30
0.0
 11
190.5
 21
181.2
 31
0.0
  0
LINE
  5
5AA
330
1F
100
AcDbEntity
  8
PEN1
  6
LTY1
100
AcDbLine
 10
190.5
 20
181.2
 30
0.0
 11
190.5
 21
131.6
 31
0.0
  0
LINE
  5
5AB
330
1F
100
AcDbEntity
  8
PEN1
  6
LTY1
100
AcDbLine
 10
190.5
 20
131.5
 30
0.0
 11
190.5
 21
181.2
 31
0.0
  0
LINE
  5
5AC
330
1F
100
AcDbEntity
  8
PEN1
  6
LTY1
100
AcDbLine
 10
190.5
 20
181.2
 30
0.0
 11
190.5
 21
131.6
 31
0.0
  0
LINE
  5
5AD
330
1F
100
AcDbEntity
  8
PEN1
  6
LTY1
100
AcDbLine
 10
190.5
 20
131.5
 30
0.0
 11
190.5
 21
181.2
 31
0.0
  0
LINE
  5
5AE
330
1F
100
AcDbEntity
  8
PEN1
  6
LTY1
100
AcDbLine
 10
190.5
 20
181.2
 30
0.0
 11
190.5
 21
131.6
 31
0.0
  0
LINE
  5
5AF
330
1F
100
AcDbEntity
  8
PEN1
  6
LTY1
100
AcDbLine
 10
190.5
 20
131.5
 30
0.0
 11
190.5
 21
181.2
 31
0.0
  0
LINE
  5
5B0
330
1F
100
AcDbEntity
  8
PEN1
  6
LTY1
100
AcDbLine
 10
190.5
 20
181.2
 30
0.0
 11
190.5
 21
131.6
 31
0.0
  0
LINE
  5
5B1
330
1F
100
AcDbEntity
  8
PEN1
  6
LTY1
100
AcDbLine
 10
190.5
 20
131.5
 30
0.0
 11
190.5
 21
181.2
 31
0.0
  0
LINE
  5
5B2
330
1F
100
AcDbEntity
  8
PEN1
  6
LTY1
100
AcDbLine
 10
190.5
 20
181.2
 30
0.0
 11
190.5
 21
131.6
 31
0.0
  0
LINE
  5
5B3
330
1F
100
AcDbEntity
  8
PEN1
  6
LTY1
100
AcDbLine
 10
190.5
 20
131.5
 30
0.0
 11
190.5
 21
181.2
 31
0.0
  0
LINE
  5
5B4
330
1F
100
AcDbEntity
  8
PEN1
  6
LTY1
100
AcDbLine
 10
190.5
 20
181.2
 30
0.0
 11
190.5
 21
131.6
 31
0.0
  0
LINE
  5
5B5
330
1F
100
AcDbEntity
  8
PEN1
  6
LTY1
100
AcDbLine
 10
190.5
 20
181.2
 30
0.0
 11
190.5
 21
131.6
 31
0.0
  0
LINE
  5
5B6
330
1F
100
AcDbEntity
  8
PEN1
  6
LTY1
100
AcDbLine
 10
199.5
 20
131.5
 30
0.0
 11
199.5
 21
181.2
 31
0.0
  0
LINE
  5
5B7
330
1F
100
AcDbEntity
  8
PEN1
  6
LTY1
100
AcDbLine
 10
193.1
 20
142.7
 30
0.0
 11
196.6
 21
142.7
 31
0.0
  0
LINE
  5
5B8
330
1F
100
AcDbEntity
  8
PEN1
  6
LTY1
100
AcDbLine
 10
196.6
 20
142.7
 30
0.0
 11
196.6
 21
139.2
 31
0.0
  0
LINE
  5
5B9
330
1F
100
AcDbEntity
  8
PEN1
  6
LTY1
100
AcDbLine
 10
196.6
 20
139.2
 30
0.0
 11
193.1
 21
139.2
 31
0.0
  0
LINE
  5
5BA
330
1F
100
AcDbEntity
  8
PEN1
  6
LTY1
100
AcDbLine
 10
193.1
 20
139.2
 30
0.0
 11
193.1
 21
142.7
 31
0.0
  0
LINE
  5
5BB
330
1F
100
AcDbEntity
  8
PEN1
  6
LTY1
100
AcDbLine
 10
194.1
 20
141.7
 30
0.0
 11
195.7
 21
141.7
 31
0.0
  0
LINE
  5
5BC
330
1F
100
AcDbEntity
  8
PEN1
  6
LTY1
100
AcDbLine
 10
195.7
 20
141.7
 30
0.0
 11
196.4
 21
141.4
 31
0.0
  0
LINE
  5
5BD
330
1F
100
AcDbEntity
  8
PEN1
  6
LTY1
100
AcDbLine
 10
196.4
 20
141.4
 30
0.0
 11
196.4
 21
140.5
 31
0.0
  0
LINE
  5
5BE
330
1F
100
AcDbEntity
  8
PEN1
  6
LTY1
100
AcDbLine
 10
196.4
 20
140.5
 30
0.0
 11
195.7
 21
140.2
 31
0.0
  0
LINE
  5
5BF
330
1F
100
AcDbEntity
  8
PEN1
  6
LTY1
100
AcDbLine
 10
195.7
 20
140.2
 30
0.0
 11
194.0
 21
140.2
 31
0.0
  0
LINE
  5
5C0
330
1F
100
AcDbEntity
  8
PEN1
  6
LTY1
100
AcDbLine
 10
194.0
 20
140.2
 30
0.0
 11
193.4
 21
140.5
 31
0.0
  0
LINE
  5
5C1
330
1F
100
AcDbEntity
  8
PEN1
  6
LTY1
100
AcDbLine
 10
193.4
 20
140.5
 30
0.0
 11
193.4
 21
141.4
 31
0.0
  0
LINE
  5
5C2
330
1F
100
AcDbEntity
  8
PEN1
  6
LTY1
100
AcDbLine
 10
193.4
 20
141.4
 30
0.0
 11
194.1
 21
141.7
 31
0.0
  0
LINE
  5
5C3
330
1F
100
AcDbEntity
  8
PEN1
  6
LTY1
100
AcDbLine
 10
195.4
 20
159.9
 30
0.0
 11
195.4
 21
154.4
 31
0.0
  0
LINE
  5
5C4
330
1F
100
AcDbEntity
  8
PEN1
  6
LTY1
100
AcDbLine
 10
195.4
 20
154.4
 30
0.0
 11
197.6
 21
154.4
 31
0.0
  0
LINE
  5
5C5
330
1F
100
AcDbEntity
  8
PEN1
  6
LTY1
100
AcDbLine
 10
197.6
 20
154.4
 30
0.0
 11
197.6
 21
159.9
 31
0.0
  0
LINE
  5
5C6
330
1F
100
AcDbEntity
  8
PEN1
  6
LTY1
100
AcDbLine
 10
197.6
 20
159.9
 30
0.0
 11
195.4
 21
159.9
 31
0.0
  0
LINE
  5
5C7
330
1F
100
AcDbEntity
  8
PEN1
  6
LTY1
100
AcDbLine
 10
191.5
 20
174.9
 30
0.0
 11
191.5
 21
138.2
 31
0.0
  0
LINE
  5
5C8
330
1F
100
AcDbEntity
  8
PEN1
  6
LTY1
100
AcDbLine
 10
191.5
 20
138.2
 30
0.0
 11
198.5
 21
138.2
 31
0.0
  0
LINE
  5
5C9
330
1F
100
AcDbEntity
  8
PEN1
  6
LTY1
100
AcDbLine
 10
198.5
 20
138.2
 30
0.0
 11
198.5
 21
174.9
 31
0.0
  0
LINE
  5
5CA
330
1F
100
AcDbEntity
  8
PEN1
  6
LTY1
100
AcDbLine
 10
198.5
 20
174.9
 30
0.0
 11
191.5
 21
174.9
 31
0.0
  0
LINE
  5
5CB
330
1F
100
AcDbEntity
  8
PEN1
  6
LTY1
100
AcDbLine
 10
199.5
 20
181.2
 30
0.0
 11
199.5
 21
131.6
 31
0.0
  0
LINE
  5
5CC
330
1F
100
AcDbEntity
  8
PEN1
  6
LTY1
100
AcDbLine
 10
190.5
 20
131.5
 30
0.0
 11
190.5
 21
181.2
 31
0.0
  0
LINE
  5
5CD
330
1F
100
AcDbEntity
  8
PEN1
  6
LTY1
100
AcDbLine
 10
190.5
 20
181.2
 30
0.0
 11
199.5
 21
181.2
 31
0.0
  0
LINE
  5
5CE
330
1F
100
AcDbEntity
  8
PEN1
  6
LTY1
100
AcDbLine
 10
199.5
 20
175.6
 30
0.0
 11
190.5
 21
175.6
 31
0.0
  0
LINE
  5
5CF
330
1F
100
AcDbEntity
  8
PEN1
  6
LTY1
100
AcDbLine
 10
199.5
 20
131.5
 30
0.0
 11
199.5
 21
181.2
 31
0.0
  0
LINE
  5
5D0
330
1F
100
AcDbEntity
  8
PEN1
  6
LTY1
100
AcDbLine
 10
199.5
 20
181.2
 30
0.0
 11
199.5
 21
131.6
 31
0.0
  0
LINE
  5
5D1
330
1F
100
AcDbEntity
  8
PEN1
  6
LTY1
100
AcDbLine
 10
199.5
 20
131.5
 30
0.0
 11
199.5
 21
181.2
 31
0.0
  0
LINE
  5
5D2
330
1F
100
AcDbEntity
  8
PEN1
  6
LTY1
100
AcDbLine
 10
199.5
 20
181.2
 30
0.0
 11
199.5
 21
131.6
 31
0.0
  0
LINE
  5
5D3
330
1F
100
AcDbEntity
  8
PEN1
  6
LTY1
100
AcDbLine
 10
199.5
 20
131.5
 30
0.0
 11
199.5
 21
181.2
 31
0.0
  0
LINE
  5
5D4
330
1F
100
AcDbEntity
  8
PEN1
  6
LTY1
100
AcDbLine
 10
199.5
 20
181.2
 30
0.0
 11
199.5
 21
131.6
 31
0.0
  0
LINE
  5
5D5
330
1F
100
AcDbEntity
  8
PEN1
  6
LTY1
100
AcDbLine
 10
199.5
 20
131.5
 30
0.0
 11
199.5
 21
181.2
 31
0.0
  0
LINE
  5
5D6
330
1F
100
AcDbEntity
  8
PEN1
  6
LTY1
100
AcDbLine
 10
199.5
 20
181.2
 30
0.0
 11
199.5
 21
131.6
 31
0.0
  0
LINE
  5
5D7
330
1F
100
AcDbEntity
  8
PEN1
  6
LTY1
100
AcDbLine
 10
199.5
 20
131.5
 30
0.0
 11
199.5
 21
181.2
 31
0.0
  0
LINE
  5
5D8
330
1F
100
AcDbEntity
  8
PEN1
  6
LTY1
100
AcDbLine
 10
199.5
 20
181.2
 30
0.0
 11
199.5
 21
131.6
 31
0.0
  0
LINE
  5
5D9
330
1F
100
AcDbEntity
  8
PEN1
  6
LTY1
100
AcDbLine
 10
199.5
 20
131.5
 30
0.0
 11
199.5
 21
181.2
 31
0.0
  0
LINE
  5
5DA
330
1F
100
AcDbEntity
  8
PEN1
  6
LTY1
100
AcDbLine
 10
199.5
 20
181.2
 30
0.0
 11
199.5
 21
131.6
 31
0.0
  0
LINE
  5
5DB
330
1F
100
AcDbEntity
  8
PEN1
  6
LTY1
100
AcDbLine
 10
199.5
 20
131.5
 30
0.0
 11
199.5
 21
181.2
 31
0.0
  0
LINE
  5
5DC
330
1F
100
AcDbEntity
  8
PEN1
  6
LTY1
100
AcDbLine
 10
199.5
 20
181.2
 30
0.0
 11
199.5
 21
131.6
 31
0.0
  0
LINE
  5
5DD
330
1F
100
AcDbEntity
  8
PEN1
  6
LTY1
100
AcDbLine
 10
199.5
 20
131.5
 30
0.0
 11
199.5
 21
181.2
 31
0.0
  0
LINE
  5
5DE
330
1F
100
AcDbEntity
  8
PEN1
  6
LTY1
100
AcDbLine
 10
199.5
 20
181.2
 30
0.0
 11
199.5
 21
131.6
 31
0.0
  0
LINE
  5
5DF
330
1F
100
AcDbEntity
  8
PEN1
  6
LTY1
100
AcDbLine
 10
199.5
 20
131.5
 30
0.0
 11
199.5
 21
181.2
 31
0.0
  0
LINE
  5
5E0
330
1F
100
AcDbEntity
  8
PEN1
  6
LTY1
100
AcDbLine
 10
199.5
 20
181.2
 30
0.0
 11
199.5
 21
131.6
 31
0.0
  0
LINE
  5
5E1
330
1F
100
AcDbEntity
  8
PEN1
  6
LTY1
100
AcDbLine
 10
199.5
 20
181.2
 30
0.0
 11
199.5
 21
131.6
 31
0.0
  0
LINE
  5
5E2
330
1F
100
AcDbEntity
  8
PEN1
  6
LTY1
100
AcDbLine
 10
208.5
 20
131.5
 30
0.0
 11
208.5
 21
181.2
 31
0.0
  0
LINE
  5
5E3
330
1F
100
AcDbEntity
  8
PEN1
  6
LTY1
100
AcDbLine
 10
202.1
 20
142.7
 30
0.0
 11
205.6
 21
142.7
 31
0.0
  0
LINE
  5
5E4
330
1F
100
AcDbEntity
  8
PEN1
  6
LTY1
100
AcDbLine
 10
205.6
 20
142.7
 30
0.0
 11
205.6
 21
139.2
 31
0.0
  0
LINE
  5
5E5
330
1F
100
AcDbEntity
  8
PEN1
  6
LTY1
100
AcDbLine
 10
205.6
 20
139.2
 30
0.0
 11
202.1
 21
139.2
 31
0.0
  0
LINE
  5
5E6
330
1F
100
AcDbEntity
  8
PEN1
  6
LTY1
100
AcDbLine
 10
202.1
 20
139.2
 30
0.0
 11
202.1
 21
142.7
 31
0.0
  0
LINE
  5
5E7
330
1F
100
AcDbEntity
  8
PEN1
  6
LTY1
100
AcDbLine
 10
203.1
 20
141.7
 30
0.0
 11
204.7
 21
141.7
 31
0.0
  0
LINE
  5
5E8
330
1F
100
AcDbEntity
  8
PEN1
  6
LTY1
100
AcDbLine
 10
204.7
 20
141.7
 30
0.0
 11
205.4
 21
141.4
 31
0.0
  0
LINE
  5
5E9
330
1F
100
AcDbEntity
  8
PEN1
  6
LTY1
100
AcDbLine
 10
205.4
 20
141.4
 30
0.0
 11
205.4
 21
140.5
 31
0.0
  0
LINE
  5
5EA
330
1F
100
AcDbEntity
  8
PEN1
  6
LTY1
100
AcDbLine
 10
205.4
 20
140.5
 30
0.0
 11
204.7
 21
140.2
 31
0.0
  0
LINE
  5
5EB
330
1F
100
AcDbEntity
  8
PEN1
  6
LTY1
100
AcDbLine
 10
204.7
 20
140.2
 30
0.0
 11
203.0
 21
140.2
 31
0.0
  0
LINE
  5
5EC
330
1F
100
AcDbEntity
  8
PEN1
  6
LTY1
100
AcDbLine
 10
203.0
 20
140.2
 30
0.0
 11
202.4
 21
140.5
 31
0.0
  0
LINE
  5
5ED
330
1F
100
AcDbEntity
  8
PEN1
  6
LTY1
100
AcDbLine
 10
202.4
 20
140.5
 30
0.0
 11
202.4
 21
141.4
 31
0.0
  0
LINE
  5
5EE
330
1F
100
AcDbEntity
  8
PEN1
  6
LTY1
100
AcDbLine
 10
202.4
 20
141.4
 30
0.0
 11
203.1
 21
141.7
 31
0.0
  0
LINE
  5
5EF
330
1F
100
AcDbEntity
  8
PEN1
  6
LTY1
100
AcDbLine
 10
204.4
 20
159.9
 30
0.0
 11
204.4
 21
154.4
 31
0.0
  0
LINE
  5
5F0
330
1F
100
AcDbEntity
  8
PEN1
  6
LTY1
100
AcDbLine
 10
204.4
 20
154.4
 30
0.0
 11
206.6
 21
154.4
 31
0.0
  0
LINE
  5
5F1
330
1F
100
AcDbEntity
  8
PEN1
  6
LTY1
100
AcDbLine
 10
206.6
 20
154.4
 30
0.0
 11
206.6
 21
159.9
 31
0.0
  0
LINE
  5
5F2
330
1F
100
AcDbEntity
  8
PEN1
  6
LTY1
100
AcDbLine
 10
206.6
 20
159.9
 30
0.0
 11
204.4
 21
159.9
 31
0.0
  0
LINE
  5
5F3
330
1F
100
AcDbEntity
  8
PEN1
  6
LTY1
100
AcDbLine
 10
200.5
 20
174.9
 30
0.0
 11
200.5
 21
138.2
 31
0.0
  0
LINE
  5
5F4
330
1F
100
AcDbEntity
  8
PEN1
  6
LTY1
100
AcDbLine
 10
200.5
 20
138.2
 30
0.0
 11
207.5
 21
138.2
 31
0.0
  0
LINE
  5
5F5
330
1F
100
AcDbEntity
  8
PEN1
  6
LTY1
100
AcDbLine
 10
207.5
 20
138.2
 30
0.0
 11
207.5
 21
174.9
 31
0.0
  0
LINE
  5
5F6
330
1F
100
AcDbEntity
  8
PEN1
  6
LTY1
100
AcDbLine
 10
207.5
 20
174.9
 30
0.0
 11
200.5
 21
174.9
 31
0.0
  0
LINE
  5
5F7
330
1F
100
AcDbEntity
  8
PEN1
  6
LTY1
100
AcDbLine
 10
208.5
 20
181.2
 30
0.0
 11
208.5
 21
131.6
 31
0.0
  0
LINE
  5
5F8
330
1F
100
AcDbEntity
  8
PEN1
  6
LTY1
100
AcDbLine
 10
199.5
 20
131.5
 30
0.0
 11
199.5
 21
181.2
 31
0.0
  0
LINE
  5
5F9
330
1F
100
AcDbEntity
  8
PEN1
  6
LTY1
100
AcDbLine
 10
199.5
 20
181.2
 30
0.0
 11
208.5
 21
181.2
 31
0.0
  0
LINE
  5
5FA
330
1F
100
AcDbEntity
  8
PEN1
  6
LTY1
100
AcDbLine
 10
208.5
 20
175.6
 30
0.0
 11
199.5
 21
175.6
 31
0.0
  0
LINE
  5
5FB
330
1F
100
AcDbEntity
  8
PEN1
  6
LTY1
100
AcDbLine
 10
208.5
 20
131.5
 30
0.0
 11
208.5
 21
181.2
 31
0.0
  0
LINE
  5
5FC
330
1F
100
AcDbEntity
  8
PEN1
  6
LTY1
100
AcDbLine
 10
208.5
 20
181.2
 30
0.0
 11
208.5
 21
131.6
 31
0.0
  0
LINE
  5
5FD
330
1F
100
AcDbEntity
  8
PEN1
  6
LTY1
100
AcDbLine
 10
208.5
 20
131.5
 30
0.0
 11
208.5
 21
181.2
 31
0.0
  0
LINE
  5
5FE
330
1F
100
AcDbEntity
  8
PEN1
  6
LTY1
100
AcDbLine
 10
208.5
 20
181.2
 30
0.0
 11
208.5
 21
131.6
 31
0.0
  0
LINE
  5
5FF
330
1F
100
AcDbEntity
  8
PEN1
  6
LTY1
100
AcDbLine
 10
208.5
 20
131.5
 30
0.0
 11
208.5
 21
181.2
 31
0.0
  0
LINE
  5
600
330
1F
100
AcDbEntity
  8
PEN1
  6
LTY1
100
AcDbLine
 10
208.5
 20
181.2
 30
0.0
 11
208.5
 21
131.6
 31
0.0
  0
LINE
  5
601
330
1F
100
AcDbEntity
  8
PEN1
  6
LTY1
100
AcDbLine
 10
208.5
 20
131.5
 30
0.0
 11
208.5
 21
181.2
 31
0.0
  0
LINE
  5
602
330
1F
100
AcDbEntity
  8
PEN1
  6
LTY1
100
AcDbLine
 10
208.5
 20
181.2
 30
0.0
 11
208.5
 21
131.6
 31
0.0
  0
LINE
  5
603
330
1F
100
AcDbEntity
  8
PEN1
  6
LTY1
100
AcDbLine
 10
208.5
 20
131.5
 30
0.0
 11
208.5
 21
181.2
 31
0.0
  0
LINE
  5
604
330
1F
100
AcDbEntity
  8
PEN1
  6
LTY1
100
AcDbLine
 10
208.5
 20
181.2
 30
0.0
 11
208.5
 21
131.6
 31
0.0
  0
LINE
  5
605
330
1F
100
AcDbEntity
  8
PEN1
  6
LTY1
100
AcDbLine
 10
208.5
 20
131.5
 30
0.0
 11
208.5
 21
181.2
 31
0.0
  0
LINE
  5
606
330
1F
100
AcDbEntity
  8
PEN1
  6
LTY1
100
AcDbLine
 10
208.5
 20
181.2
 30
0.0
 11
208.5
 21
131.6
 31
0.0
  0
LINE
  5
607
330
1F
100
AcDbEntity
  8
PEN1
  6
LTY1
100
AcDbLine
 10
208.5
 20
131.5
 30
0.0
 11
208.5
 21
181.2
 31
0.0
  0
LINE
  5
608
330
1F
100
AcDbEntity
  8
PEN1
  6
LTY1
100
AcDbLine
 10
208.5
 20
181.2
 30
0.0
 11
208.5
 21
131.6
 31
0.0
  0
LINE
  5
609
330
1F
100
AcDbEntity
  8
PEN1
  6
LTY1
100
AcDbLine
 10
208.5
 20
131.5
 30
0.0
 11
208.5
 21
181.2
 31
0.0
  0
LINE
  5
60A
330
1F
100
AcDbEntity
  8
PEN1
  6
LTY1
100
AcDbLine
 10
208.5
 20
181.2
 30
0.0
 11
208.5
 21
131.6
 31
0.0
  0
LINE
  5
60B
330
1F
100
AcDbEntity
  8
PEN1
  6
LTY1
100
AcDbLine
 10
208.5
 20
131.5
 30
0.0
 11
208.5
 21
181.2
 31
0.0
  0
LINE
  5
60C
330
1F
100
AcDbEntity
  8
PEN1
  6
LTY1
100
AcDbLine
 10
208.5
 20
181.2
 30
0.0
 11
208.5
 21
131.6
 31
0.0
  0
LINE
  5
60D
330
1F
100
AcDbEntity
  8
PEN1
  6
LTY1
100
AcDbLine
 10
208.5
 20
131.5
 30
0.0
 11
208.5
 21
181.2
 31
0.0
  0
LINE
  5
60E
330
1F
100
AcDbEntity
  8
PEN1
  6
LTY1
100
AcDbLine
 10
208.5
 20
181.2
 30
0.0
 11
208.5
 21
131.6
 31
0.0
  0
LINE
  5
60F
330
1F
100
AcDbEntity
  8
PEN1
  6
LTY1
100
AcDbLine
 10
208.5
 20
181.2
 30
0.0
 11
208.5
 21
131.6
 31
0.0
  0
LINE
  5
610
330
1F
100
AcDbEntity
  8
PEN1
  6
LTY1
100
AcDbLine
 10
217.5
 20
131.5
 30
0.0
 11
217.5
 21
181.2
 31
0.0
  0
LINE
  5
611
330
1F
100
AcDbEntity
  8
PEN1
  6
LTY1
100
AcDbLine
 10
211.1
 20
142.7
 30
0.0
 11
214.6
 21
142.7
 31
0.0
  0
LINE
  5
612
330
1F
100
AcDbEntity
  8
PEN1
  6
LTY1
100
AcDbLine
 10
214.6
 20
142.7
 30
0.0
 11
214.6
 21
139.2
 31
0.0
  0
LINE
  5
613
330
1F
100
AcDbEntity
  8
PEN1
  6
LTY1
100
AcDbLine
 10
214.6
 20
139.2
 30
0.0
 11
211.1
 21
139.2
 31
0.0
  0
LINE
  5
614
330
1F
100
AcDbEntity
  8
PEN1
  6
LTY1
100
AcDbLine
 10
211.1
 20
139.2
 30
0.0
 11
211.1
 21
142.7
 31
0.0
  0
LINE
  5
615
330
1F
100
AcDbEntity
  8
PEN1
  6
LTY1
100
AcDbLine
 10
212.1
 20
141.7
 30
0.0
 11
213.7
 21
141.7
 31
0.0
  0
LINE
  5
616
330
1F
100
AcDbEntity
  8
PEN1
  6
LTY1
100
AcDbLine
 10
213.7
 20
141.7
 30
0.0
 11
214.4
 21
141.4
 31
0.0
  0
LINE
  5
617
330
1F
100
AcDbEntity
  8
PEN1
  6
LTY1
100
AcDbLine
 10
214.4
 20
141.4
 30
0.0
 11
214.4
 21
140.5
 31
0.0
  0
LINE
  5
618
330
1F
100
AcDbEntity
  8
PEN1
  6
LTY1
100
AcDbLine
 10
214.4
 20
140.5
 30
0.0
 11
213.7
 21
140.2
 31
0.0
  0
LINE
  5
619
330
1F
100
AcDbEntity
  8
PEN1
  6
LTY1
100
AcDbLine
 10
213.7
 20
140.2
 30
0.0
 11
212.0
 21
140.2
 31
0.0
  0
LINE
  5
61A
330
1F
100
AcDbEntity
  8
PEN1
  6
LTY1
100
AcDbLine
 10
212.0
 20
140.2
 30
0.0
 11
211.4
 21
140.5
 31
0.0
  0
LINE
  5
61B
330
1F
100
AcDbEntity
  8
PEN1
  6
LTY1
100
AcDbLine
 10
211.4
 20
140.5
 30
0.0
 11
211.4
 21
141.4
 31
0.0
  0
LINE
  5
61C
330
1F
100
AcDbEntity
  8
PEN1
  6
LTY1
100
AcDbLine
 10
211.4
 20
141.4
 30
0.0
 11
212.1
 21
141.7
 31
0.0
  0
LINE
  5
61D
330
1F
100
AcDbEntity
  8
PEN1
  6
LTY1
100
AcDbLine
 10
213.4
 20
159.9
 30
0.0
 11
213.4
 21
154.4
 31
0.0
  0
LINE
  5
61E
330
1F
100
AcDbEntity
  8
PEN1
  6
LTY1
100
AcDbLine
 10
213.4
 20
154.4
 30
0.0
 11
215.6
 21
154.4
 31
0.0
  0
LINE
  5
61F
330
1F
100
AcDbEntity
  8
PEN1
  6
LTY1
100
AcDbLine
 10
215.6
 20
154.4
 30
0.0
 11
215.6
 21
159.9
 31
0.0
  0
LINE
  5
620
330
1F
100
AcDbEntity
  8
PEN1
  6
LTY1
100
AcDbLine
 10
215.6
 20
159.9
 30
0.0
 11
213.4
 21
159.9
 31
0.0
  0
LINE
  5
621
330
1F
100
AcDbEntity
  8
PEN1
  6
LTY1
100
AcDbLine
 10
209.5
 20
174.9
 30
0.0
 11
209.5
 21
138.2
 31
0.0
  0
LINE
  5
622
330
1F
100
AcDbEntity
  8
PEN1
  6
LTY1
100
AcDbLine
 10
209.5
 20
138.2
 30
0.0
 11
216.5
 21
138.2
 31
0.0
  0
LINE
  5
623
330
1F
100
AcDbEntity
  8
PEN1
  6
LTY1
100
AcDbLine
 10
216.5
 20
138.2
 30
0.0
 11
216.5
 21
174.9
 31
0.0
  0
LINE
  5
624
330
1F
100
AcDbEntity
  8
PEN1
  6
LTY1
100
AcDbLine
 10
216.5
 20
174.9
 30
0.0
 11
209.5
 21
174.9
 31
0.0
  0
LINE
  5
625
330
1F
100
AcDbEntity
  8
PEN1
  6
LTY1
100
AcDbLine
 10
217.5
 20
181.2
 30
0.0
 11
217.5
 21
131.6
 31
0.0
  0
LINE
  5
626
330
1F
100
AcDbEntity
  8
PEN1
  6
LTY1
100
AcDbLine
 10
208.5
 20
131.5
 30
0.0
 11
208.5
 21
181.2
 31
0.0
  0
LINE
  5
627
330
1F
100
AcDbEntity
  8
PEN1
  6
LTY1
100
AcDbLine
 10
208.5
 20
181.2
 30
0.0
 11
217.5
 21
181.2
 31
0.0
  0
LINE
  5
628
330
1F
100
AcDbEntity
  8
PEN1
  6
LTY1
100
AcDbLine
 10
217.5
 20
175.6
 30
0.0
 11
208.5
 21
175.6
 31
0.0
  0
LINE
  5
629
330
1F
100
AcDbEntity
  8
PEN1
  6
LTY1
100
AcDbLine
 10
217.5
 20
131.5
 30
0.0
 11
217.5
 21
181.2
 31
0.0
  0
LINE
  5
62A
330
1F
100
AcDbEntity
  8
PEN1
  6
LTY1
100
AcDbLine
 10
217.5
 20
181.2
 30
0.0
 11
217.5
 21
131.6
 31
0.0
  0
LINE
  5
62B
330
1F
100
AcDbEntity
  8
PEN1
  6
LTY1
100
AcDbLine
 10
217.5
 20
131.5
 30
0.0
 11
217.5
 21
181.2
 31
0.0
  0
LINE
  5
62C
330
1F
100
AcDbEntity
  8
PEN1
  6
LTY1
100
AcDbLine
 10
217.5
 20
181.2
 30
0.0
 11
217.5
 21
131.6
 31
0.0
  0
LINE
  5
62D
330
1F
100
AcDbEntity
  8
PEN1
  6
LTY1
100
AcDbLine
 10
217.5
 20
131.5
 30
0.0
 11
217.5
 21
181.2
 31
0.0
  0
LINE
  5
62E
330
1F
100
AcDbEntity
  8
PEN1
  6
LTY1
100
AcDbLine
 10
217.5
 20
181.2
 30
0.0
 11
217.5
 21
131.6
 31
0.0
  0
LINE
  5
62F
330
1F
100
AcDbEntity
  8
PEN1
  6
LTY1
100
AcDbLine
 10
217.5
 20
131.5
 30
0.0
 11
217.5
 21
181.2
 31
0.0
  0
LINE
  5
630
330
1F
100
AcDbEntity
  8
PEN1
  6
LTY1
100
AcDbLine
 10
217.5
 20
181.2
 30
0.0
 11
217.5
 21
131.6
 31
0.0
  0
LINE
  5
631
330
1F
100
AcDbEntity
  8
PEN1
  6
LTY1
100
AcDbLine
 10
217.5
 20
131.5
 30
0.0
 11
217.5
 21
181.2
 31
0.0
  0
LINE
  5
632
330
1F
100
AcDbEntity
  8
PEN1
  6
LTY1
100
AcDbLine
 10
217.5
 20
181.2
 30
0.0
 11
217.5
 21
131.6
 31
0.0
  0
LINE
  5
633
330
1F
100
AcDbEntity
  8
PEN1
  6
LTY1
100
AcDbLine
 10
217.5
 20
131.5
 30
0.0
 11
217.5
 21
181.2
 31
0.0
  0
LINE
  5
634
330
1F
100
AcDbEntity
  8
PEN1
  6
LTY1
100
AcDbLine
 10
217.5
 20
181.2
 30
0.0
 11
217.5
 21
131.6
 31
0.0
  0
LINE
  5
635
330
1F
100
AcDbEntity
  8
PEN1
  6
LTY1
100
AcDbLine
 10
217.5
 20
131.5
 30
0.0
 11
217.5
 21
181.2
 31
0.0
  0
LINE
  5
636
330
1F
100
AcDbEntity
  8
PEN1
  6
LTY1
100
AcDbLine
 10
217.5
 20
181.2
 30
0.0
 11
217.5
 21
131.6
 31
0.0
  0
LINE
  5
637
330
1F
100
AcDbEntity
  8
PEN1
  6
LTY1
100
AcDbLine
 10
217.5
 20
131.5
 30
0.0
 11
217.5
 21
181.2
 31
0.0
  0
LINE
  5
638
330
1F
100
AcDbEntity
  8
PEN1
  6
LTY1
100
AcDbLine
 10
217.5
 20
181.2
 30
0.0
 11
217.5
 21
131.6
 31
0.0
  0
LINE
  5
639
330
1F
100
AcDbEntity
  8
PEN1
  6
LTY1
100
AcDbLine
 10
217.5
 20
131.5
 30
0.0
 11
217.5
 21
181.2
 31
0.0
  0
LINE
  5
63A
330
1F
100
AcDbEntity
  8
PEN1
  6
LTY1
100
AcDbLine
 10
217.5
 20
181.2
 30
0.0
 11
217.5
 21
131.6
 31
0.0
  0
LINE
  5
63B
330
1F
100
AcDbEntity
  8
PEN1
  6
LTY1
100
AcDbLine
 10
217.5
 20
131.5
 30
0.0
 11
217.5
 21
181.2
 31
0.0
  0
LINE
  5
63C
330
1F
100
AcDbEntity
  8
PEN1
  6
LTY1
100
AcDbLine
 10
217.5
 20
181.2
 30
0.0
 11
217.5
 21
131.6
 31
0.0
  0
LINE
  5
63D
330
1F
100
AcDbEntity
  8
PEN1
  6
LTY1
100
AcDbLine
 10
217.5
 20
131.5
 30
0.0
 11
217.5
 21
181.2
 31
0.0
  0
LINE
  5
63E
330
1F
100
AcDbEntity
  8
PEN1
  6
LTY1
100
AcDbLine
 10
217.5
 20
181.2
 30
0.0
 11
217.5
 21
131.6
 31
0.0
  0
LINE
  5
63F
330
1F
100
AcDbEntity
  8
PEN1
  6
LTY1
100
AcDbLine
 10
217.5
 20
181.2
 30
0.0
 11
217.5
 21
131.6
 31
0.0
  0
LINE
  5
640
330
1F
100
AcDbEntity
  8
PEN1
  6
LTY1
100
AcDbLine
 10
226.5
 20
131.5
 30
0.0
 11
226.5
 21
181.2
 31
0.0
  0
LINE
  5
641
330
1F
100
AcDbEntity
  8
PEN1
  6
LTY1
100
AcDbLine
 10
220.1
 20
142.7
 30
0.0
 11
223.6
 21
142.7
 31
0.0
  0
LINE
  5
642
330
1F
100
AcDbEntity
  8
PEN1
  6
LTY1
100
AcDbLine
 10
223.6
 20
142.7
 30
0.0
 11
223.6
 21
139.2
 31
0.0
  0
LINE
  5
643
330
1F
100
AcDbEntity
  8
PEN1
  6
LTY1
100
AcDbLine
 10
223.6
 20
139.2
 30
0.0
 11
220.1
 21
139.2
 31
0.0
  0
LINE
  5
644
330
1F
100
AcDbEntity
  8
PEN1
  6
LTY1
100
AcDbLine
 10
220.1
 20
139.2
 30
0.0
 11
220.1
 21
142.7
 31
0.0
  0
LINE
  5
645
330
1F
100
AcDbEntity
  8
PEN1
  6
LTY1
100
AcDbLine
 10
221.1
 20
141.7
 30
0.0
 11
222.7
 21
141.7
 31
0.0
  0
LINE
  5
646
330
1F
100
AcDbEntity
  8
PEN1
  6
LTY1
100
AcDbLine
 10
222.7
 20
141.7
 30
0.0
 11
223.4
 21
141.4
 31
0.0
  0
LINE
  5
647
330
1F
100
AcDbEntity
  8
PEN1
  6
LTY1
100
AcDbLine
 10
223.4
 20
141.4
 30
0.0
 11
223.4
 21
140.5
 31
0.0
  0
LINE
  5
648
330
1F
100
AcDbEntity
  8
PEN1
  6
LTY1
100
AcDbLine
 10
223.4
 20
140.5
 30
0.0
 11
222.7
 21
140.2
 31
0.0
  0
LINE
  5
649
330
1F
100
AcDbEntity
  8
PEN1
  6
LTY1
100
AcDbLine
 10
222.7
 20
140.2
 30
0.0
 11
221.0
 21
140.2
 31
0.0
  0
LINE
  5
64A
330
1F
100
AcDbEntity
  8
PEN1
  6
LTY1
100
AcDbLine
 10
221.0
 20
140.2
 30
0.0
 11
220.4
 21
140.5
 31
0.0
  0
LINE
  5
64B
330
1F
100
AcDbEntity
  8
PEN1
  6
LTY1
100
AcDbLine
 10
220.4
 20
140.5
 30
0.0
 11
220.4
 21
141.4
 31
0.0
  0
LINE
  5
64C
330
1F
100
AcDbEntity
  8
PEN1
  6
LTY1
100
AcDbLine
 10
220.4
 20
141.4
 30
0.0
 11
221.1
 21
141.7
 31
0.0
  0
LINE
  5
64D
330
1F
100
AcDbEntity
  8
PEN1
  6
LTY1
100
AcDbLine
 10
222.4
 20
159.9
 30
0.0
 11
222.4
 21
154.4
 31
0.0
  0
LINE
  5
64E
330
1F
100
AcDbEntity
  8
PEN1
  6
LTY1
100
AcDbLine
 10
222.4
 20
154.4
 30
0.0
 11
224.6
 21
154.4
 31
0.0
  0
LINE
  5
64F
330
1F
100
AcDbEntity
  8
PEN1
  6
LTY1
100
AcDbLine
 10
224.6
 20
154.4
 30
0.0
 11
224.6
 21
159.9
 31
0.0
  0
LINE
  5
650
330
1F
100
AcDbEntity
  8
PEN1
  6
LTY1
100
AcDbLine
 10
224.6
 20
159.9
 30
0.0
 11
222.4
 21
159.9
 31
0.0
  0
LINE
  5
651
330
1F
100
AcDbEntity
  8
PEN1
  6
LTY1
100
AcDbLine
 10
218.5
 20
174.9
 30
0.0
 11
218.5
 21
138.2
 31
0.0
  0
LINE
  5
652
330
1F
100
AcDbEntity
  8
PEN1
  6
LTY1
100
AcDbLine
 10
218.5
 20
138.2
 30
0.0
 11
225.5
 21
138.2
 31
0.0
  0
LINE
  5
653
330
1F
100
AcDbEntity
  8
PEN1
  6
LTY1
100
AcDbLine
 10
225.5
 20
138.2
 30
0.0
 11
225.5
 21
174.9
 31
0.0
  0
LINE
  5
654
330
1F
100
AcDbEntity
  8
PEN1
  6
LTY1
100
AcDbLine
 10
225.5
 20
174.9
 30
0.0
 11
218.5
 21
174.9
 31
0.0
  0
LINE
  5
655
330
1F
100
AcDbEntity
  8
PEN1
  6
LTY1
100
AcDbLine
 10
226.5
 20
181.2
 30
0.0
 11
226.5
 21
131.6
 31
0.0
  0
LINE
  5
656
330
1F
100
AcDbEntity
  8
PEN1
  6
LTY1
100
AcDbLine
 10
217.5
 20
131.5
 30
0.0
 11
217.5
 21
181.2
 31
0.0
  0
LINE
  5
657
330
1F
100
AcDbEntity
  8
PEN1
  6
LTY1
100
AcDbLine
 10
217.5
 20
181.2
 30
0.0
 11
226.5
 21
181.2
 31
0.0
  0
LINE
  5
658
330
1F
100
AcDbEntity
  8
PEN1
  6
LTY1
100
AcDbLine
 10
226.5
 20
175.6
 30
0.0
 11
217.5
 21
175.6
 31
0.0
  0
LINE
  5
659
330
1F
100
AcDbEntity
  8
PEN1
  6
LTY1
100
AcDbLine
 10
226.5
 20
131.5
 30
0.0
 11
226.5
 21
181.2
 31
0.0
  0
LINE
  5
65A
330
1F
100
AcDbEntity
  8
PEN1
  6
LTY1
100
AcDbLine
 10
226.5
 20
181.2
 30
0.0
 11
226.5
 21
131.6
 31
0.0
  0
LINE
  5
65B
330
1F
100
AcDbEntity
  8
PEN1
  6
LTY1
100
AcDbLine
 10
226.5
 20
131.5
 30
0.0
 11
226.5
 21
181.2
 31
0.0
  0
LINE
  5
65C
330
1F
100
AcDbEntity
  8
PEN1
  6
LTY1
100
AcDbLine
 10
226.5
 20
181.2
 30
0.0
 11
226.5
 21
131.6
 31
0.0
  0
LINE
  5
65D
330
1F
100
AcDbEntity
  8
PEN1
  6
LTY1
100
AcDbLine
 10
226.5
 20
131.5
 30
0.0
 11
226.5
 21
181.2
 31
0.0
  0
LINE
  5
65E
330
1F
100
AcDbEntity
  8
PEN1
  6
LTY1
100
AcDbLine
 10
226.5
 20
181.2
 30
0.0
 11
226.5
 21
131.6
 31
0.0
  0
LINE
  5
65F
330
1F
100
AcDbEntity
  8
PEN1
  6
LTY1
100
AcDbLine
 10
226.5
 20
131.5
 30
0.0
 11
226.5
 21
181.2
 31
0.0
  0
LINE
  5
660
330
1F
100
AcDbEntity
  8
PEN1
  6
LTY1
100
AcDbLine
 10
226.5
 20
181.2
 30
0.0
 11
226.5
 21
131.6
 31
0.0
  0
LINE
  5
661
330
1F
100
AcDbEntity
  8
PEN1
  6
LTY1
100
AcDbLine
 10
226.5
 20
131.5
 30
0.0
 11
226.5
 21
181.2
 31
0.0
  0
LINE
  5
662
330
1F
100
AcDbEntity
  8
PEN1
  6
LTY1
100
AcDbLine
 10
226.5
 20
181.2
 30
0.0
 11
226.5
 21
131.6
 31
0.0
  0
LINE
  5
663
330
1F
100
AcDbEntity
  8
PEN1
  6
LTY1
100
AcDbLine
 10
226.5
 20
131.5
 30
0.0
 11
226.5
 21
181.2
 31
0.0
  0
LINE
  5
664
330
1F
100
AcDbEntity
  8
PEN1
  6
LTY1
100
AcDbLine
 10
226.5
 20
181.2
 30
0.0
 11
226.5
 21
131.6
 31
0.0
  0
LINE
  5
665
330
1F
100
AcDbEntity
  8
PEN1
  6
LTY1
100
AcDbLine
 10
226.5
 20
131.5
 30
0.0
 11
226.5
 21
181.2
 31
0.0
  0
LINE
  5
666
330
1F
100
AcDbEntity
  8
PEN1
  6
LTY1
100
AcDbLine
 10
226.5
 20
181.2
 30
0.0
 11
226.5
 21
131.6
 31
0.0
  0
LINE
  5
667
330
1F
100
AcDbEntity
  8
PEN1
  6
LTY1
100
AcDbLine
 10
226.5
 20
131.5
 30
0.0
 11
226.5
 21
181.2
 31
0.0
  0
LINE
  5
668
330
1F
100
AcDbEntity
  8
PEN1
  6
LTY1
100
AcDbLine
 10
226.5
 20
181.2
 30
0.0
 11
226.5
 21
131.6
 31
0.0
  0
LINE
  5
669
330
1F
100
AcDbEntity
  8
PEN1
  6
LTY1
100
AcDbLine
 10
226.5
 20
131.5
 30
0.0
 11
226.5
 21
181.2
 31
0.0
  0
LINE
  5
66A
330
1F
100
AcDbEntity
  8
PEN1
  6
LTY1
100
AcDbLine
 10
226.5
 20
181.2
 30
0.0
 11
226.5
 21
131.6
 31
0.0
  0
LINE
  5
66B
330
1F
100
AcDbEntity
  8
PEN1
  6
LTY1
100
AcDbLine
 10
226.5
 20
131.5
 30
0.0
 11
226.5
 21
181.2
 31
0.0
  0
LINE
  5
66C
330
1F
100
AcDbEntity
  8
PEN1
  6
LTY1
100
AcDbLine
 10
226.5
 20
181.2
 30
0.0
 11
226.5
 21
131.6
 31
0.0
  0
LINE
  5
66D
330
1F
100
AcDbEntity
  8
PEN1
  6
LTY1
100
AcDbLine
 10
226.5
 20
131.5
 30
0.0
 11
226.5
 21
181.2
 31
0.0
  0
LINE
  5
66E
330
1F
100
AcDbEntity
  8
PEN1
  6
LTY1
100
AcDbLine
 10
226.5
 20
181.2
 30
0.0
 11
226.5
 21
131.6
 31
0.0
  0
LINE
  5
66F
330
1F
100
AcDbEntity
  8
PEN1
  6
LTY1
100
AcDbLine
 10
226.5
 20
131.5
 30
0.0
 11
226.5
 21
181.2
 31
0.0
  0
LINE
  5
670
330
1F
100
AcDbEntity
  8
PEN1
  6
LTY1
100
AcDbLine
 10
226.5
 20
181.2
 30
0.0
 11
226.5
 21
131.6
 31
0.0
  0
LINE
  5
671
330
1F
100
AcDbEntity
  8
PEN1
  6
LTY1
100
AcDbLine
 10
226.5
 20
181.2
 30
0.0
 11
226.5
 21
131.6
 31
0.0
  0
LINE
  5
672
330
1F
100
AcDbEntity
  8
PEN1
  6
LTY1
100
AcDbLine
 10
235.5
 20
131.5
 30
0.0
 11
235.5
 21
181.2
 31
0.0
  0
LINE
  5
673
330
1F
100
AcDbEntity
  8
PEN1
  6
LTY1
100
AcDbLine
 10
229.1
 20
142.7
 30
0.0
 11
232.6
 21
142.7
 31
0.0
  0
LINE
  5
674
330
1F
100
AcDbEntity
  8
PEN1
  6
LTY1
100
AcDbLine
 10
232.6
 20
142.7
 30
0.0
 11
232.6
 21
139.2
 31
0.0
  0
LINE
  5
675
330
1F
100
AcDbEntity
  8
PEN1
  6
LTY1
100
AcDbLine
 10
232.6
 20
139.2
 30
0.0
 11
229.1
 21
139.2
 31
0.0
  0
LINE
  5
676
330
1F
100
AcDbEntity
  8
PEN1
  6
LTY1
100
AcDbLine
 10
229.1
 20
139.2
 30
0.0
 11
229.1
 21
142.7
 31
0.0
  0
LINE
  5
677
330
1F
100
AcDbEntity
  8
PEN1
  6
LTY1
100
AcDbLine
 10
230.1
 20
141.7
 30
0.0
 11
231.7
 21
141.7
 31
0.0
  0
LINE
  5
678
330
1F
100
AcDbEntity
  8
PEN1
  6
LTY1
100
AcDbLine
 10
231.7
 20
141.7
 30
0.0
 11
232.4
 21
141.4
 31
0.0
  0
LINE
  5
679
330
1F
100
AcDbEntity
  8
PEN1
  6
LTY1
100
AcDbLine
 10
232.4
 20
141.4
 30
0.0
 11
232.4
 21
140.5
 31
0.0
  0
LINE
  5
67A
330
1F
100
AcDbEntity
  8
PEN1
  6
LTY1
100
AcDbLine
 10
232.4
 20
140.5
 30
0.0
 11
231.7
 21
140.2
 31
0.0
  0
LINE
  5
67B
330
1F
100
AcDbEntity
  8
PEN1
  6
LTY1
100
AcDbLine
 10
231.7
 20
140.2
 30
0.0
 11
230.0
 21
140.2
 31
0.0
  0
LINE
  5
67C
330
1F
100
AcDbEntity
  8
PEN1
  6
LTY1
100
AcDbLine
 10
230.0
 20
140.2
 30
0.0
 11
229.4
 21
140.5
 31
0.0
  0
LINE
  5
67D
330
1F
100
AcDbEntity
  8
PEN1
  6
LTY1
100
AcDbLine
 10
229.4
 20
140.5
 30
0.0
 11
229.4
 21
141.4
 31
0.0
  0
LINE
  5
67E
330
1F
100
AcDbEntity
  8
PEN1
  6
LTY1
100
AcDbLine
 10
229.4
 20
141.4
 30
0.0
 11
230.1
 21
141.7
 31
0.0
  0
LINE
  5
67F
330
1F
100
AcDbEntity
  8
PEN1
  6
LTY1
100
AcDbLine
 10
231.4
 20
159.9
 30
0.0
 11
231.4
 21
154.4
 31
0.0
  0
LINE
  5
680
330
1F
100
AcDbEntity
  8
PEN1
  6
LTY1
100
AcDbLine
 10
231.4
 20
154.4
 30
0.0
 11
233.6
 21
154.4
 31
0.0
  0
LINE
  5
681
330
1F
100
AcDbEntity
  8
PEN1
  6
LTY1
100
AcDbLine
 10
233.6
 20
154.4
 30
0.0
 11
233.6
 21
159.9
 31
0.0
  0
LINE
  5
682
330
1F
100
AcDbEntity
  8
PEN1
  6
LTY1
100
AcDbLine
 10
233.6
 20
159.9
 30
0.0
 11
231.4
 21
159.9
 31
0.0
  0
LINE
  5
683
330
1F
100
AcDbEntity
  8
PEN1
  6
LTY1
100
AcDbLine
 10
227.5
 20
174.9
 30
0.0
 11
227.5
 21
138.2
 31
0.0
  0
LINE
  5
684
330
1F
100
AcDbEntity
  8
PEN1
  6
LTY1
100
AcDbLine
 10
227.5
 20
138.2
 30
0.0
 11
234.5
 21
138.2
 31
0.0
  0
LINE
  5
685
330
1F
100
AcDbEntity
  8
PEN1
  6
LTY1
100
AcDbLine
 10
234.5
 20
138.2
 30
0.0
 11
234.5
 21
174.9
 31
0.0
  0
LINE
  5
686
330
1F
100
AcDbEntity
  8
PEN1
  6
LTY1
100
AcDbLine
 10
234.5
 20
174.9
 30
0.0
 11
227.5
 21
174.9
 31
0.0
  0
LINE
  5
687
330
1F
100
AcDbEntity
  8
PEN1
  6
LTY1
100
AcDbLine
 10
235.5
 20
181.2
 30
0.0
 11
235.5
 21
131.6
 31
0.0
  0
LINE
  5
688
330
1F
100
AcDbEntity
  8
PEN1
  6
LTY1
100
AcDbLine
 10
226.5
 20
131.5
 30
0.0
 11
226.5
 21
181.2
 31
0.0
  0
LINE
  5
689
330
1F
100
AcDbEntity
  8
PEN1
  6
LTY1
100
AcDbLine
 10
226.5
 20
181.2
 30
0.0
 11
235.5
 21
181.2
 31
0.0
  0
LINE
  5
68A
330
1F
100
AcDbEntity
  8
PEN1
  6
LTY1
100
AcDbLine
 10
235.5
 20
175.6
 30
0.0
 11
226.5
 21
175.6
 31
0.0
  0
LINE
  5
68B
330
1F
100
AcDbEntity
  8
PEN1
  6
LTY1
100
AcDbLine
 10
163.5
 20
181.0
 30
0.0
 11
163.5
 21
125.5
 31
0.0
  0
ENDSEC
  0
SECTION
  2
OBJECTS
  0
DICTIONARY
  5
C
330
0
100
AcDbDictionary
281
     1
  3
ACAD_COLOR
350
6C
  3
ACAD_GROUP
350
D
  3
ACAD_LAYOUT
350
1A
  3
ACAD_MATERIAL
350
6B
  3
ACAD_MLEADERSTYLE
350
6AF
  3
ACAD_MLINESTYLE
350
17
  3
ACAD_PLOTSETTINGS
350
19
  3
ACAD_PLOTSTYLENAME
350
E
  3
ACAD_TABLESTYLE
350
92
  3
AcDbVariableDictionary
350
59
  0
DICTIONARY
  5
6C
102
{ACAD_REACTORS
330
C
102
}
330
C
100
AcDbDictionary
281
     1
  0
DICTIONARY
  5
D
102
{ACAD_REACTORS
330
C
102
}
330
C
100
AcDbDictionary
281
     1
  0
DICTIONARY
  5
1A
102
{ACAD_REACTORS
330
C
102
}
330
C
100
AcDbDictionary
281
     1
  3
Layout1
350
74
  3
Model
350
22
  0
DICTIONARY
  5
6B
102
{ACAD_REACTORS
330
C
102
}
330
C
100
AcDbDictionary
281
     1
  0
DICTIONARY
  5
6AF
102
{ACAD_REACTORS
330
C
102
}
330
C
100
AcDbDictionary
281
     1
  0
DICTIONARY
  5
17
102
{ACAD_REACTORS
330
C
102
}
330
C
100
AcDbDictionary
281
     1
  3
Standard
350
18
  0
DICTIONARY
  5
19
102
{ACAD_REACTORS
330
C
102
}
330
C
100
AcDbDictionary
281
     1
  0
ACDBDICTIONARYWDFLT
  5
E
102
{ACAD_REACTORS
330
C
102
}
330
C
100
AcDbDictionary
281
     1
  3
Normal
350
F
100
AcDbDictionaryWithDefault
340
F
  0
DICTIONARY
  5
92
102
{ACAD_REACTORS
330
C
102
}
330
C
100
AcDbDictionary
281
     1
  3
Standard
350
93
  0
DICTIONARY
  5
59
102
{ACAD_REACTORS
330
C
102
}
330
C
100
AcDbDictionary
281
     1
  3
CTABLESTYLE
350
98
  3
DIMASSOC
350
471
  3
HIDETEXT
350
5E
  0
LAYOUT
  5
74
102
{ACAD_REACTORS
330
1A
102
}
330
1A
100
AcDbPlotSettings
  1

  2
none_device
  4
ISO_C5_(229.00_x_162.00_MM)
  6

 40
0.0
 41
0.0
 42
0.0
 43
0.0
 44
229.0
 45
162.0
 46
0.0
 47
0.0
 48
0.0
 49
0.0
140
0.0
141
0.0
142
1.0
143
1.0
 70
   688
 72
     1
 73
     0
 74
     5
  7

 75
    16
 76
     0
 77
     2
 78
   300
147
1.0
148
0.0
149
0.0
100
AcDbLayout
  1
Layout1
 70
     1
 71
     1
 10
0.0
 20
0.0
 11
12.0
 21
9.0
 12
0.0
 22
0.0
 32
0.0
 14
1.000000000000000E+20
 24
1.000000000000000E+20
 34
1.000000000000000E+20
 15
-1.000000000000000E+20
 25
-1.000000000000000E+20
 35
-1.000000000000000E+20
146
0.0
 13
0.0
 23
0.0
 33
0.0
 16
1.0
 26
0.0
 36
0.0
 17
0.0
 27
1.0
 37
0.0
 76
     0
330
73
  0
LAYOUT
  5
22
102
{ACAD_REACTORS
330
1A
102
}
330
1A
100
AcDbPlotSettings
  1

  2
none_device
  4
ISO_C5_(229.00_x_162.00_MM)
  6

 40
0.0
 41
0.0
 42
0.0
 43
0.0
 44
229.0
 45
162.0
 46
0.0
 47
0.0
 48
0.0
 49
0.0
140
0.0
141
0.0
142
1.0
143
1.234997072599532
 70
 11952
 72
     1
 73
     0
 74
     0
  7

 75
     0
 76
     0
 77
     2
 78
   300
147
0.8097185185185185
148
0.0
149
0.0
100
AcDbLayout
  1
Model
 70
     1
 71
     0
 10
0.0
 20
0.0
 11
400.0
 21
270.0
 12
0.0
 22
0.0
 32
0.0
 14
0.0
 24
-1.155
 34
0.0
 15
400.825
 25
270.0
 35
0.0
146
0.0
 13
0.0
 23
0.0
 33
0.0
 16
1.0
 26
0.0
 36
0.0
 17
0.0
 27
1.0
 37
0.0
 76
     0
330
1F
331
97
  0
MLINESTYLE
  5
18
102
{ACAD_REACTORS
330
17
102
}
330
17
100
AcDbMlineStyle
  2
Standard
 70
     0
  3

 62
   256
 51
90.0
 52
90.0
 71
     2
 49
0.5
 62
   256
  6
BYLAYER
 49
-0.5
 62
   256
  6
BYLAYER
  0
ACDBPLACEHOLDER
  5
F
102
{ACAD_REACTORS
330
E
102
}
330
E
  0
TABLESTYLE
  5
93
102
{ACAD_REACTORS
330
92
102
}
330
92
100
AcDbTableStyle
  3
Standard
 70
     0
 71
     0
 40
0.06
 41
0.06
280
     0
281
     0
  7
Standard
140
0.18
170
     2
 62
     0
 63
     7
283
     0
 90
      512
 91
        0
  1

274
    -2
284
     1
 64
     0
275
    -2
285
     1
 65
     0
276
    -2
286
     1
 66
     0
277
    -2
287
     1
 67
     0
278
    -2
288
     1
 68
     0
279
    -2
289
     1
 69
     0
  7
Standard
140
0.25
170
     5
 62
     0
 63
     7
283
     0
 90
      512
 91
        0
  1

274
    -2
284
     1
 64
     0
275
    -2
285
     1
 65
     0
276
    -2
286
     1
 66
     0
277
    -2
287
     1
 67
     0
278
    -2
288
     1
 68
     0
279
    -2
289
     1
 69
     0
  7
Standard
140
0.18
170
     5
 62
     0
 63
     7
283
     0
 90
      512
 91
        0
  1

274
    -2
284
     1
 64
     0
275
    -2
285
     1
 65
     0
276
    -2
286
     1
 66
     0
277
    -2
287
     1
 67
     0
278
    -2
288
     1
 68
     0
279
    -2
289
     1
 69
     0
  0
DICTIONARYVAR
  5
98
102
{ACAD_REACTORS
330
59
102
}
330
59
100
DictionaryVariables
280
     0
  1
Standard
  0
DICTIONARYVAR
  5
471
102
{ACAD_REACTORS
330
59
102
}
330
59
100
DictionaryVariables
280
     0
  1
2
  0
DICTIONARYVAR
  5
5E
102
{ACAD_REACTORS
330
59
102
}
330
59
100
DictionaryVariables
280
     0
  1
1
  0
ENDSEC
  0
EOF
