999
############################################################
999
# SECTION HEADER                                           #
999
#                                                          #
999
#   gesetzte Variablen :                                   #
999
#                                                          #
999
#   $LIMMIN    links unten in mm                           #
999
#   $LIMMAX    rechts oben in mm                           #
999
#   $GRIDUNIT  Raster in mm                                #
999
#   $GRIDMODE  Raster ein                                  #
999
#   $SNAPUNIT  Fangraster in mm                            #
999
#   $SNAPMODE  Fangraster ein                              #
999
#   $ATTDIA    Dialoge für Attributeingabe ein             #
999
#   $ATTMODE   Sichtbarkeit der Attribute normal           #
999
#   $COORDS    Koordinatenanzeige ständig nachführen       #
999
#   $TEXTSTYLE aktueller Name des Textstils                #
999
#   $LTSCALE   Linientypfaktor                             #
999
############################################################
  0
SECTION
  2
HEADER
  9
$LIMMIN
 10
0.000
 20
0.000
  9
$LIMMAX
 10
400.000
 20
270.000
  9
$EXTMIN
 10
0.000
 20
0.000
  9
$EXTMAX
 10
400.000
 20
270.000
  9
$GRIDUNIT
 10
20.000
 20
20.000
  9
$GRIDMODE
 70
1
  9
$SNAPUNIT
 10
3.500
 20
3.500
  9
$SNAPMODE
 70
1
  9
$ATTDIA
 70
1
  9
$ATTMODE
 70
1
  9
$COORDS
 70
1
  9
$TEXTSTYLE
  7
NORMSCHRIFT
  9
$LTSCALE
 40
1.000
  0
ENDSEC
999
############################################################
999
# SECTION TABLES                                           #
999
#                                                          #
999
#   TABLE STYLE (3 Stück)                                  #
999
#                                                          #
999
#     NORMSCHRIFT                                          #
999
#     GREEK                                                #
999
#     CYRILLIC                                             #
999
#     RUSSIAN KEYBOARD LAYOUT                              #
999
#                                                          #
999
#   TABLE LTYPE (9 Stück)                                  #
999
#                                                          #
999
#     LTY0                                                 #
999
#     LTY1                                                 #
999
#     LTY2                                                 #
999
#     LTY3                                                 #
999
#     LTY4                                                 #
999
#     LTY5                                                 #
999
#     LTY6                                                 #
999
#     LTY7                                                 #
999
#     LTY8                                                 #
999
#                                                          #
999
#   TABLE LAYER (9 Stück)                                  #
999
#                                                          #
999
#     PEN1                                                 #
999
#     PEN2                                                 #
999
#     PEN3                                                 #
999
#     PEN4                                                 #
999
#     PEN5                                                 #
999
#     PEN6                                                 #
999
#     SF                                                   #
999
#     SYMBOL                                               #
999
#     GRAFIK                                               #
999
############################################################
  0
SECTION
  2
TABLES
  0
TABLE
  2
STYLE
 70
4
  0
STYLE
  2
NORMSCHRIFT
 70
0
 40
0.000
 41
1.000
 50
0.000
 71
0
 42
3.500
  3
normwin
  4

  0
STYLE
  2
GREEK
 70
0
 40
0.000
 41
1.000
 50
0.000
 71
0
 42
3.500
  3
norm_gr
  4

  0
STYLE
  2
CYRILLIC
 70
0
 40
0.000
 41
1.000
 50
0.000
 71
0
 42
3.500
  3
norm_cy
  4

  0
STYLE
  2
CYRILLIC_KBD
 70
0
 40
0.000
 41
1.000
 50
0.000
 71
0
 42
3.500
  3
norm_cy_kbd
  4

  0
ENDTAB
  0
TABLE
  2
LTYPE
 70
9
  0
LTYPE
  2
LTY0
 70
0
  3
unsichtbar
 72
65
 73
1
 40
2.100
 49
-2.100
  0
LTYPE
  2
LTY1
 70
0
  3
________________________________
 72
65
 73
0
 40
0.000
  0
LTYPE
  2
LTY2
 70
0
  3
. . . . . . . . . . . . . . . . .
 72
65
 73
2
 40
2.000
 49
0.500
 49
-1.500
  0
LTYPE
  2
LTY3
 70
0
  3
_ _ _ _ _ _ _ _ _ _ _ _ _ _ _ _ _
 72
65
 73
2
 40
3.000
 49
1.500
 49
-1.500
  0
LTYPE
  2
LTY4
 70
0
  3
__  __  __  __  __  __  __  __  __
 72
65
 73
2
 40
6.000
 49
3.000
 49
-3.000
  0
LTYPE
  2
LTY5
 70
0
  3
____  ____  ____  ____  ____  ____
 72
65
 73
2
 40
11.500
 49
8.000
 49
-3.500
  0
LTYPE
  2
LTY6
 70
0
  3
____  __  ____  __  ____  __  ____
 72
65
 73
4
 40
17.500
 49
11.500
 49
-2.000
 49
2.000
 49
-2.000
  0
LTYPE
  2
LTY7
 70
0
  3
___ . ___ . ___ . ___ . ___ . ___
 72
65
 73
4
 40
15.000
 49
11.000
 49
-2.000
 49
0.000
 49
-2.000
  0
LTYPE
  2
LTY8
 70
0
  3
___ _ _ ___ _ _ ___ _ _ ___ _ _ ___
 72
65
 73
6
 40
16.500
 49
7.500
 49
-2.000
 49
1.500
 49
-2.000
 49
1.500
 49
-2.000
  0
ENDTAB
  0
TABLE
  2
LAYER
 70
9
  0
LAYER
  2
PEN1
 70
0
 62
7
  6
LTY1
  0
LAYER
  2
PEN2
 70
0
 62
7
  6
LTY1
  0
LAYER
  2
PEN3
 70
0
 62
7
  6
LTY1
  0
LAYER
  2
PEN4
 70
0
 62
7
  6
LTY1
  0
LAYER
  2
PEN5
 70
0
 62
7
  6
LTY1
  0
LAYER
  2
PEN6
 70
0
 62
7
  6
LTY1
  0
LAYER
  2
SF
 70
0
 62
7
  6
LTY1
  0
LAYER
  2
SYMBOL
 70
0
 62
7
  6
LTY1
  0
LAYER
  2
GRAFIK
 70
0
 62
7
  6
LTY1
  0
ENDTAB
  0
TABLE
  2
VPORT
 70
1
  0
VPORT
  2
*ACTIVE
 70
0
 10
0.000
 20
0.000
 11
1.000
 21
1.000
 12
200.000
 22
135.000
 13
0.000
 23
0.000
 14
1.000
 24
1.000
 15
0.000
 25
0.000
 16
0.000
 26
0.000
 36
1.000
 17
0.000
 27
0.000
 37
0.000
 40
270.000
 41
1.481
 42
50.000
 43
0.000
 44
0.000
 50
0.000
 51
0.000
 71
0
 72
100
 73
1
 74
1
 75
0
 76
0
 77
0
 78
0
  0
ENDTAB
  0
ENDSEC
999
############################################################
999
# SECTION BLOCKS                                           #
999
############################################################
  0
SECTION
  2
BLOCKS
999
############################################################
999
# benutzte Symbole :                                       #
999
#                                                          #
999
# SF_KORA7_00      SF_KORA7_00                             #
999
# K7-9170F         K7-9170F                                #
999
############################################################
999
############################################################
999
# BLOCK SF_KORA7_00      SF_KORA7_00                       #
999
############################################################
  0
BLOCK
  8
0
  2
SF_KORA7_00
 10
0.000
 20
0.000
 70
2
  0
LINE
  8
PEN3
  6
LTY1
 10
395.000
 20
0.000
 11
0.000
 21
0.000
  0
LINE
  8
PEN3
  6
LTY1
 10
0.000
 20
0.000
 11
0.000
 21
270.000
  0
LINE
  8
PEN3
  6
LTY1
 10
0.000
 20
270.000
 11
395.000
 21
270.000
  0
LINE
  8
PEN3
  6
LTY1
 10
395.000
 20
270.000
 11
395.000
 21
0.000
  0
LINE
  8
PEN3
  6
LTY1
 10
395.000
 20
20.000
 11
0.000
 21
20.000
  0
LINE
  8
PEN1
  6
LTY1
 10
106.000
 20
20.000
 11
106.000
 21
0.000
  0
LINE
  8
PEN2
  6
LTY1
 10
83.000
 20
0.000
 11
83.000
 21
20.000
  0
LINE
  8
PEN2
  6
LTY1
 10
62.000
 20
20.000
 11
62.000
 21
0.000
  0
LINE
  8
PEN2
  6
LTY1
 10
52.000
 20
0.000
 11
52.000
 21
20.000
  0
LINE
  8
PEN2
  6
LTY1
 10
37.500
 20
20.000
 11
37.500
 21
0.000
  0
LINE
  8
PEN2
  6
LTY1
 10
3.000
 20
0.000
 11
3.000
 21
20.000
  0
LINE
  8
PEN2
  6
LTY1
 10
0.000
 20
15.000
 11
106.000
 21
15.000
  0
LINE
  8
PEN2
  6
LTY1
 10
106.000
 20
10.000
 11
0.000
 21
10.000
  0
LINE
  8
PEN2
  6
LTY1
 10
0.000
 20
5.000
 11
185.500
 21
5.000
  0
LINE
  8
PEN1
  6
LTY1
 10
185.500
 20
0.000
 11
185.500
 21
20.000
  0
LINE
  8
PEN1
  6
LTY1
 10
205.000
 20
0.000
 11
205.000
 21
20.000
  0
LINE
  8
PEN1
  6
LTY1
 10
287.500
 20
20.000
 11
287.500
 21
0.000
  0
LINE
  8
PEN1
  6
LTY1
 10
395.000
 20
10.000
 11
287.500
 21
10.000
  0
LINE
  8
PEN1
  6
LTY1
 10
367.500
 20
5.000
 11
395.000
 21
5.000
  0
TEXT
  8
PEN4
  7
NORMSCHRIFT
 10
4.200
 20
0.500
 72
0
 40
2.000
 51
0.000
 50
0.000
  1
Änderung / REV.
  0
TEXT
  8
PEN4
  7
NORMSCHRIFT
 10
38.700
 20
0.500
 72
0
 40
2.000
 51
0.000
 50
0.000
  1
Dat.
  0
TEXT
  8
PEN4
  7
NORMSCHRIFT
 10
63.200
 20
15.000
 72
0
 40
2.000
 51
0.000
 50
0.000
  1
Datum/Date
  0
TEXT
  8
PEN4
  7
NORMSCHRIFT
 10
62.700
 20
5.000
 72
0
 40
2.000
 51
0.000
 50
0.000
  1
Bearb./Engineer
  0
TEXT
  8
PEN4
  7
NORMSCHRIFT
 10
63.200
 20
0.500
 72
0
 40
2.000
 51
0.000
 50
0.000
  1
Gepr./Checked
  0
TEXT
  8
PEN4
  7
NORMSCHRIFT
 10
53.200
 20
0.500
 72
0
 40
2.000
 51
0.000
 50
0.000
  1
Name
  0
TEXT
  8
PEN4
  7
NORMSCHRIFT
 10
106.700
 20
15.500
 72
0
 40
2.000
 51
0.000
 50
0.000
  1
Auftrag Nr./Order No.
  0
LINE
  8
PEN1
  6
LTY1
 10
367.500
 20
0.000
 11
367.500
 21
10.000
  0
LINE
  8
PEN1
  6
LTY1
 10
347.500
 20
10.000
 11
347.500
 21
20.000
  0
TEXT
  8
PEN4
  7
NORMSCHRIFT
 10
288.700
 20
6.000
 72
0
 40
2.000
 51
0.000
 50
0.000
  1
Zeichnungs Nr./DRG No.
  0
TEXT
  8
PEN2
  7
NORMSCHRIFT
 10
368.250
 20
5.000
 72
0
 40
2.500
 51
0.000
 50
0.000
  1
Blatt/Sheet
  0
TEXT
  8
PEN2
  7
NORMSCHRIFT
 10
370.750
 20
0.000
 72
0
 40
2.500
 51
0.000
 50
0.000
  1
von/of
  0
LINE
  8
PEN2
  6
LTY1
 10
6.000
 20
265.000
 11
387.000
 21
265.000
  0
TEXT
  8
PEN4
  7
NORMSCHRIFT
 10
23.100
 20
265.500
 72
1
 11
24.500
 21
265.500
 40
2.000
 51
0.000
 50
0.000
  1
C0
  0
LINE
  8
PEN2
  6
LTY1
 10
6.000
 20
265.000
 11
6.000
 21
28.000
  0
TEXT
  8
PEN4
  7
NORMSCHRIFT
 10
0.700
 20
208.000
 72
1
 11
3.000
 21
208.000
 40
2.000
 51
0.000
 50
0.000
  1
A30
  0
TEXT
  8
PEN4
  7
NORMSCHRIFT
 10
0.700
 20
243.000
 72
1
 11
3.000
 21
243.000
 40
2.000
 51
0.000
 50
0.000
  1
A20
  0
TEXT
  8
PEN4
  7
NORMSCHRIFT
 10
0.600
 20
173.000
 72
1
 11
3.000
 21
173.000
 40
2.000
 51
0.000
 50
0.000
  1
A40
  0
TEXT
  8
PEN4
  7
NORMSCHRIFT
 10
0.700
 20
138.000
 72
1
 11
3.000
 21
138.000
 40
2.000
 51
0.000
 50
0.000
  1
A50
  0
TEXT
  8
PEN4
  7
NORMSCHRIFT
 10
0.700
 20
103.000
 72
1
 11
3.000
 21
103.000
 40
2.000
 51
0.000
 50
0.000
  1
A60
  0
TEXT
  8
PEN4
  7
NORMSCHRIFT
 10
0.700
 20
68.000
 72
1
 11
3.000
 21
68.000
 40
2.000
 51
0.000
 50
0.000
  1
A70
  0
TEXT
  8
PEN4
  7
NORMSCHRIFT
 10
0.700
 20
33.000
 72
1
 11
3.000
 21
33.000
 40
2.000
 51
0.000
 50
0.000
  1
A80
  0
TEXT
  8
PEN4
  7
NORMSCHRIFT
 10
57.600
 20
265.500
 72
1
 11
59.500
 21
265.500
 40
2.000
 51
0.000
 50
0.000
  1
C10
  0
TEXT
  8
PEN4
  7
NORMSCHRIFT
 10
92.400
 20
265.500
 72
1
 11
94.500
 21
265.500
 40
2.000
 51
0.000
 50
0.000
  1
C20
  0
TEXT
  8
PEN4
  7
NORMSCHRIFT
 10
127.400
 20
265.500
 72
1
 11
129.500
 21
265.500
 40
2.000
 51
0.000
 50
0.000
  1
C30
  0
TEXT
  8
PEN4
  7
NORMSCHRIFT
 10
162.300
 20
265.500
 72
1
 11
164.500
 21
265.500
 40
2.000
 51
0.000
 50
0.000
  1
C40
  0
TEXT
  8
PEN4
  7
NORMSCHRIFT
 10
197.400
 20
265.500
 72
1
 11
199.500
 21
265.500
 40
2.000
 51
0.000
 50
0.000
  1
C50
  0
LINE
  8
PEN2
  6
LTY1
 10
6.000
 20
28.000
 11
6.000
 21
20.000
  0
LINE
  8
PEN2
  6
LTY1
 10
6.000
 20
265.000
 11
6.000
 21
265.000
  0
LINE
  8
PEN2
  6
LTY1
 10
6.000
 20
265.000
 11
6.000
 21
265.000
  0
LINE
  8
PEN2
  6
LTY1
 10
395.000
 20
265.000
 11
387.000
 21
265.000
  0
TEXT
  8
PEN4
  7
NORMSCHRIFT
 10
232.400
 20
265.500
 72
1
 11
234.500
 21
265.500
 40
2.000
 51
0.000
 50
0.000
  1
C60
  0
TEXT
  8
PEN4
  7
NORMSCHRIFT
 10
267.400
 20
265.500
 72
1
 11
269.500
 21
265.500
 40
2.000
 51
0.000
 50
0.000
  1
C70
  0
TEXT
  8
PEN4
  7
NORMSCHRIFT
 10
302.400
 20
265.500
 72
1
 11
304.500
 21
265.500
 40
2.000
 51
0.000
 50
0.000
  1
C80
  0
TEXT
  8
PEN4
  7
NORMSCHRIFT
 10
337.400
 20
265.500
 72
1
 11
339.500
 21
265.500
 40
2.000
 51
0.000
 50
0.000
  1
C90
  0
TEXT
  8
PEN4
  7
NORMSCHRIFT
 10
371.900
 20
265.500
 72
1
 11
374.500
 21
265.500
 40
2.000
 51
0.000
 50
0.000
  1
C100
  0
LINE
  8
PEN2
  6
LTY1
 10
6.000
 20
265.000
 11
0.000
 21
270.000
  0
TEXT
  8
PEN4
  7
NORMSCHRIFT
 10
63.200
 20
10.000
 72
0
 40
2.000
 51
0.000
 50
0.000
  1
Erstellt/Drawn
  0
TEXT
  8
PEN4
  7
NORMSCHRIFT
 10
288.700
 20
15.000
 72
0
 40
2.000
 51
0.000
 50
0.000
  1
Einbauort/Gehäuse
  0
TEXT
  8
PEN4
  7
NORMSCHRIFT
 10
288.700
 20
11.000
 72
0
 40
2.000
 51
0.000
 50
0.000
  1
Location/Enclosure
  0
TEXT
  8
PEN4
  7
NORMSCHRIFT
 10
328.550
 20
6.000
 72
1
 11
331.000
 21
6.000
 40
2.000
 51
0.000
 50
0.000
  1
Grp.
  0
INSERT
  8
SYMBOL
  2
STAHL94
 10
185.500
 20
0.200
 41
1.070
 42
1.070
 50
0.000
  0
ATTDEF
  2
CODE_60
  3
Zeichn-Nr.   Anlage
 70
8
  8
PEN1
  7
NORMSCHRIFT
 10
289.350
 20
0.000
 72
0
 40
3.500
 51
0.000
 50
0.000
  1

  0
ATTDEF
  2
CODE_61
  3
Zeichn-Nr.   Gruppe
 70
8
  8
PEN1
  7
NORMSCHRIFT
 10
289.350
 20
0.000
 72
0
 40
3.500
 51
0.000
 50
0.000
  1

  0
ATTDEF
  2
CODE_62
  3
Zeichn-Nr.    Blatt
 70
8
  8
PEN2
  7
NORMSCHRIFT
 10
392.750
 20
5.000
 72
2
 11
392.750
 21
5.000
 40
2.500
 51
0.000
 50
0.000
  1

  0
ATTDEF
  2
CODE_63
  3
Zeichn-Nr. Variante
 70
9
  8
PEN4
  7
NORMSCHRIFT
 10
0.000
 20
0.000
 72
0
 40
0.000
 51
0.000
 50
0.000
  1

  0
ATTDEF
  2
CODE_77
  3
Sondervermerke Blatt
 70
8
  8
PEN2
  7
NORMSCHRIFT
 10
207.250
 20
15.000
 72
0
 40
2.500
 51
0.000
 50
0.000
  1

  0
ATTDEF
  2
CODE_66
  3
Projektbenennung
 70
8
  8
PEN1
  7
NORMSCHRIFT
 10
206.850
 20
7.500
 72
0
 40
3.500
 51
0.000
 50
0.000
  1

  0
ATTDEF
  2
CODE_65
  3
Blattbenennung
 70
8
  8
PEN1
  7
NORMSCHRIFT
 10
206.850
 20
0.500
 72
0
 40
3.500
 51
0.000
 50
0.000
  1

  0
ATTDEF
  2
CODE_68
  3
Angebot/Auftrag Nr.
 70
8
  8
PEN2
  7
NORMSCHRIFT
 10
183.750
 20
15.000
 72
2
 11
183.750
 21
15.000
 40
2.500
 51
0.000
 50
0.000
  1

  0
ATTDEF
  2
CODE_160
  3
Folge
 70
8
  8
PEN2
  7
NORMSCHRIFT
 10
183.750
 20
15.000
 72
2
 11
183.750
 21
15.000
 40
2.500
 51
0.000
 50
0.000
  1

  0
ATTDEF
  2
CODE_3
  3
Einbauort / Gehaeuse
 70
8
  8
PEN1
  7
NORMSCHRIFT
 10
322.350
 20
11.500
 72
0
 40
3.500
 51
0.000
 50
0.000
  1

  0
ATTDEF
  2
CODE_67
  3
Firma / Kunde
 70
8
  8
PEN2
  7
NORMSCHRIFT
 10
183.750
 20
10.000
 72
2
 11
183.750
 21
10.000
 40
2.500
 51
0.000
 50
0.000
  1

  0
ATTDEF
  2
CODE_78
  3
Anfrage-Nr. Kunde
 70
8
  8
PEN2
  7
NORMSCHRIFT
 10
183.750
 20
5.000
 72
2
 11
183.750
 21
5.000
 40
2.500
 51
0.000
 50
0.000
  1

  0
ATTDEF
  2
CODE_72
  3
Erstellungs-Datum
 70
8
  8
PEN2
  7
NORMSCHRIFT
 10
84.250
 20
14.500
 72
0
 40
2.500
 51
0.000
 50
0.000
  1

  0
ATTDEF
  2
CODE_424
  3
Erstellt
 70
8
  8
PEN2
  7
NORMSCHRIFT
 10
84.250
 20
9.500
 72
0
 40
2.500
 51
0.000
 50
0.000
  1

  0
ATTDEF
  2
CODE_423
  3
Bearbeiter
 70
8
  8
PEN2
  7
NORMSCHRIFT
 10
84.250
 20
4.500
 72
0
 40
2.500
 51
0.000
 50
0.000
  1

  0
ATTDEF
  2
CODE_425
  3
Geprueft
 70
8
  8
PEN2
  7
NORMSCHRIFT
 10
84.250
 20
0.000
 72
0
 40
2.500
 51
0.000
 50
0.000
  1

  0
ATTDEF
  2
CODE_71
  3
Gesamte Blattzahl
 70
8
  8
PEN2
  7
NORMSCHRIFT
 10
392.750
 20
0.000
 72
2
 11
392.750
 21
0.000
 40
2.500
 51
0.000
 50
0.000
  1

  0
ATTDEF
  2
CODE_430
  3
Grund Aenderung a
 70
8
  8
PEN4
  7
NORMSCHRIFT
 10
4.200
 20
5.000
 72
0
 40
2.000
 51
0.000
 50
0.000
  1

  0
ATTDEF
  2
CODE_431
  3
Datum     \"
 70
8
  8
PEN4
  7
NORMSCHRIFT
 10
38.700
 20
5.000
 72
0
 40
2.000
 51
0.000
 50
0.000
  1

  0
ATTDEF
  2
CODE_432
  3
Name      \"
 70
8
  8
PEN4
  7
NORMSCHRIFT
 10
53.200
 20
5.000
 72
0
 40
2.000
 51
0.000
 50
0.000
  1

  0
ATTDEF
  2
CODE_433
  3
Grund Aenderung b
 70
8
  8
PEN4
  7
NORMSCHRIFT
 10
4.200
 20
10.000
 72
0
 40
2.000
 51
0.000
 50
0.000
  1

  0
ATTDEF
  2
CODE_434
  3
Datum     \"
 70
8
  8
PEN4
  7
NORMSCHRIFT
 10
38.700
 20
10.000
 72
0
 40
2.000
 51
0.000
 50
0.000
  1

  0
ATTDEF
  2
CODE_435
  3
Name      \"
 70
8
  8
PEN4
  7
NORMSCHRIFT
 10
53.200
 20
10.000
 72
0
 40
2.000
 51
0.000
 50
0.000
  1

  0
ATTDEF
  2
CODE_436
  3
Grund Aenderung c
 70
8
  8
PEN4
  7
NORMSCHRIFT
 10
4.200
 20
15.000
 72
0
 40
2.000
 51
0.000
 50
0.000
  1

  0
ATTDEF
  2
CODE_437
  3
Datum     \"
 70
8
  8
PEN4
  7
NORMSCHRIFT
 10
38.700
 20
15.000
 72
0
 40
2.000
 51
0.000
 50
0.000
  1

  0
ATTDEF
  2
CODE_438
  3
Name      \"
 70
8
  8
PEN4
  7
NORMSCHRIFT
 10
53.200
 20
15.000
 72
0
 40
2.000
 51
0.000
 50
0.000
  1

  0
ATTDEF
  2
CODE_1
  3
Anlagenkurzzeichen
 70
8
  8
PEN1
  7
NORMSCHRIFT
 10
374.500
 20
10.500
 72
1
 11
374.500
 21
10.500
 40
3.500
 51
0.000
 50
0.000
  1

  0
ATTDEF
  2
CODE_2
  3
Funktion
 70
8
  8
PEN1
  7
NORMSCHRIFT
 10
374.500
 20
10.500
 72
1
 11
374.500
 21
10.500
 40
3.500
 51
0.000
 50
0.000
  1

  0
ATTDEF
  2
CODE_73
  3
Ursprung
 70
8
  8
PEN4
  7
NORMSCHRIFT
 10
107.200
 20
0.500
 72
0
 40
2.000
 51
0.000
 50
0.000
  1

  0
ATTDEF
  2
CODE_74
  3
Ersatz fuer
 70
8
  8
PEN4
  7
NORMSCHRIFT
 10
140.000
 20
0.500
 72
1
 11
140.000
 21
0.500
 40
2.000
 51
0.000
 50
0.000
  1

  0
ATTDEF
  2
CODE_75
  3
Ersetzt durch
 70
8
  8
PEN4
  7
NORMSCHRIFT
 10
183.900
 20
0.500
 72
2
 11
183.900
 21
0.500
 40
2.000
 51
0.000
 50
0.000
  1

  0
ATTDEF
  2
CODE_2000
  3
1. Archiv Ebene
 70
9
  8
PEN4
  7
NORMSCHRIFT
 10
0.000
 20
0.000
 72
0
 40
0.000
 51
0.000
 50
0.000
  1
60
  0
ATTDEF
  2
CODE_2001
  3
2. Archiv Ebene
 70
9
  8
PEN4
  7
NORMSCHRIFT
 10
0.000
 20
0.000
 72
0
 40
0.000
 51
0.000
 50
0.000
  1
61
  0
ATTDEF
  2
CODE_2002
  3
3. Archiv Ebene
 70
9
  8
PEN4
  7
NORMSCHRIFT
 10
0.000
 20
0.000
 72
0
 40
0.000
 51
0.000
 50
0.000
  1
62
  0
ATTDEF
  2
CODE_2003
  3
4. Archiv Ebene
 70
9
  8
PEN4
  7
NORMSCHRIFT
 10
0.000
 20
0.000
 72
0
 40
0.000
 51
0.000
 50
0.000
  1
63
  0
ATTDEF
  2
CODE_2005
  3
Bezeichnung 1. Ebene
 70
9
  8
PEN4
  7
NORMSCHRIFT
 10
0.000
 20
0.000
 72
0
 40
0.000
 51
0.000
 50
0.000
  1
Anlage ............
  0
ATTDEF
  2
CODE_2006
  3
Bezeichnung 2. Ebene
 70
9
  8
PEN4
  7
NORMSCHRIFT
 10
0.000
 20
0.000
 72
0
 40
0.000
 51
0.000
 50
0.000
  1
Gruppe ............
  0
ATTDEF
  2
CODE_2007
  3
Bezeichnung 3. Ebene
 70
9
  8
PEN4
  7
NORMSCHRIFT
 10
0.000
 20
0.000
 72
0
 40
0.000
 51
0.000
 50
0.000
  1
Blatt .............
  0
ATTDEF
  2
CODE_2008
  3
Bezeichnung 4. Ebene
 70
9
  8
PEN4
  7
NORMSCHRIFT
 10
0.000
 20
0.000
 72
0
 40
0.000
 51
0.000
 50
0.000
  1
Variante ..........
  0
ATTDEF
  2
CODE_2011
  3
Anzahl Strompfade
 70
9
  8
PEN4
  7
NORMSCHRIFT
 10
0.000
 20
0.000
 72
0
 40
0.000
 51
0.000
 50
0.000
  1
110
  0
ATTDEF
  2
CODE_2010
  3
durchlaufend  J/N
 70
9
  8
PEN4
  7
NORMSCHRIFT
 10
0.000
 20
0.000
 72
0
 40
0.000
 51
0.000
 50
0.000
  1
N
  0
ATTDEF
  2
CODE_2012
  3
horizontal    J/N
 70
9
  8
PEN4
  7
NORMSCHRIFT
 10
0.000
 20
0.000
 72
0
 40
0.000
 51
0.000
 50
0.000
  1
J
  0
ATTDEF
  2
CODE_2013
  3
x 1. Strompfad
 70
9
  8
PEN4
  7
NORMSCHRIFT
 10
0.000
 20
0.000
 72
0
 40
0.000
 51
0.000
 50
0.000
  1
24.5
  0
ATTDEF
  2
CODE_2014
  3
Pfadbreite x
 70
9
  8
PEN4
  7
NORMSCHRIFT
 10
0.000
 20
0.000
 72
0
 40
0.000
 51
0.000
 50
0.000
  1
3.5
  0
ATTDEF
  2
CODE_2015
  3
Name erster Pfad x
 70
9
  8
PEN4
  7
NORMSCHRIFT
 10
0.000
 20
0.000
 72
0
 40
0.000
 51
0.000
 50
0.000
  1
/C0
  0
ATTDEF
  2
CODE_2130
  3
Blattbreite
 70
9
  8
PEN4
  7
NORMSCHRIFT
 10
0.000
 20
0.000
 72
0
 40
0.000
 51
0.000
 50
0.000
  1
400.000
  0
ATTDEF
  2
CODE_2131
  3
Blatthöhe
 70
9
  8
PEN4
  7
NORMSCHRIFT
 10
0.000
 20
0.000
 72
0
 40
0.000
 51
0.000
 50
0.000
  1
270.000
  0
ATTDEF
  2
CODE_2132
  3
Grundraster
 70
9
  8
PEN4
  7
NORMSCHRIFT
 10
0.000
 20
0.000
 72
0
 40
0.000
 51
0.000
 50
0.000
  1
20.000
  0
ATTDEF
  2
CODE_2133
  3
Grobraster
 70
9
  8
PEN4
  7
NORMSCHRIFT
 10
0.000
 20
0.000
 72
0
 40
0.000
 51
0.000
 50
0.000
  1
100.000
  0
ATTDEF
  2
CODE_2134
  3
Feinraster
 70
9
  8
PEN4
  7
NORMSCHRIFT
 10
0.000
 20
0.000
 72
0
 40
0.000
 51
0.000
 50
0.000
  1
10.000
  0
ATTDEF
  2
CODE_2016
  3
vertikal      J/N
 70
9
  8
PEN4
  7
NORMSCHRIFT
 10
0.000
 20
0.000
 72
0
 40
0.000
 51
0.000
 50
0.000
  1
J
  0
ATTDEF
  2
CODE_2011
  3
Anzahl Strompfade
 70
9
  8
PEN4
  7
NORMSCHRIFT
 10
0.000
 20
0.000
 72
0
 40
0.000
 51
0.000
 50
0.000
  1
60
  0
ATTDEF
  2
CODE_2017
  3
y 1. Strompfad
 70
9
  8
PEN4
  7
NORMSCHRIFT
 10
0.000
 20
0.000
 72
0
 40
0.000
 51
0.000
 50
0.000
  1
245
  0
ATTDEF
  2
CODE_2018
  3
Pfadbreite y
 70
9
  8
PEN4
  7
NORMSCHRIFT
 10
0.000
 20
0.000
 72
0
 40
0.000
 51
0.000
 50
0.000
  1
3.5
  0
ATTDEF
  2
CODE_2019
  3
Name erster Pfad y
 70
9
  8
PEN4
  7
NORMSCHRIFT
 10
0.000
 20
0.000
 72
0
 40
0.000
 51
0.000
 50
0.000
  1
A20
  0
ATTDEF
  2
CODE_51
  3
PROJECT - - - - AUTO
 70
8
  8
PEN4
  7
NORMSCHRIFT
 10
365.900
 20
6.000
 72
2
 11
365.900
 21
6.000
 40
2.000
 51
0.000
 50
0.000
  1

  0
ATTDEF
  2
CODE_4006
  3
Masstab  AUTO
 70
9
  8
PEN4
  7
NORMSCHRIFT
 10
0.000
 20
0.000
 72
0
 40
0.000
 51
0.000
 50
0.000
  1
1:2
  0
ATTDEF
  2
CODE_4901
  3
gedruckt am:
 70
8
  8
PEN2
  7
NORMSCHRIFT
 10
400.000
 20
4.750
 72
0
 40
2.500
 51
0.000
 50
90.000
  1

  0
ATTDEF
  2
CODE_4902
  3
Ersteller
 70
8
  8
PEN2
  7
NORMSCHRIFT
 10
400.000
 20
4.750
 72
0
 40
2.500
 51
0.000
 50
90.000
  1

  0
ATTDEF
  2
CODE_4903
  3
Erstellt mit ELCAD:
 70
8
  8
PEN2
  7
NORMSCHRIFT
 10
400.000
 20
4.750
 72
0
 40
2.500
 51
0.000
 50
90.000
  1

  0
ATTDEF
  2
CODE_4800
  3
Revision 1
 70
8
  8
PEN4
  7
NORMSCHRIFT
 10
0.800
 20
5.000
 72
1
 11
1.500
 21
5.000
 40
2.000
 51
0.000
 50
0.000
  1
a
  0
ATTDEF
  2
CODE_4800
  3
Revision 2
 70
8
  8
PEN4
  7
NORMSCHRIFT
 10
0.800
 20
10.000
 72
1
 11
1.500
 21
10.000
 40
2.000
 51
0.000
 50
0.000
  1
b
  0
ATTDEF
  2
CODE_4800
  3
Revision 3
 70
8
  8
PEN4
  7
NORMSCHRIFT
 10
0.900
 20
15.000
 72
1
 11
1.500
 21
15.000
 40
2.000
 51
0.000
 50
0.000
  1
c
  0
ENDBLK
999
############################################################
999
# BLOCK K7-9170F         K7-9170F                          #
999
############################################################
  0
BLOCK
  8
0
  2
K7-9170F
 10
0.000
 20
0.000
 70
2
  0
LINE
  8
PEN1
  6
LTY1
 10
7.925
 20
18.225
 11
0.875
 21
18.225
  0
LINE
  8
PEN1
  6
LTY1
 10
0.875
 20
18.225
 11
0.875
 21
-18.475
  0
LINE
  8
PEN1
  6
LTY1
 10
0.875
 20
-18.475
 11
7.925
 21
-18.475
  0
LINE
  8
PEN1
  6
LTY1
 10
7.925
 20
-18.475
 11
7.925
 21
18.225
  0
LINE
  8
PEN1
  6
LTY1
 10
7.925
 20
18.225
 11
7.925
 21
18.225
  0
LINE
  8
PEN1
  6
LTY1
 10
6.150
 20
13.975
 11
2.650
 21
13.975
  0
LINE
  8
PEN1
  6
LTY1
 10
6.150
 20
17.475
 11
6.150
 21
13.975
  0
LINE
  8
PEN1
  6
LTY1
 10
2.650
 20
17.475
 11
6.150
 21
17.475
  0
LINE
  8
PEN1
  6
LTY1
 10
2.650
 20
13.975
 11
2.650
 21
17.475
  0
LINE
  8
PEN1
  6
LTY1
 10
2.925
 20
15.325
 11
2.925
 21
16.150
  0
LINE
  8
PEN1
  6
LTY1
 10
2.925
 20
16.150
 11
3.575
 21
16.525
  0
LINE
  8
PEN1
  6
LTY1
 10
3.575
 20
16.525
 11
5.250
 21
16.525
  0
LINE
  8
PEN1
  6
LTY1
 10
5.250
 20
16.525
 11
5.900
 21
16.150
  0
LINE
  8
PEN1
  6
LTY1
 10
5.900
 20
15.325
 11
5.900
 21
16.150
  0
LINE
  8
PEN1
  6
LTY1
 10
5.900
 20
15.325
 11
5.250
 21
14.975
  0
LINE
  8
PEN1
  6
LTY1
 10
5.250
 20
14.975
 11
3.575
 21
14.975
  0
LINE
  8
PEN1
  6
LTY1
 10
3.575
 20
14.975
 11
2.925
 21
15.325
  0
LINE
  8
PEN1
  6
LTY1
 10
5.475
 20
15.500
 11
5.300
 21
15.500
  0
LINE
  8
PEN1
  6
LTY1
 10
4.725
 20
15.750
 11
4.725
 21
15.500
  0
LINE
  8
PEN1
  6
LTY1
 10
4.225
 20
15.675
 11
4.325
 21
15.950
  0
LINE
  8
PEN1
  6
LTY1
 10
4.400
 20
15.950
 11
4.325
 21
15.950
  0
LINE
  8
PEN1
  6
LTY1
 10
4.475
 20
15.675
 11
4.525
 21
15.500
  0
LINE
  8
PEN1
  6
LTY1
 10
4.050
 20
15.950
 11
3.925
 21
15.950
  0
LINE
  8
PEN1
  6
LTY1
 10
3.925
 20
15.950
 11
3.775
 21
15.950
  0
LINE
  8
PEN1
  6
LTY1
 10
3.925
 20
15.500
 11
3.925
 21
15.950
  0
LINE
  8
PEN1
  6
LTY1
 10
4.725
 20
15.750
 11
5.000
 21
15.750
  0
LINE
  8
PEN1
  6
LTY1
 10
5.000
 20
15.500
 11
5.000
 21
15.750
  0
LINE
  8
PEN1
  6
LTY1
 10
5.000
 20
15.950
 11
5.000
 21
15.750
  0
LINE
  8
PEN1
  6
LTY1
 10
4.725
 20
15.950
 11
4.725
 21
15.750
  0
LINE
  8
PEN1
  6
LTY1
 10
5.300
 20
15.950
 11
5.300
 21
15.500
  0
LINE
  8
PEN1
  6
LTY1
 10
3.400
 20
15.800
 11
3.550
 21
15.700
  0
LINE
  8
PEN1
  6
LTY1
 10
4.475
 20
15.675
 11
4.225
 21
15.675
  0
LINE
  8
PEN1
  6
LTY1
 10
4.200
 20
15.500
 11
4.225
 21
15.675
  0
LINE
  8
PEN1
  6
LTY1
 10
4.400
 20
15.950
 11
4.475
 21
15.675
  0
LINE
  8
PEN1
  6
LTY1
 10
4.575
 20
-2.300
 11
4.575
 21
2.175
  0
LINE
  8
PEN1
  6
LTY1
 10
4.075
 20
2.675
 11
2.825
 21
2.675
  0
LINE
  8
PEN1
  6
LTY1
 10
2.325
 20
2.175
 11
2.325
 21
-2.300
  0
LINE
  8
PEN1
  6
LTY1
 10
2.825
 20
-2.800
 11
4.075
 21
-2.800
  0
LINE
  8
PEN1
  6
LTY1
 10
3.325
 20
15.875
 11
3.325
 21
15.875
  0
LINE
  8
PEN1
  6
LTY1
 10
3.325
 20
15.875
 11
3.325
 21
15.875
  0
LINE
  8
PEN1
  6
LTY1
 10
3.325
 20
15.875
 11
3.325
 21
15.875
  0
LINE
  8
PEN1
  6
LTY1
 10
3.325
 20
15.875
 11
3.350
 21
15.850
  0
LINE
  8
PEN1
  6
LTY1
 10
3.350
 20
15.850
 11
3.350
 21
15.850
  0
LINE
  8
PEN1
  6
LTY1
 10
3.350
 20
15.850
 11
3.350
 21
15.825
  0
LINE
  8
PEN1
  6
LTY1
 10
3.350
 20
15.825
 11
3.350
 21
15.825
  0
LINE
  8
PEN1
  6
LTY1
 10
3.350
 20
15.825
 11
3.375
 21
15.800
  0
LINE
  8
PEN1
  6
LTY1
 10
3.375
 20
15.800
 11
3.375
 21
15.800
  0
LINE
  8
PEN1
  6
LTY1
 10
3.375
 20
15.800
 11
3.400
 21
15.800
  0
LINE
  8
PEN1
  6
LTY1
 10
3.400
 20
16.000
 11
3.400
 21
16.000
  0
LINE
  8
PEN1
  6
LTY1
 10
3.400
 20
16.000
 11
3.400
 21
15.975
  0
LINE
  8
PEN1
  6
LTY1
 10
3.400
 20
15.975
 11
3.400
 21
15.975
  0
LINE
  8
PEN1
  6
LTY1
 10
3.400
 20
15.975
 11
3.375
 21
15.975
  0
LINE
  8
PEN1
  6
LTY1
 10
3.375
 20
15.975
 11
3.375
 21
15.975
  0
LINE
  8
PEN1
  6
LTY1
 10
3.375
 20
15.975
 11
3.350
 21
15.950
  0
LINE
  8
PEN1
  6
LTY1
 10
3.350
 20
15.950
 11
3.350
 21
15.950
  0
LINE
  8
PEN1
  6
LTY1
 10
3.350
 20
15.950
 11
3.325
 21
15.950
  0
LINE
  8
PEN1
  6
LTY1
 10
3.325
 20
15.950
 11
3.325
 21
15.950
  0
LINE
  8
PEN1
  6
LTY1
 10
3.325
 20
15.950
 11
3.325
 21
15.950
  0
LINE
  8
PEN1
  6
LTY1
 10
3.325
 20
15.950
 11
3.325
 21
15.950
  0
LINE
  8
PEN1
  6
LTY1
 10
3.325
 20
15.950
 11
3.325
 21
15.925
  0
LINE
  8
PEN1
  6
LTY1
 10
3.325
 20
15.925
 11
3.325
 21
15.925
  0
LINE
  8
PEN1
  6
LTY1
 10
3.325
 20
15.925
 11
3.325
 21
15.900
  0
LINE
  8
PEN1
  6
LTY1
 10
3.325
 20
15.900
 11
3.325
 21
15.900
  0
LINE
  8
PEN1
  6
LTY1
 10
3.325
 20
15.900
 11
3.325
 21
15.875
  0
LINE
  8
PEN1
  6
LTY1
 10
3.450
 20
16.000
 11
3.450
 21
16.000
  0
LINE
  8
PEN1
  6
LTY1
 10
3.450
 20
16.000
 11
3.425
 21
16.000
  0
LINE
  8
PEN1
  6
LTY1
 10
3.425
 20
16.000
 11
3.425
 21
16.000
  0
LINE
  8
PEN1
  6
LTY1
 10
3.425
 20
16.000
 11
3.400
 21
16.000
  0
LINE
  8
PEN1
  6
LTY1
 10
3.400
 20
16.000
 11
3.400
 21
16.000
  0
LINE
  8
PEN1
  6
LTY1
 10
3.550
 20
15.975
 11
3.550
 21
15.975
  0
LINE
  8
PEN1
  6
LTY1
 10
3.550
 20
15.975
 11
3.500
 21
16.000
  0
LINE
  8
PEN1
  6
LTY1
 10
3.500
 20
16.000
 11
3.500
 21
16.000
  0
LINE
  8
PEN1
  6
LTY1
 10
3.500
 20
16.000
 11
3.475
 21
16.000
  0
LINE
  8
PEN1
  6
LTY1
 10
3.475
 20
16.000
 11
3.475
 21
16.000
  0
LINE
  8
PEN1
  6
LTY1
 10
3.475
 20
16.000
 11
3.450
 21
16.000
  0
LINE
  8
PEN1
  6
LTY1
 10
3.575
 20
15.900
 11
3.575
 21
15.900
  0
LINE
  8
PEN1
  6
LTY1
 10
3.575
 20
15.900
 11
3.575
 21
15.925
  0
LINE
  8
PEN1
  6
LTY1
 10
3.575
 20
15.925
 11
3.575
 21
15.925
  0
LINE
  8
PEN1
  6
LTY1
 10
3.575
 20
15.925
 11
3.575
 21
15.925
  0
LINE
  8
PEN1
  6
LTY1
 10
3.575
 20
15.925
 11
3.575
 21
15.925
  0
LINE
  8
PEN1
  6
LTY1
 10
3.575
 20
15.925
 11
3.575
 21
15.950
  0
LINE
  8
PEN1
  6
LTY1
 10
3.575
 20
15.950
 11
3.575
 21
15.950
  0
LINE
  8
PEN1
  6
LTY1
 10
3.575
 20
15.950
 11
3.550
 21
15.950
  0
LINE
  8
PEN1
  6
LTY1
 10
3.550
 20
15.950
 11
3.550
 21
15.950
  0
LINE
  8
PEN1
  6
LTY1
 10
3.550
 20
15.950
 11
3.550
 21
15.950
  0
LINE
  8
PEN1
  6
LTY1
 10
3.550
 20
15.950
 11
3.550
 21
15.975
  0
LINE
  8
PEN1
  6
LTY1
 10
3.600
 20
15.625
 11
3.600
 21
15.625
  0
LINE
  8
PEN1
  6
LTY1
 10
3.600
 20
15.625
 11
3.600
 21
15.625
  0
LINE
  8
PEN1
  6
LTY1
 10
3.600
 20
15.625
 11
3.600
 21
15.625
  0
LINE
  8
PEN1
  6
LTY1
 10
3.600
 20
15.625
 11
3.575
 21
15.650
  0
LINE
  8
PEN1
  6
LTY1
 10
3.575
 20
15.650
 11
3.575
 21
15.650
  0
LINE
  8
PEN1
  6
LTY1
 10
3.575
 20
15.650
 11
3.575
 21
15.675
  0
LINE
  8
PEN1
  6
LTY1
 10
3.575
 20
15.675
 11
3.575
 21
15.675
  0
LINE
  8
PEN1
  6
LTY1
 10
3.575
 20
15.675
 11
3.550
 21
15.675
  0
LINE
  8
PEN1
  6
LTY1
 10
3.550
 20
15.675
 11
3.550
 21
15.675
  0
LINE
  8
PEN1
  6
LTY1
 10
3.550
 20
15.675
 11
3.550
 21
15.700
  0
LINE
  8
PEN1
  6
LTY1
 10
3.525
 20
15.500
 11
3.525
 21
15.500
  0
LINE
  8
PEN1
  6
LTY1
 10
3.525
 20
15.500
 11
3.550
 21
15.500
  0
LINE
  8
PEN1
  6
LTY1
 10
3.550
 20
15.500
 11
3.550
 21
15.500
  0
LINE
  8
PEN1
  6
LTY1
 10
3.550
 20
15.500
 11
3.550
 21
15.525
  0
LINE
  8
PEN1
  6
LTY1
 10
3.550
 20
15.525
 11
3.550
 21
15.525
  0
LINE
  8
PEN1
  6
LTY1
 10
3.550
 20
15.525
 11
3.575
 21
15.525
  0
LINE
  8
PEN1
  6
LTY1
 10
3.575
 20
15.525
 11
3.575
 21
15.525
  0
LINE
  8
PEN1
  6
LTY1
 10
3.575
 20
15.525
 11
3.575
 21
15.550
  0
LINE
  8
PEN1
  6
LTY1
 10
3.575
 20
15.550
 11
3.575
 21
15.550
  0
LINE
  8
PEN1
  6
LTY1
 10
3.575
 20
15.550
 11
3.600
 21
15.550
  0
LINE
  8
PEN1
  6
LTY1
 10
3.600
 20
15.550
 11
3.600
 21
15.550
  0
LINE
  8
PEN1
  6
LTY1
 10
3.600
 20
15.550
 11
3.600
 21
15.575
  0
LINE
  8
PEN1
  6
LTY1
 10
3.600
 20
15.575
 11
3.600
 21
15.575
  0
LINE
  8
PEN1
  6
LTY1
 10
3.600
 20
15.575
 11
3.600
 21
15.600
  0
LINE
  8
PEN1
  6
LTY1
 10
3.600
 20
15.600
 11
3.600
 21
15.600
  0
LINE
  8
PEN1
  6
LTY1
 10
3.600
 20
15.600
 11
3.600
 21
15.625
  0
LINE
  8
PEN1
  6
LTY1
 10
3.475
 20
15.500
 11
3.475
 21
15.500
  0
LINE
  8
PEN1
  6
LTY1
 10
3.475
 20
15.500
 11
3.475
 21
15.500
  0
LINE
  8
PEN1
  6
LTY1
 10
3.475
 20
15.500
 11
3.475
 21
15.500
  0
LINE
  8
PEN1
  6
LTY1
 10
3.475
 20
15.500
 11
3.525
 21
15.500
  0
LINE
  8
PEN1
  6
LTY1
 10
3.525
 20
15.500
 11
3.525
 21
15.500
  0
LINE
  8
PEN1
  6
LTY1
 10
3.400
 20
15.500
 11
3.400
 21
15.500
  0
LINE
  8
PEN1
  6
LTY1
 10
3.400
 20
15.500
 11
3.400
 21
15.500
  0
LINE
  8
PEN1
  6
LTY1
 10
3.400
 20
15.500
 11
3.400
 21
15.500
  0
LINE
  8
PEN1
  6
LTY1
 10
3.400
 20
15.500
 11
3.450
 21
15.500
  0
LINE
  8
PEN1
  6
LTY1
 10
3.450
 20
15.500
 11
3.450
 21
15.500
  0
LINE
  8
PEN1
  6
LTY1
 10
3.450
 20
15.500
 11
3.475
 21
15.500
  0
LINE
  8
PEN1
  6
LTY1
 10
3.350
 20
15.575
 11
3.350
 21
15.575
  0
LINE
  8
PEN1
  6
LTY1
 10
3.350
 20
15.575
 11
3.350
 21
15.575
  0
LINE
  8
PEN1
  6
LTY1
 10
3.350
 20
15.575
 11
3.350
 21
15.575
  0
LINE
  8
PEN1
  6
LTY1
 10
3.350
 20
15.575
 11
3.350
 21
15.550
  0
LINE
  8
PEN1
  6
LTY1
 10
3.350
 20
15.550
 11
3.350
 21
15.550
  0
LINE
  8
PEN1
  6
LTY1
 10
3.350
 20
15.550
 11
3.350
 21
15.550
  0
LINE
  8
PEN1
  6
LTY1
 10
3.350
 20
15.550
 11
3.350
 21
15.550
  0
LINE
  8
PEN1
  6
LTY1
 10
3.350
 20
15.550
 11
3.350
 21
15.550
  0
LINE
  8
PEN1
  6
LTY1
 10
3.350
 20
15.550
 11
3.350
 21
15.550
  0
LINE
  8
PEN1
  6
LTY1
 10
3.350
 20
15.550
 11
3.375
 21
15.525
  0
LINE
  8
PEN1
  6
LTY1
 10
3.375
 20
15.525
 11
3.375
 21
15.525
  0
LINE
  8
PEN1
  6
LTY1
 10
4.075
 20
2.675
 11
4.075
 21
2.675
  0
LINE
  8
PEN1
  6
LTY1
 10
4.075
 20
2.675
 11
4.200
 21
2.650
  0
LINE
  8
PEN1
  6
LTY1
 10
4.200
 20
2.650
 11
4.275
 21
2.600
  0
LINE
  8
PEN1
  6
LTY1
 10
4.275
 20
2.600
 11
4.375
 21
2.550
  0
LINE
  8
PEN1
  6
LTY1
 10
4.375
 20
2.550
 11
4.450
 21
2.475
  0
LINE
  8
PEN1
  6
LTY1
 10
4.450
 20
2.475
 11
4.525
 21
2.375
  0
LINE
  8
PEN1
  6
LTY1
 10
4.525
 20
2.375
 11
4.550
 21
2.275
  0
LINE
  8
PEN1
  6
LTY1
 10
4.550
 20
2.275
 11
4.575
 21
2.175
  0
LINE
  8
PEN1
  6
LTY1
 10
2.325
 20
2.175
 11
2.325
 21
2.175
  0
LINE
  8
PEN1
  6
LTY1
 10
2.325
 20
2.175
 11
2.325
 21
2.275
  0
LINE
  8
PEN1
  6
LTY1
 10
2.325
 20
2.275
 11
2.375
 21
2.375
  0
LINE
  8
PEN1
  6
LTY1
 10
2.375
 20
2.375
 11
2.425
 21
2.475
  0
LINE
  8
PEN1
  6
LTY1
 10
2.425
 20
2.475
 11
2.500
 21
2.550
  0
LINE
  8
PEN1
  6
LTY1
 10
2.500
 20
2.550
 11
2.600
 21
2.600
  0
LINE
  8
PEN1
  6
LTY1
 10
2.600
 20
2.600
 11
2.725
 21
2.650
  0
LINE
  8
PEN1
  6
LTY1
 10
2.725
 20
2.650
 11
2.825
 21
2.675
  0
LINE
  8
PEN1
  6
LTY1
 10
2.825
 20
-2.800
 11
2.825
 21
-2.800
  0
LINE
  8
PEN1
  6
LTY1
 10
2.825
 20
-2.800
 11
2.725
 21
-2.775
  0
LINE
  8
PEN1
  6
LTY1
 10
2.725
 20
-2.775
 11
2.600
 21
-2.750
  0
LINE
  8
PEN1
  6
LTY1
 10
2.600
 20
-2.750
 11
2.500
 21
-2.675
  0
LINE
  8
PEN1
  6
LTY1
 10
2.500
 20
-2.675
 11
2.425
 21
-2.600
  0
LINE
  8
PEN1
  6
LTY1
 10
2.425
 20
-2.600
 11
2.375
 21
-2.500
  0
LINE
  8
PEN1
  6
LTY1
 10
2.375
 20
-2.500
 11
2.325
 21
-2.425
  0
LINE
  8
PEN1
  6
LTY1
 10
2.325
 20
-2.425
 11
2.325
 21
-2.300
  0
LINE
  8
PEN1
  6
LTY1
 10
4.575
 20
-2.300
 11
4.575
 21
-2.300
  0
LINE
  8
PEN1
  6
LTY1
 10
4.575
 20
-2.300
 11
4.550
 21
-2.425
  0
LINE
  8
PEN1
  6
LTY1
 10
4.550
 20
-2.425
 11
4.525
 21
-2.500
  0
LINE
  8
PEN1
  6
LTY1
 10
4.525
 20
-2.500
 11
4.450
 21
-2.600
  0
LINE
  8
PEN1
  6
LTY1
 10
4.450
 20
-2.600
 11
4.375
 21
-2.675
  0
LINE
  8
PEN1
  6
LTY1
 10
4.375
 20
-2.675
 11
4.275
 21
-2.750
  0
LINE
  8
PEN1
  6
LTY1
 10
4.275
 20
-2.750
 11
4.200
 21
-2.775
  0
LINE
  8
PEN1
  6
LTY1
 10
4.200
 20
-2.775
 11
4.075
 21
-2.800
  0
LINE
  8
PEN1
  6
LTY1
 10
0.125
 20
24.875
 11
8.675
 21
24.875
  0
LINE
  8
PEN1
  6
LTY1
 10
8.675
 20
-24.725
 11
0.125
 21
-24.725
  0
LINE
  8
PEN1
  6
LTY1
 10
0.825
 20
18.375
 11
0.850
 21
18.375
  0
LINE
  8
PEN1
  6
LTY1
 10
0.850
 20
17.700
 11
0.825
 21
17.700
  0
LINE
  8
PEN1
  6
LTY1
 10
8.025
 20
-17.350
 11
7.975
 21
-17.350
  0
LINE
  8
PEN1
  6
LTY1
 10
5.650
 20
-19.075
 11
8.025
 21
-19.075
  0
LINE
  8
PEN1
  6
LTY1
 10
5.650
 20
-24.725
 11
5.650
 21
-18.725
  0
LINE
  8
PEN1
  6
LTY1
 10
7.975
 20
-18.800
 11
7.975
 21
-17.300
  0
LINE
  8
PEN1
  6
LTY1
 10
5.650
 20
-18.800
 11
7.975
 21
-18.800
  0
LINE
  8
PEN1
  6
LTY1
 10
7.975
 20
18.725
 11
0.825
 21
18.725
  0
LINE
  8
PEN1
  6
LTY1
 10
8.025
 20
18.975
 11
0.775
 21
18.975
  0
LINE
  8
PEN1
  6
LTY1
 10
7.975
 20
-18.775
 11
5.650
 21
-18.775
  0
LINE
  8
PEN1
  6
LTY1
 10
5.650
 20
18.675
 11
7.975
 21
18.675
  0
LINE
  8
PEN1
  6
LTY1
 10
7.975
 20
-18.700
 11
7.950
 21
-18.700
  0
LINE
  8
PEN1
  6
LTY1
 10
5.650
 20
18.650
 11
5.650
 21
24.875
  0
LINE
  8
PEN1
  6
LTY1
 10
0.775
 20
17.275
 11
0.825
 21
17.275
  0
LINE
  8
PEN1
  6
LTY1
 10
0.825
 20
18.725
 11
0.825
 21
17.175
  0
LINE
  8
PEN1
  6
LTY1
 10
0.825
 20
-18.800
 11
3.425
 21
-18.800
  0
LINE
  8
PEN1
  6
LTY1
 10
3.425
 20
-18.725
 11
3.425
 21
-19.400
  0
LINE
  8
PEN1
  6
LTY1
 10
3.425
 20
-19.075
 11
0.775
 21
-19.075
  0
LINE
  8
PEN1
  6
LTY1
 10
0.775
 20
-17.350
 11
0.825
 21
-17.350
  0
LINE
  8
PEN1
  6
LTY1
 10
0.825
 20
-18.800
 11
0.825
 21
-17.300
  0
LINE
  8
PEN1
  6
LTY1
 10
5.650
 20
-19.400
 11
3.425
 21
-19.400
  0
LINE
  8
PEN1
  6
LTY1
 10
1.025
 20
22.750
 11
0.775
 21
22.750
  0
LINE
  8
PEN1
  6
LTY1
 10
1.025
 20
22.750
 11
1.025
 21
24.025
  0
LINE
  8
PEN1
  6
LTY1
 10
0.825
 20
-18.775
 11
3.425
 21
-18.775
  0
LINE
  8
PEN1
  6
LTY1
 10
3.425
 20
18.725
 11
3.425
 21
18.650
  0
LINE
  8
PEN1
  6
LTY1
 10
3.425
 20
18.675
 11
0.825
 21
18.675
  0
LINE
  8
PEN1
  6
LTY1
 10
0.850
 20
-18.700
 11
0.825
 21
-18.700
  0
LINE
  8
PEN1
  6
LTY1
 10
0.825
 20
18.575
 11
0.850
 21
18.575
  0
LINE
  8
PEN1
  6
LTY1
 10
0.025
 20
22.975
 11
1.025
 21
22.975
  0
LINE
  8
PEN1
  6
LTY1
 10
0.025
 20
23.300
 11
1.025
 21
23.300
  0
LINE
  8
PEN1
  6
LTY1
 10
7.950
 20
-17.300
 11
8.025
 21
-17.300
  0
LINE
  8
PEN1
  6
LTY1
 10
7.950
 20
-18.725
 11
7.950
 21
-17.300
  0
LINE
  8
PEN1
  6
LTY1
 10
0.850
 20
-18.725
 11
7.950
 21
-18.725
  0
LINE
  8
PEN1
  6
LTY1
 10
0.850
 20
-17.300
 11
0.850
 21
-18.725
  0
LINE
  8
PEN1
  6
LTY1
 10
0.850
 20
-17.300
 11
0.775
 21
-17.300
  0
LINE
  8
PEN1
  6
LTY1
 10
0.775
 20
17.175
 11
0.850
 21
17.175
  0
LINE
  8
PEN1
  6
LTY1
 10
0.850
 20
18.650
 11
0.850
 21
17.175
  0
LINE
  8
PEN1
  6
LTY1
 10
7.950
 20
18.650
 11
0.850
 21
18.650
  0
LINE
  8
PEN1
  6
LTY1
 10
0.025
 20
-24.625
 11
0.025
 21
24.775
  0
LINE
  8
PEN1
  6
LTY1
 10
8.775
 20
24.775
 11
8.775
 21
-24.625
  0
LINE
  8
PEN1
  6
LTY1
 10
4.425
 20
24.900
 11
2.975
 21
24.875
  0
LINE
  8
PEN1
  6
LTY1
 10
5.800
 20
24.875
 11
4.425
 21
24.900
  0
LINE
  8
PEN1
  6
LTY1
 10
8.025
 20
-24.600
 11
8.025
 21
-17.350
  0
LINE
  8
PEN1
  6
LTY1
 10
0.775
 20
24.775
 11
8.025
 21
24.775
  0
LINE
  8
PEN1
  6
LTY1
 10
8.025
 20
-24.600
 11
0.775
 21
-24.600
  0
LINE
  8
PEN1
  6
LTY1
 10
0.775
 20
22.750
 11
0.775
 21
17.275
  0
LINE
  8
PEN1
  6
LTY1
 10
0.775
 20
-17.350
 11
0.775
 21
-24.600
  0
LINE
  8
PEN1
  6
LTY1
 10
1.025
 20
24.025
 11
0.775
 21
24.025
  0
LINE
  8
PEN1
  6
LTY1
 10
0.775
 20
24.775
 11
0.775
 21
24.025
  0
LINE
  8
PEN1
  6
LTY1
 10
0.325
 20
23.850
 11
1.025
 21
23.850
  0
LINE
  8
PEN1
  6
LTY1
 10
0.850
 20
18.500
 11
7.950
 21
18.500
  0
LINE
  8
PEN1
  6
LTY1
 10
8.025
 20
17.175
 11
8.025
 21
-17.300
  0
LINE
  8
PEN1
  6
LTY1
 10
0.775
 20
17.175
 11
0.775
 21
-17.300
  0
LINE
  8
PEN1
  6
LTY1
 10
7.950
 20
18.375
 11
7.975
 21
18.375
  0
LINE
  8
PEN1
  6
LTY1
 10
7.975
 20
17.700
 11
7.950
 21
17.700
  0
LINE
  8
PEN1
  6
LTY1
 10
7.975
 20
17.275
 11
8.025
 21
17.275
  0
LINE
  8
PEN1
  6
LTY1
 10
7.975
 20
17.175
 11
7.975
 21
18.725
  0
LINE
  8
PEN1
  6
LTY1
 10
8.025
 20
22.750
 11
7.775
 21
22.750
  0
LINE
  8
PEN1
  6
LTY1
 10
7.775
 20
24.025
 11
7.775
 21
22.750
  0
LINE
  8
PEN1
  6
LTY1
 10
7.950
 20
18.575
 11
7.975
 21
18.575
  0
LINE
  8
PEN1
  6
LTY1
 10
7.775
 20
22.975
 11
8.775
 21
22.975
  0
LINE
  8
PEN1
  6
LTY1
 10
7.775
 20
23.300
 11
8.775
 21
23.300
  0
LINE
  8
PEN1
  6
LTY1
 10
7.950
 20
17.175
 11
8.025
 21
17.175
  0
LINE
  8
PEN1
  6
LTY1
 10
7.950
 20
17.175
 11
7.950
 21
18.650
  0
LINE
  8
PEN1
  6
LTY1
 10
8.025
 20
17.275
 11
8.025
 21
22.750
  0
LINE
  8
PEN1
  6
LTY1
 10
8.025
 20
24.025
 11
7.775
 21
24.025
  0
LINE
  8
PEN1
  6
LTY1
 10
8.025
 20
24.025
 11
8.025
 21
24.775
  0
LINE
  8
PEN1
  6
LTY1
 10
7.775
 20
23.850
 11
8.475
 21
23.850
  0
LINE
  8
PEN1
  6
LTY1
 10
4.425
 20
-24.750
 11
5.800
 21
-24.725
  0
LINE
  8
PEN1
  6
LTY1
 10
2.975
 20
-24.725
 11
4.425
 21
-24.750
  0
LINE
  8
PEN1
  6
LTY1
 10
7.950
 20
-17.750
 11
7.950
 21
-17.750
  0
LINE
  8
PEN1
  6
LTY1
 10
7.950
 20
-17.750
 11
7.975
 21
-17.750
  0
LINE
  8
PEN1
  6
LTY1
 10
7.975
 20
-18.500
 11
7.975
 21
-18.500
  0
LINE
  8
PEN1
  6
LTY1
 10
7.975
 20
-18.500
 11
7.950
 21
-18.500
  0
LINE
  8
PEN1
  6
LTY1
 10
0.850
 20
-18.500
 11
0.850
 21
-18.500
  0
LINE
  8
PEN1
  6
LTY1
 10
0.850
 20
-18.500
 11
0.825
 21
-18.500
  0
LINE
  8
PEN1
  6
LTY1
 10
0.825
 20
-17.750
 11
0.825
 21
-17.750
  0
LINE
  8
PEN1
  6
LTY1
 10
0.825
 20
-17.750
 11
0.850
 21
-17.750
  0
LINE
  8
PEN1
  6
LTY1
 10
0.775
 20
24.775
 11
0.775
 21
24.775
  0
LINE
  8
PEN1
  6
LTY1
 10
0.775
 20
24.775
 11
0.675
 21
24.800
  0
LINE
  8
PEN1
  6
LTY1
 10
0.675
 20
24.800
 11
0.675
 21
24.800
  0
LINE
  8
PEN1
  6
LTY1
 10
0.675
 20
24.800
 11
0.575
 21
24.850
  0
LINE
  8
PEN1
  6
LTY1
 10
0.575
 20
24.850
 11
0.575
 21
24.850
  0
LINE
  8
PEN1
  6
LTY1
 10
0.575
 20
24.850
 11
0.500
 21
24.850
  0
LINE
  8
PEN1
  6
LTY1
 10
0.500
 20
24.850
 11
0.500
 21
24.850
  0
LINE
  8
PEN1
  6
LTY1
 10
0.500
 20
24.850
 11
0.425
 21
24.875
  0
LINE
  8
PEN1
  6
LTY1
 10
0.425
 20
24.875
 11
0.375
 21
24.875
  0
LINE
  8
PEN1
  6
LTY1
 10
0.125
 20
24.875
 11
0.125
 21
24.875
  0
LINE
  8
PEN1
  6
LTY1
 10
0.125
 20
24.875
 11
0.100
 21
24.875
  0
LINE
  8
PEN1
  6
LTY1
 10
0.100
 20
24.875
 11
0.100
 21
24.875
  0
LINE
  8
PEN1
  6
LTY1
 10
0.100
 20
24.875
 11
0.075
 21
24.850
  0
LINE
  8
PEN1
  6
LTY1
 10
0.075
 20
24.850
 11
0.075
 21
24.850
  0
LINE
  8
PEN1
  6
LTY1
 10
0.075
 20
24.850
 11
0.075
 21
24.850
  0
LINE
  8
PEN1
  6
LTY1
 10
0.075
 20
24.850
 11
0.075
 21
24.850
  0
LINE
  8
PEN1
  6
LTY1
 10
0.075
 20
24.850
 11
0.050
 21
24.850
  0
LINE
  8
PEN1
  6
LTY1
 10
0.050
 20
24.850
 11
0.050
 21
24.850
  0
LINE
  8
PEN1
  6
LTY1
 10
0.050
 20
24.850
 11
0.050
 21
24.825
  0
LINE
  8
PEN1
  6
LTY1
 10
0.050
 20
24.825
 11
0.050
 21
24.825
  0
LINE
  8
PEN1
  6
LTY1
 10
0.050
 20
24.825
 11
0.050
 21
24.800
  0
LINE
  8
PEN1
  6
LTY1
 10
0.050
 20
24.800
 11
0.050
 21
24.800
  0
LINE
  8
PEN1
  6
LTY1
 10
0.050
 20
24.800
 11
0.025
 21
24.775
  0
LINE
  8
PEN1
  6
LTY1
 10
0.025
 20
24.775
 11
0.025
 21
24.775
  0
LINE
  8
PEN1
  6
LTY1
 10
0.025
 20
24.775
 11
0.025
 21
24.775
  0
LINE
  8
PEN1
  6
LTY1
 10
0.775
 20
24.025
 11
0.775
 21
24.025
  0
LINE
  8
PEN1
  6
LTY1
 10
0.775
 20
24.025
 11
0.575
 21
23.950
  0
LINE
  8
PEN1
  6
LTY1
 10
0.575
 20
23.950
 11
0.575
 21
23.950
  0
LINE
  8
PEN1
  6
LTY1
 10
0.575
 20
23.950
 11
0.450
 21
23.900
  0
LINE
  8
PEN1
  6
LTY1
 10
0.450
 20
23.900
 11
0.450
 21
23.900
  0
LINE
  8
PEN1
  6
LTY1
 10
0.450
 20
23.900
 11
0.375
 21
23.875
  0
LINE
  8
PEN1
  6
LTY1
 10
0.375
 20
23.875
 11
0.375
 21
23.875
  0
LINE
  8
PEN1
  6
LTY1
 10
0.375
 20
23.875
 11
0.325
 21
23.850
  0
LINE
  8
PEN1
  6
LTY1
 10
0.325
 20
23.850
 11
0.325
 21
23.850
  0
LINE
  8
PEN1
  6
LTY1
 10
0.325
 20
23.850
 11
0.300
 21
23.825
  0
LINE
  8
PEN1
  6
LTY1
 10
0.300
 20
23.825
 11
0.300
 21
23.825
  0
LINE
  8
PEN1
  6
LTY1
 10
0.300
 20
23.825
 11
0.250
 21
23.800
  0
LINE
  8
PEN1
  6
LTY1
 10
0.250
 20
23.800
 11
0.250
 21
23.800
  0
LINE
  8
PEN1
  6
LTY1
 10
0.250
 20
23.800
 11
0.150
 21
23.725
  0
LINE
  8
PEN1
  6
LTY1
 10
0.150
 20
23.725
 11
0.150
 21
23.725
  0
LINE
  8
PEN1
  6
LTY1
 10
0.150
 20
23.725
 11
0.075
 21
23.675
  0
LINE
  8
PEN1
  6
LTY1
 10
0.075
 20
23.675
 11
0.075
 21
23.675
  0
LINE
  8
PEN1
  6
LTY1
 10
0.075
 20
23.675
 11
0.050
 21
23.600
  0
LINE
  8
PEN1
  6
LTY1
 10
0.050
 20
23.600
 11
0.050
 21
23.600
  0
LINE
  8
PEN1
  6
LTY1
 10
0.050
 20
23.600
 11
0.025
 21
23.550
  0
LINE
  8
PEN1
  6
LTY1
 10
0.025
 20
23.550
 11
0.025
 21
23.525
  0
LINE
  8
PEN1
  6
LTY1
 10
0.775
 20
22.750
 11
0.775
 21
22.750
  0
LINE
  8
PEN1
  6
LTY1
 10
0.775
 20
22.750
 11
0.550
 21
22.750
  0
LINE
  8
PEN1
  6
LTY1
 10
0.550
 20
22.750
 11
0.550
 21
22.750
  0
LINE
  8
PEN1
  6
LTY1
 10
0.550
 20
22.750
 11
0.400
 21
22.775
  0
LINE
  8
PEN1
  6
LTY1
 10
0.400
 20
22.775
 11
0.400
 21
22.775
  0
LINE
  8
PEN1
  6
LTY1
 10
0.400
 20
22.775
 11
0.275
 21
22.800
  0
LINE
  8
PEN1
  6
LTY1
 10
0.275
 20
22.800
 11
0.275
 21
22.800
  0
LINE
  8
PEN1
  6
LTY1
 10
0.275
 20
22.800
 11
0.150
 21
22.800
  0
LINE
  8
PEN1
  6
LTY1
 10
0.150
 20
22.800
 11
0.150
 21
22.800
  0
LINE
  8
PEN1
  6
LTY1
 10
0.150
 20
22.800
 11
0.100
 21
22.825
  0
LINE
  8
PEN1
  6
LTY1
 10
0.100
 20
22.825
 11
0.100
 21
22.825
  0
LINE
  8
PEN1
  6
LTY1
 10
0.100
 20
22.825
 11
0.050
 21
22.850
  0
LINE
  8
PEN1
  6
LTY1
 10
0.050
 20
22.850
 11
0.050
 21
22.850
  0
LINE
  8
PEN1
  6
LTY1
 10
0.050
 20
22.850
 11
0.050
 21
22.875
  0
LINE
  8
PEN1
  6
LTY1
 10
0.050
 20
22.875
 11
0.050
 21
22.875
  0
LINE
  8
PEN1
  6
LTY1
 10
0.050
 20
22.875
 11
0.025
 21
22.875
  0
LINE
  8
PEN1
  6
LTY1
 10
0.025
 20
22.875
 11
0.025
 21
22.900
  0
LINE
  8
PEN1
  6
LTY1
 10
0.775
 20
18.975
 11
0.775
 21
18.975
  0
LINE
  8
PEN1
  6
LTY1
 10
0.775
 20
18.975
 11
0.575
 21
18.975
  0
LINE
  8
PEN1
  6
LTY1
 10
0.575
 20
18.975
 11
0.575
 21
18.975
  0
LINE
  8
PEN1
  6
LTY1
 10
0.575
 20
18.975
 11
0.375
 21
18.950
  0
LINE
  8
PEN1
  6
LTY1
 10
0.375
 20
18.950
 11
0.375
 21
18.950
  0
LINE
  8
PEN1
  6
LTY1
 10
0.375
 20
18.950
 11
0.300
 21
18.925
  0
LINE
  8
PEN1
  6
LTY1
 10
0.300
 20
18.925
 11
0.300
 21
18.925
  0
LINE
  8
PEN1
  6
LTY1
 10
0.300
 20
18.925
 11
0.200
 21
18.900
  0
LINE
  8
PEN1
  6
LTY1
 10
0.200
 20
18.900
 11
0.200
 21
18.900
  0
LINE
  8
PEN1
  6
LTY1
 10
0.200
 20
18.900
 11
0.125
 21
18.875
  0
LINE
  8
PEN1
  6
LTY1
 10
0.125
 20
18.875
 11
0.125
 21
18.875
  0
LINE
  8
PEN1
  6
LTY1
 10
0.125
 20
18.875
 11
0.050
 21
18.825
  0
LINE
  8
PEN1
  6
LTY1
 10
0.050
 20
18.825
 11
0.050
 21
18.825
  0
LINE
  8
PEN1
  6
LTY1
 10
0.050
 20
18.825
 11
0.050
 21
18.800
  0
LINE
  8
PEN1
  6
LTY1
 10
0.050
 20
18.800
 11
0.050
 21
18.800
  0
LINE
  8
PEN1
  6
LTY1
 10
0.050
 20
18.800
 11
0.025
 21
18.775
  0
LINE
  8
PEN1
  6
LTY1
 10
0.775
 20
17.275
 11
0.775
 21
17.275
  0
LINE
  8
PEN1
  6
LTY1
 10
0.775
 20
17.275
 11
0.700
 21
17.275
  0
LINE
  8
PEN1
  6
LTY1
 10
0.700
 20
17.275
 11
0.700
 21
17.275
  0
LINE
  8
PEN1
  6
LTY1
 10
0.700
 20
17.275
 11
0.625
 21
17.250
  0
LINE
  8
PEN1
  6
LTY1
 10
0.625
 20
17.250
 11
0.625
 21
17.250
  0
LINE
  8
PEN1
  6
LTY1
 10
0.625
 20
17.250
 11
0.500
 21
17.175
  0
LINE
  8
PEN1
  6
LTY1
 10
0.500
 20
17.175
 11
0.500
 21
17.175
  0
LINE
  8
PEN1
  6
LTY1
 10
0.500
 20
17.175
 11
0.375
 21
17.075
  0
LINE
  8
PEN1
  6
LTY1
 10
0.375
 20
17.075
 11
0.375
 21
17.075
  0
LINE
  8
PEN1
  6
LTY1
 10
0.375
 20
17.075
 11
0.275
 21
16.950
  0
LINE
  8
PEN1
  6
LTY1
 10
0.275
 20
16.950
 11
0.275
 21
16.950
  0
LINE
  8
PEN1
  6
LTY1
 10
0.275
 20
16.950
 11
0.175
 21
16.800
  0
LINE
  8
PEN1
  6
LTY1
 10
0.175
 20
16.800
 11
0.175
 21
16.800
  0
LINE
  8
PEN1
  6
LTY1
 10
0.175
 20
16.800
 11
0.125
 21
16.625
  0
LINE
  8
PEN1
  6
LTY1
 10
0.125
 20
16.625
 11
0.125
 21
16.625
  0
LINE
  8
PEN1
  6
LTY1
 10
0.125
 20
16.625
 11
0.050
 21
16.425
  0
LINE
  8
PEN1
  6
LTY1
 10
0.050
 20
16.425
 11
0.050
 21
16.425
  0
LINE
  8
PEN1
  6
LTY1
 10
0.050
 20
16.425
 11
0.050
 21
16.300
  0
LINE
  8
PEN1
  6
LTY1
 10
0.050
 20
16.300
 11
0.050
 21
16.300
  0
LINE
  8
PEN1
  6
LTY1
 10
0.050
 20
16.300
 11
0.025
 21
16.125
  0
LINE
  8
PEN1
  6
LTY1
 10
0.775
 20
17.175
 11
0.775
 21
17.175
  0
LINE
  8
PEN1
  6
LTY1
 10
0.775
 20
17.175
 11
0.700
 21
17.175
  0
LINE
  8
PEN1
  6
LTY1
 10
0.700
 20
17.175
 11
0.700
 21
17.175
  0
LINE
  8
PEN1
  6
LTY1
 10
0.700
 20
17.175
 11
0.575
 21
17.150
  0
LINE
  8
PEN1
  6
LTY1
 10
0.575
 20
17.150
 11
0.575
 21
17.150
  0
LINE
  8
PEN1
  6
LTY1
 10
0.575
 20
17.150
 11
0.475
 21
17.100
  0
LINE
  8
PEN1
  6
LTY1
 10
0.475
 20
17.100
 11
0.475
 21
17.100
  0
LINE
  8
PEN1
  6
LTY1
 10
0.475
 20
17.100
 11
0.375
 21
17.025
  0
LINE
  8
PEN1
  6
LTY1
 10
0.375
 20
17.025
 11
0.375
 21
17.025
  0
LINE
  8
PEN1
  6
LTY1
 10
0.375
 20
17.025
 11
0.275
 21
16.900
  0
LINE
  8
PEN1
  6
LTY1
 10
0.275
 20
16.900
 11
0.275
 21
16.900
  0
LINE
  8
PEN1
  6
LTY1
 10
0.275
 20
16.900
 11
0.175
 21
16.725
  0
LINE
  8
PEN1
  6
LTY1
 10
0.175
 20
16.725
 11
0.175
 21
16.725
  0
LINE
  8
PEN1
  6
LTY1
 10
0.175
 20
16.725
 11
0.125
 21
16.550
  0
LINE
  8
PEN1
  6
LTY1
 10
0.125
 20
16.550
 11
0.125
 21
16.550
  0
LINE
  8
PEN1
  6
LTY1
 10
0.125
 20
16.550
 11
0.050
 21
16.375
  0
LINE
  8
PEN1
  6
LTY1
 10
0.050
 20
16.375
 11
0.050
 21
16.375
  0
LINE
  8
PEN1
  6
LTY1
 10
0.050
 20
16.375
 11
0.050
 21
16.150
  0
LINE
  8
PEN1
  6
LTY1
 10
0.050
 20
16.150
 11
0.025
 21
16.050
  0
LINE
  8
PEN1
  6
LTY1
 10
8.025
 20
24.775
 11
8.025
 21
24.775
  0
LINE
  8
PEN1
  6
LTY1
 10
8.025
 20
24.775
 11
8.125
 21
24.800
  0
LINE
  8
PEN1
  6
LTY1
 10
8.125
 20
24.800
 11
8.125
 21
24.800
  0
LINE
  8
PEN1
  6
LTY1
 10
8.125
 20
24.800
 11
8.225
 21
24.850
  0
LINE
  8
PEN1
  6
LTY1
 10
8.225
 20
24.850
 11
8.225
 21
24.850
  0
LINE
  8
PEN1
  6
LTY1
 10
8.225
 20
24.850
 11
8.325
 21
24.850
  0
LINE
  8
PEN1
  6
LTY1
 10
8.325
 20
24.850
 11
8.325
 21
24.850
  0
LINE
  8
PEN1
  6
LTY1
 10
8.325
 20
24.850
 11
8.400
 21
24.875
  0
LINE
  8
PEN1
  6
LTY1
 10
8.400
 20
24.875
 11
8.425
 21
24.875
  0
LINE
  8
PEN1
  6
LTY1
 10
8.675
 20
24.875
 11
8.675
 21
24.875
  0
LINE
  8
PEN1
  6
LTY1
 10
8.675
 20
24.875
 11
8.700
 21
24.875
  0
LINE
  8
PEN1
  6
LTY1
 10
8.700
 20
24.875
 11
8.700
 21
24.875
  0
LINE
  8
PEN1
  6
LTY1
 10
8.700
 20
24.875
 11
8.725
 21
24.850
  0
LINE
  8
PEN1
  6
LTY1
 10
8.725
 20
24.850
 11
8.725
 21
24.850
  0
LINE
  8
PEN1
  6
LTY1
 10
8.725
 20
24.850
 11
8.750
 21
24.850
  0
LINE
  8
PEN1
  6
LTY1
 10
8.750
 20
24.850
 11
8.750
 21
24.850
  0
LINE
  8
PEN1
  6
LTY1
 10
8.750
 20
24.850
 11
8.750
 21
24.850
  0
LINE
  8
PEN1
  6
LTY1
 10
8.750
 20
24.850
 11
8.750
 21
24.850
  0
LINE
  8
PEN1
  6
LTY1
 10
8.750
 20
24.850
 11
8.750
 21
24.825
  0
LINE
  8
PEN1
  6
LTY1
 10
8.750
 20
24.825
 11
8.750
 21
24.825
  0
LINE
  8
PEN1
  6
LTY1
 10
8.750
 20
24.825
 11
8.775
 21
24.800
  0
LINE
  8
PEN1
  6
LTY1
 10
8.775
 20
24.800
 11
8.775
 21
24.800
  0
LINE
  8
PEN1
  6
LTY1
 10
8.775
 20
24.800
 11
8.775
 21
24.775
  0
LINE
  8
PEN1
  6
LTY1
 10
8.775
 20
24.775
 11
8.775
 21
24.775
  0
LINE
  8
PEN1
  6
LTY1
 10
8.775
 20
24.775
 11
8.775
 21
24.775
  0
LINE
  8
PEN1
  6
LTY1
 10
8.025
 20
24.025
 11
8.025
 21
24.025
  0
LINE
  8
PEN1
  6
LTY1
 10
8.025
 20
24.025
 11
8.225
 21
23.950
  0
LINE
  8
PEN1
  6
LTY1
 10
8.225
 20
23.950
 11
8.225
 21
23.950
  0
LINE
  8
PEN1
  6
LTY1
 10
8.225
 20
23.950
 11
8.350
 21
23.900
  0
LINE
  8
PEN1
  6
LTY1
 10
8.350
 20
23.900
 11
8.350
 21
23.900
  0
LINE
  8
PEN1
  6
LTY1
 10
8.350
 20
23.900
 11
8.425
 21
23.875
  0
LINE
  8
PEN1
  6
LTY1
 10
8.425
 20
23.875
 11
8.425
 21
23.875
  0
LINE
  8
PEN1
  6
LTY1
 10
8.425
 20
23.875
 11
8.475
 21
23.850
  0
LINE
  8
PEN1
  6
LTY1
 10
8.475
 20
23.850
 11
8.475
 21
23.850
  0
LINE
  8
PEN1
  6
LTY1
 10
8.475
 20
23.850
 11
8.525
 21
23.825
  0
LINE
  8
PEN1
  6
LTY1
 10
8.525
 20
23.825
 11
8.525
 21
23.825
  0
LINE
  8
PEN1
  6
LTY1
 10
8.525
 20
23.825
 11
8.575
 21
23.800
  0
LINE
  8
PEN1
  6
LTY1
 10
8.575
 20
23.800
 11
8.575
 21
23.800
  0
LINE
  8
PEN1
  6
LTY1
 10
8.575
 20
23.800
 11
8.650
 21
23.725
  0
LINE
  8
PEN1
  6
LTY1
 10
8.650
 20
23.725
 11
8.650
 21
23.725
  0
LINE
  8
PEN1
  6
LTY1
 10
8.650
 20
23.725
 11
8.725
 21
23.675
  0
LINE
  8
PEN1
  6
LTY1
 10
8.725
 20
23.675
 11
8.725
 21
23.675
  0
LINE
  8
PEN1
  6
LTY1
 10
8.725
 20
23.675
 11
8.750
 21
23.600
  0
LINE
  8
PEN1
  6
LTY1
 10
8.750
 20
23.600
 11
8.750
 21
23.600
  0
LINE
  8
PEN1
  6
LTY1
 10
8.750
 20
23.600
 11
8.775
 21
23.550
  0
LINE
  8
PEN1
  6
LTY1
 10
8.775
 20
23.550
 11
8.775
 21
23.525
  0
LINE
  8
PEN1
  6
LTY1
 10
8.025
 20
22.750
 11
8.025
 21
22.750
  0
LINE
  8
PEN1
  6
LTY1
 10
8.025
 20
22.750
 11
8.250
 21
22.750
  0
LINE
  8
PEN1
  6
LTY1
 10
8.250
 20
22.750
 11
8.250
 21
22.750
  0
LINE
  8
PEN1
  6
LTY1
 10
8.250
 20
22.750
 11
8.425
 21
22.775
  0
LINE
  8
PEN1
  6
LTY1
 10
8.425
 20
22.775
 11
8.425
 21
22.775
  0
LINE
  8
PEN1
  6
LTY1
 10
8.425
 20
22.775
 11
8.550
 21
22.800
  0
LINE
  8
PEN1
  6
LTY1
 10
8.550
 20
22.800
 11
8.550
 21
22.800
  0
LINE
  8
PEN1
  6
LTY1
 10
8.550
 20
22.800
 11
8.650
 21
22.800
  0
LINE
  8
PEN1
  6
LTY1
 10
8.650
 20
22.800
 11
8.650
 21
22.800
  0
LINE
  8
PEN1
  6
LTY1
 10
8.650
 20
22.800
 11
8.725
 21
22.825
  0
LINE
  8
PEN1
  6
LTY1
 10
8.725
 20
22.825
 11
8.725
 21
22.825
  0
LINE
  8
PEN1
  6
LTY1
 10
8.725
 20
22.825
 11
8.750
 21
22.850
  0
LINE
  8
PEN1
  6
LTY1
 10
8.750
 20
22.850
 11
8.750
 21
22.850
  0
LINE
  8
PEN1
  6
LTY1
 10
8.750
 20
22.850
 11
8.775
 21
22.875
  0
LINE
  8
PEN1
  6
LTY1
 10
8.775
 20
22.875
 11
8.775
 21
22.875
  0
LINE
  8
PEN1
  6
LTY1
 10
8.775
 20
22.875
 11
8.775
 21
22.875
  0
LINE
  8
PEN1
  6
LTY1
 10
8.775
 20
22.875
 11
8.775
 21
22.900
  0
LINE
  8
PEN1
  6
LTY1
 10
8.025
 20
18.975
 11
8.025
 21
18.975
  0
LINE
  8
PEN1
  6
LTY1
 10
8.025
 20
18.975
 11
8.225
 21
18.975
  0
LINE
  8
PEN1
  6
LTY1
 10
8.225
 20
18.975
 11
8.225
 21
18.975
  0
LINE
  8
PEN1
  6
LTY1
 10
8.225
 20
18.975
 11
8.425
 21
18.950
  0
LINE
  8
PEN1
  6
LTY1
 10
8.425
 20
18.950
 11
8.425
 21
18.950
  0
LINE
  8
PEN1
  6
LTY1
 10
8.425
 20
18.950
 11
8.525
 21
18.925
  0
LINE
  8
PEN1
  6
LTY1
 10
8.525
 20
18.925
 11
8.525
 21
18.925
  0
LINE
  8
PEN1
  6
LTY1
 10
8.525
 20
18.925
 11
8.625
 21
18.900
  0
LINE
  8
PEN1
  6
LTY1
 10
8.625
 20
18.900
 11
8.625
 21
18.900
  0
LINE
  8
PEN1
  6
LTY1
 10
8.625
 20
18.900
 11
8.700
 21
18.875
  0
LINE
  8
PEN1
  6
LTY1
 10
8.700
 20
18.875
 11
8.700
 21
18.875
  0
LINE
  8
PEN1
  6
LTY1
 10
8.700
 20
18.875
 11
8.750
 21
18.825
  0
LINE
  8
PEN1
  6
LTY1
 10
8.750
 20
18.825
 11
8.750
 21
18.825
  0
LINE
  8
PEN1
  6
LTY1
 10
8.750
 20
18.825
 11
8.775
 21
18.800
  0
LINE
  8
PEN1
  6
LTY1
 10
8.775
 20
18.800
 11
8.775
 21
18.800
  0
LINE
  8
PEN1
  6
LTY1
 10
8.775
 20
18.800
 11
8.775
 21
18.775
  0
LINE
  8
PEN1
  6
LTY1
 10
8.025
 20
17.275
 11
8.025
 21
17.275
  0
LINE
  8
PEN1
  6
LTY1
 10
8.025
 20
17.275
 11
8.100
 21
17.275
  0
LINE
  8
PEN1
  6
LTY1
 10
8.100
 20
17.275
 11
8.100
 21
17.275
  0
LINE
  8
PEN1
  6
LTY1
 10
8.100
 20
17.275
 11
8.175
 21
17.250
  0
LINE
  8
PEN1
  6
LTY1
 10
8.175
 20
17.250
 11
8.175
 21
17.250
  0
LINE
  8
PEN1
  6
LTY1
 10
8.175
 20
17.250
 11
8.300
 21
17.175
  0
LINE
  8
PEN1
  6
LTY1
 10
8.300
 20
17.175
 11
8.300
 21
17.175
  0
LINE
  8
PEN1
  6
LTY1
 10
8.300
 20
17.175
 11
8.425
 21
17.075
  0
LINE
  8
PEN1
  6
LTY1
 10
8.425
 20
17.075
 11
8.425
 21
17.075
  0
LINE
  8
PEN1
  6
LTY1
 10
8.425
 20
17.075
 11
8.550
 21
16.950
  0
LINE
  8
PEN1
  6
LTY1
 10
8.550
 20
16.950
 11
8.550
 21
16.950
  0
LINE
  8
PEN1
  6
LTY1
 10
8.550
 20
16.950
 11
8.625
 21
16.800
  0
LINE
  8
PEN1
  6
LTY1
 10
8.625
 20
16.800
 11
8.625
 21
16.800
  0
LINE
  8
PEN1
  6
LTY1
 10
8.625
 20
16.800
 11
8.700
 21
16.625
  0
LINE
  8
PEN1
  6
LTY1
 10
8.700
 20
16.625
 11
8.700
 21
16.625
  0
LINE
  8
PEN1
  6
LTY1
 10
8.700
 20
16.625
 11
8.750
 21
16.425
  0
LINE
  8
PEN1
  6
LTY1
 10
8.750
 20
16.425
 11
8.750
 21
16.425
  0
LINE
  8
PEN1
  6
LTY1
 10
8.750
 20
16.425
 11
8.775
 21
16.300
  0
LINE
  8
PEN1
  6
LTY1
 10
8.775
 20
16.300
 11
8.775
 21
16.300
  0
LINE
  8
PEN1
  6
LTY1
 10
8.775
 20
16.300
 11
8.775
 21
16.125
  0
LINE
  8
PEN1
  6
LTY1
 10
8.025
 20
17.175
 11
8.025
 21
17.175
  0
LINE
  8
PEN1
  6
LTY1
 10
8.025
 20
17.175
 11
8.100
 21
17.175
  0
LINE
  8
PEN1
  6
LTY1
 10
8.100
 20
17.175
 11
8.100
 21
17.175
  0
LINE
  8
PEN1
  6
LTY1
 10
8.100
 20
17.175
 11
8.225
 21
17.150
  0
LINE
  8
PEN1
  6
LTY1
 10
8.225
 20
17.150
 11
8.225
 21
17.150
  0
LINE
  8
PEN1
  6
LTY1
 10
8.225
 20
17.150
 11
8.325
 21
17.100
  0
LINE
  8
PEN1
  6
LTY1
 10
8.325
 20
17.100
 11
8.325
 21
17.100
  0
LINE
  8
PEN1
  6
LTY1
 10
8.325
 20
17.100
 11
8.425
 21
17.025
  0
LINE
  8
PEN1
  6
LTY1
 10
8.425
 20
17.025
 11
8.425
 21
17.025
  0
LINE
  8
PEN1
  6
LTY1
 10
8.425
 20
17.025
 11
8.525
 21
16.900
  0
LINE
  8
PEN1
  6
LTY1
 10
8.525
 20
16.900
 11
8.525
 21
16.900
  0
LINE
  8
PEN1
  6
LTY1
 10
8.525
 20
16.900
 11
8.625
 21
16.725
  0
LINE
  8
PEN1
  6
LTY1
 10
8.625
 20
16.725
 11
8.625
 21
16.725
  0
LINE
  8
PEN1
  6
LTY1
 10
8.625
 20
16.725
 11
8.700
 21
16.550
  0
LINE
  8
PEN1
  6
LTY1
 10
8.700
 20
16.550
 11
8.700
 21
16.550
  0
LINE
  8
PEN1
  6
LTY1
 10
8.700
 20
16.550
 11
8.750
 21
16.375
  0
LINE
  8
PEN1
  6
LTY1
 10
8.750
 20
16.375
 11
8.750
 21
16.375
  0
LINE
  8
PEN1
  6
LTY1
 10
8.750
 20
16.375
 11
8.775
 21
16.150
  0
LINE
  8
PEN1
  6
LTY1
 10
8.775
 20
16.150
 11
8.775
 21
16.050
  0
LINE
  8
PEN1
  6
LTY1
 10
8.025
 20
-24.600
 11
8.025
 21
-24.600
  0
LINE
  8
PEN1
  6
LTY1
 10
8.025
 20
-24.600
 11
8.125
 21
-24.650
  0
LINE
  8
PEN1
  6
LTY1
 10
8.125
 20
-24.650
 11
8.125
 21
-24.650
  0
LINE
  8
PEN1
  6
LTY1
 10
8.125
 20
-24.650
 11
8.225
 21
-24.675
  0
LINE
  8
PEN1
  6
LTY1
 10
8.225
 20
-24.675
 11
8.225
 21
-24.675
  0
LINE
  8
PEN1
  6
LTY1
 10
8.225
 20
-24.675
 11
8.325
 21
-24.700
  0
LINE
  8
PEN1
  6
LTY1
 10
8.325
 20
-24.700
 11
8.325
 21
-24.700
  0
LINE
  8
PEN1
  6
LTY1
 10
8.325
 20
-24.700
 11
8.400
 21
-24.725
  0
LINE
  8
PEN1
  6
LTY1
 10
8.400
 20
-24.725
 11
8.425
 21
-24.725
  0
LINE
  8
PEN1
  6
LTY1
 10
8.675
 20
-24.725
 11
8.675
 21
-24.725
  0
LINE
  8
PEN1
  6
LTY1
 10
8.675
 20
-24.725
 11
8.700
 21
-24.725
  0
LINE
  8
PEN1
  6
LTY1
 10
8.700
 20
-24.725
 11
8.700
 21
-24.725
  0
LINE
  8
PEN1
  6
LTY1
 10
8.700
 20
-24.725
 11
8.725
 21
-24.700
  0
LINE
  8
PEN1
  6
LTY1
 10
8.725
 20
-24.700
 11
8.725
 21
-24.700
  0
LINE
  8
PEN1
  6
LTY1
 10
8.725
 20
-24.700
 11
8.750
 21
-24.700
  0
LINE
  8
PEN1
  6
LTY1
 10
8.750
 20
-24.700
 11
8.750
 21
-24.700
  0
LINE
  8
PEN1
  6
LTY1
 10
8.750
 20
-24.700
 11
8.750
 21
-24.675
  0
LINE
  8
PEN1
  6
LTY1
 10
8.750
 20
-24.675
 11
8.750
 21
-24.675
  0
LINE
  8
PEN1
  6
LTY1
 10
8.750
 20
-24.675
 11
8.750
 21
-24.675
  0
LINE
  8
PEN1
  6
LTY1
 10
8.750
 20
-24.675
 11
8.750
 21
-24.675
  0
LINE
  8
PEN1
  6
LTY1
 10
8.750
 20
-24.675
 11
8.775
 21
-24.675
  0
LINE
  8
PEN1
  6
LTY1
 10
8.775
 20
-24.675
 11
8.775
 21
-24.675
  0
LINE
  8
PEN1
  6
LTY1
 10
8.775
 20
-24.675
 11
8.775
 21
-24.650
  0
LINE
  8
PEN1
  6
LTY1
 10
8.775
 20
-24.650
 11
8.775
 21
-24.650
  0
LINE
  8
PEN1
  6
LTY1
 10
8.775
 20
-24.650
 11
8.775
 21
-24.625
  0
LINE
  8
PEN1
  6
LTY1
 10
8.025
 20
-19.075
 11
8.025
 21
-19.075
  0
LINE
  8
PEN1
  6
LTY1
 10
8.025
 20
-19.075
 11
8.225
 21
-19.075
  0
LINE
  8
PEN1
  6
LTY1
 10
8.225
 20
-19.075
 11
8.225
 21
-19.075
  0
LINE
  8
PEN1
  6
LTY1
 10
8.225
 20
-19.075
 11
8.425
 21
-19.050
  0
LINE
  8
PEN1
  6
LTY1
 10
8.425
 20
-19.050
 11
8.425
 21
-19.050
  0
LINE
  8
PEN1
  6
LTY1
 10
8.425
 20
-19.050
 11
8.525
 21
-19.025
  0
LINE
  8
PEN1
  6
LTY1
 10
8.525
 20
-19.025
 11
8.525
 21
-19.025
  0
LINE
  8
PEN1
  6
LTY1
 10
8.525
 20
-19.025
 11
8.625
 21
-19.000
  0
LINE
  8
PEN1
  6
LTY1
 10
8.625
 20
-19.000
 11
8.625
 21
-19.000
  0
LINE
  8
PEN1
  6
LTY1
 10
8.625
 20
-19.000
 11
8.700
 21
-18.975
  0
LINE
  8
PEN1
  6
LTY1
 10
8.700
 20
-18.975
 11
8.700
 21
-18.975
  0
LINE
  8
PEN1
  6
LTY1
 10
8.700
 20
-18.975
 11
8.750
 21
-18.925
  0
LINE
  8
PEN1
  6
LTY1
 10
8.750
 20
-18.925
 11
8.750
 21
-18.925
  0
LINE
  8
PEN1
  6
LTY1
 10
8.750
 20
-18.925
 11
8.775
 21
-18.875
  0
LINE
  8
PEN1
  6
LTY1
 10
8.775
 20
-18.875
 11
8.775
 21
-18.875
  0
LINE
  8
PEN1
  6
LTY1
 10
8.775
 20
-18.875
 11
8.775
 21
-18.875
  0
LINE
  8
PEN1
  6
LTY1
 10
8.025
 20
-17.350
 11
8.025
 21
-17.350
  0
LINE
  8
PEN1
  6
LTY1
 10
8.025
 20
-17.350
 11
8.100
 21
-17.350
  0
LINE
  8
PEN1
  6
LTY1
 10
8.100
 20
-17.350
 11
8.100
 21
-17.350
  0
LINE
  8
PEN1
  6
LTY1
 10
8.100
 20
-17.350
 11
8.175
 21
-17.325
  0
LINE
  8
PEN1
  6
LTY1
 10
8.175
 20
-17.325
 11
8.175
 21
-17.325
  0
LINE
  8
PEN1
  6
LTY1
 10
8.175
 20
-17.325
 11
8.300
 21
-17.275
  0
LINE
  8
PEN1
  6
LTY1
 10
8.300
 20
-17.275
 11
8.300
 21
-17.275
  0
LINE
  8
PEN1
  6
LTY1
 10
8.300
 20
-17.275
 11
8.425
 21
-17.175
  0
LINE
  8
PEN1
  6
LTY1
 10
8.425
 20
-17.175
 11
8.425
 21
-17.175
  0
LINE
  8
PEN1
  6
LTY1
 10
8.425
 20
-17.175
 11
8.550
 21
-17.050
  0
LINE
  8
PEN1
  6
LTY1
 10
8.550
 20
-17.050
 11
8.550
 21
-17.050
  0
LINE
  8
PEN1
  6
LTY1
 10
8.550
 20
-17.050
 11
8.625
 21
-16.900
  0
LINE
  8
PEN1
  6
LTY1
 10
8.625
 20
-16.900
 11
8.625
 21
-16.900
  0
LINE
  8
PEN1
  6
LTY1
 10
8.625
 20
-16.900
 11
8.700
 21
-16.750
  0
LINE
  8
PEN1
  6
LTY1
 10
8.700
 20
-16.750
 11
8.700
 21
-16.750
  0
LINE
  8
PEN1
  6
LTY1
 10
8.700
 20
-16.750
 11
8.750
 21
-16.525
  0
LINE
  8
PEN1
  6
LTY1
 10
8.750
 20
-16.525
 11
8.750
 21
-16.525
  0
LINE
  8
PEN1
  6
LTY1
 10
8.750
 20
-16.525
 11
8.775
 21
-16.400
  0
LINE
  8
PEN1
  6
LTY1
 10
8.775
 20
-16.400
 11
8.775
 21
-16.400
  0
LINE
  8
PEN1
  6
LTY1
 10
8.775
 20
-16.400
 11
8.775
 21
-16.200
  0
LINE
  8
PEN1
  6
LTY1
 10
8.025
 20
-17.300
 11
8.025
 21
-17.300
  0
LINE
  8
PEN1
  6
LTY1
 10
8.025
 20
-17.300
 11
8.100
 21
-17.275
  0
LINE
  8
PEN1
  6
LTY1
 10
8.100
 20
-17.275
 11
8.100
 21
-17.275
  0
LINE
  8
PEN1
  6
LTY1
 10
8.100
 20
-17.275
 11
8.225
 21
-17.250
  0
LINE
  8
PEN1
  6
LTY1
 10
8.225
 20
-17.250
 11
8.225
 21
-17.250
  0
LINE
  8
PEN1
  6
LTY1
 10
8.225
 20
-17.250
 11
8.325
 21
-17.200
  0
LINE
  8
PEN1
  6
LTY1
 10
8.325
 20
-17.200
 11
8.325
 21
-17.200
  0
LINE
  8
PEN1
  6
LTY1
 10
8.325
 20
-17.200
 11
8.425
 21
-17.100
  0
LINE
  8
PEN1
  6
LTY1
 10
8.425
 20
-17.100
 11
8.425
 21
-17.100
  0
LINE
  8
PEN1
  6
LTY1
 10
8.425
 20
-17.100
 11
8.525
 21
-17.000
  0
LINE
  8
PEN1
  6
LTY1
 10
8.525
 20
-17.000
 11
8.525
 21
-17.000
  0
LINE
  8
PEN1
  6
LTY1
 10
8.525
 20
-17.000
 11
8.625
 21
-16.850
  0
LINE
  8
PEN1
  6
LTY1
 10
8.625
 20
-16.850
 11
8.625
 21
-16.850
  0
LINE
  8
PEN1
  6
LTY1
 10
8.625
 20
-16.850
 11
8.700
 21
-16.675
  0
LINE
  8
PEN1
  6
LTY1
 10
8.700
 20
-16.675
 11
8.700
 21
-16.675
  0
LINE
  8
PEN1
  6
LTY1
 10
8.700
 20
-16.675
 11
8.750
 21
-16.475
  0
LINE
  8
PEN1
  6
LTY1
 10
8.750
 20
-16.475
 11
8.750
 21
-16.475
  0
LINE
  8
PEN1
  6
LTY1
 10
8.750
 20
-16.475
 11
8.775
 21
-16.275
  0
LINE
  8
PEN1
  6
LTY1
 10
8.775
 20
-16.275
 11
8.775
 21
-16.125
  0
LINE
  8
PEN1
  6
LTY1
 10
0.775
 20
-24.600
 11
0.775
 21
-24.600
  0
LINE
  8
PEN1
  6
LTY1
 10
0.775
 20
-24.600
 11
0.675
 21
-24.650
  0
LINE
  8
PEN1
  6
LTY1
 10
0.675
 20
-24.650
 11
0.675
 21
-24.650
  0
LINE
  8
PEN1
  6
LTY1
 10
0.675
 20
-24.650
 11
0.575
 21
-24.675
  0
LINE
  8
PEN1
  6
LTY1
 10
0.575
 20
-24.675
 11
0.575
 21
-24.675
  0
LINE
  8
PEN1
  6
LTY1
 10
0.575
 20
-24.675
 11
0.500
 21
-24.700
  0
LINE
  8
PEN1
  6
LTY1
 10
0.500
 20
-24.700
 11
0.500
 21
-24.700
  0
LINE
  8
PEN1
  6
LTY1
 10
0.500
 20
-24.700
 11
0.425
 21
-24.725
  0
LINE
  8
PEN1
  6
LTY1
 10
0.425
 20
-24.725
 11
0.375
 21
-24.725
  0
LINE
  8
PEN1
  6
LTY1
 10
0.125
 20
-24.725
 11
0.125
 21
-24.725
  0
LINE
  8
PEN1
  6
LTY1
 10
0.125
 20
-24.725
 11
0.100
 21
-24.725
  0
LINE
  8
PEN1
  6
LTY1
 10
0.100
 20
-24.725
 11
0.100
 21
-24.725
  0
LINE
  8
PEN1
  6
LTY1
 10
0.100
 20
-24.725
 11
0.075
 21
-24.700
  0
LINE
  8
PEN1
  6
LTY1
 10
0.075
 20
-24.700
 11
0.075
 21
-24.700
  0
LINE
  8
PEN1
  6
LTY1
 10
0.075
 20
-24.700
 11
0.075
 21
-24.700
  0
LINE
  8
PEN1
  6
LTY1
 10
0.075
 20
-24.700
 11
0.075
 21
-24.700
  0
LINE
  8
PEN1
  6
LTY1
 10
0.075
 20
-24.700
 11
0.050
 21
-24.675
  0
LINE
  8
PEN1
  6
LTY1
 10
0.050
 20
-24.675
 11
0.050
 21
-24.675
  0
LINE
  8
PEN1
  6
LTY1
 10
0.050
 20
-24.675
 11
0.050
 21
-24.675
  0
LINE
  8
PEN1
  6
LTY1
 10
0.050
 20
-24.675
 11
0.050
 21
-24.675
  0
LINE
  8
PEN1
  6
LTY1
 10
0.050
 20
-24.675
 11
0.050
 21
-24.675
  0
LINE
  8
PEN1
  6
LTY1
 10
0.050
 20
-24.675
 11
0.050
 21
-24.675
  0
LINE
  8
PEN1
  6
LTY1
 10
0.050
 20
-24.675
 11
0.025
 21
-24.650
  0
LINE
  8
PEN1
  6
LTY1
 10
0.025
 20
-24.650
 11
0.025
 21
-24.650
  0
LINE
  8
PEN1
  6
LTY1
 10
0.025
 20
-24.650
 11
0.025
 21
-24.625
  0
LINE
  8
PEN1
  6
LTY1
 10
0.775
 20
-19.075
 11
0.775
 21
-19.075
  0
LINE
  8
PEN1
  6
LTY1
 10
0.775
 20
-19.075
 11
0.575
 21
-19.075
  0
LINE
  8
PEN1
  6
LTY1
 10
0.575
 20
-19.075
 11
0.575
 21
-19.075
  0
LINE
  8
PEN1
  6
LTY1
 10
0.575
 20
-19.075
 11
0.375
 21
-19.050
  0
LINE
  8
PEN1
  6
LTY1
 10
0.375
 20
-19.050
 11
0.375
 21
-19.050
  0
LINE
  8
PEN1
  6
LTY1
 10
0.375
 20
-19.050
 11
0.300
 21
-19.025
  0
LINE
  8
PEN1
  6
LTY1
 10
0.300
 20
-19.025
 11
0.300
 21
-19.025
  0
LINE
  8
PEN1
  6
LTY1
 10
0.300
 20
-19.025
 11
0.200
 21
-19.000
  0
LINE
  8
PEN1
  6
LTY1
 10
0.200
 20
-19.000
 11
0.200
 21
-19.000
  0
LINE
  8
PEN1
  6
LTY1
 10
0.200
 20
-19.000
 11
0.125
 21
-18.975
  0
LINE
  8
PEN1
  6
LTY1
 10
0.125
 20
-18.975
 11
0.125
 21
-18.975
  0
LINE
  8
PEN1
  6
LTY1
 10
0.125
 20
-18.975
 11
0.050
 21
-18.925
  0
LINE
  8
PEN1
  6
LTY1
 10
0.050
 20
-18.925
 11
0.050
 21
-18.925
  0
LINE
  8
PEN1
  6
LTY1
 10
0.050
 20
-18.925
 11
0.050
 21
-18.875
  0
LINE
  8
PEN1
  6
LTY1
 10
0.050
 20
-18.875
 11
0.050
 21
-18.875
  0
LINE
  8
PEN1
  6
LTY1
 10
0.050
 20
-18.875
 11
0.025
 21
-18.875
  0
LINE
  8
PEN1
  6
LTY1
 10
0.775
 20
-17.350
 11
0.775
 21
-17.350
  0
LINE
  8
PEN1
  6
LTY1
 10
0.775
 20
-17.350
 11
0.700
 21
-17.350
  0
LINE
  8
PEN1
  6
LTY1
 10
0.700
 20
-17.350
 11
0.700
 21
-17.350
  0
LINE
  8
PEN1
  6
LTY1
 10
0.700
 20
-17.350
 11
0.625
 21
-17.325
  0
LINE
  8
PEN1
  6
LTY1
 10
0.625
 20
-17.325
 11
0.625
 21
-17.325
  0
LINE
  8
PEN1
  6
LTY1
 10
0.625
 20
-17.325
 11
0.500
 21
-17.275
  0
LINE
  8
PEN1
  6
LTY1
 10
0.500
 20
-17.275
 11
0.500
 21
-17.275
  0
LINE
  8
PEN1
  6
LTY1
 10
0.500
 20
-17.275
 11
0.375
 21
-17.175
  0
LINE
  8
PEN1
  6
LTY1
 10
0.375
 20
-17.175
 11
0.375
 21
-17.175
  0
LINE
  8
PEN1
  6
LTY1
 10
0.375
 20
-17.175
 11
0.275
 21
-17.050
  0
LINE
  8
PEN1
  6
LTY1
 10
0.275
 20
-17.050
 11
0.275
 21
-17.050
  0
LINE
  8
PEN1
  6
LTY1
 10
0.275
 20
-17.050
 11
0.175
 21
-16.900
  0
LINE
  8
PEN1
  6
LTY1
 10
0.175
 20
-16.900
 11
0.175
 21
-16.900
  0
LINE
  8
PEN1
  6
LTY1
 10
0.175
 20
-16.900
 11
0.125
 21
-16.750
  0
LINE
  8
PEN1
  6
LTY1
 10
0.125
 20
-16.750
 11
0.125
 21
-16.750
  0
LINE
  8
PEN1
  6
LTY1
 10
0.125
 20
-16.750
 11
0.050
 21
-16.525
  0
LINE
  8
PEN1
  6
LTY1
 10
0.050
 20
-16.525
 11
0.050
 21
-16.525
  0
LINE
  8
PEN1
  6
LTY1
 10
0.050
 20
-16.525
 11
0.050
 21
-16.400
  0
LINE
  8
PEN1
  6
LTY1
 10
0.050
 20
-16.400
 11
0.050
 21
-16.400
  0
LINE
  8
PEN1
  6
LTY1
 10
0.050
 20
-16.400
 11
0.025
 21
-16.200
  0
LINE
  8
PEN1
  6
LTY1
 10
0.775
 20
-17.300
 11
0.775
 21
-17.300
  0
LINE
  8
PEN1
  6
LTY1
 10
0.775
 20
-17.300
 11
0.700
 21
-17.275
  0
LINE
  8
PEN1
  6
LTY1
 10
0.700
 20
-17.275
 11
0.700
 21
-17.275
  0
LINE
  8
PEN1
  6
LTY1
 10
0.700
 20
-17.275
 11
0.575
 21
-17.250
  0
LINE
  8
PEN1
  6
LTY1
 10
0.575
 20
-17.250
 11
0.575
 21
-17.250
  0
LINE
  8
PEN1
  6
LTY1
 10
0.575
 20
-17.250
 11
0.475
 21
-17.200
  0
LINE
  8
PEN1
  6
LTY1
 10
0.475
 20
-17.200
 11
0.475
 21
-17.200
  0
LINE
  8
PEN1
  6
LTY1
 10
0.475
 20
-17.200
 11
0.375
 21
-17.100
  0
LINE
  8
PEN1
  6
LTY1
 10
0.375
 20
-17.100
 11
0.375
 21
-17.100
  0
LINE
  8
PEN1
  6
LTY1
 10
0.375
 20
-17.100
 11
0.275
 21
-17.000
  0
LINE
  8
PEN1
  6
LTY1
 10
0.275
 20
-17.000
 11
0.275
 21
-17.000
  0
LINE
  8
PEN1
  6
LTY1
 10
0.275
 20
-17.000
 11
0.175
 21
-16.850
  0
LINE
  8
PEN1
  6
LTY1
 10
0.175
 20
-16.850
 11
0.175
 21
-16.850
  0
LINE
  8
PEN1
  6
LTY1
 10
0.175
 20
-16.850
 11
0.125
 21
-16.675
  0
LINE
  8
PEN1
  6
LTY1
 10
0.125
 20
-16.675
 11
0.125
 21
-16.675
  0
LINE
  8
PEN1
  6
LTY1
 10
0.125
 20
-16.675
 11
0.050
 21
-16.475
  0
LINE
  8
PEN1
  6
LTY1
 10
0.050
 20
-16.475
 11
0.050
 21
-16.475
  0
LINE
  8
PEN1
  6
LTY1
 10
0.050
 20
-16.475
 11
0.050
 21
-16.275
  0
LINE
  8
PEN1
  6
LTY1
 10
0.050
 20
-16.275
 11
0.025
 21
-16.125
  0
ATTDEF
  2
CODE_4
  3
BMK
 70
8
  8
PEN4
  7
NORMSCHRIFT
 10
6.975
 20
-13.800
 72
2
 11
6.975
 21
-13.800
 40
1.800
 51
0.000
 50
0.000
  1

  0
ATTDEF
  2
CODE_51
  3
Text - Typ
 70
8
  8
PEN4
  7
NORMSCHRIFT
 10
2.000
 20
-18.750
 72
1
 11
4.600
 21
-18.750
 40
2.000
 51
0.000
 50
0.000
  1
9170
  0
ENDBLK
999
############################################################
999
# BLOCK STAHL94          STAHL94                           #
999
############################################################
  0
BLOCK
  8
0
  2
STAHL94
 10
0.000
 20
0.000
 70
0
  0
LINE
  8
PEN1
  6
LTY1
 10
18.175
 20
18.175
 11
0.000
 21
18.175
  0
LINE
  8
PEN1
  6
LTY1
 10
0.000
 20
18.175
 11
0.000
 21
9.075
  0
LINE
  8
PEN1
  6
LTY1
 10
0.000
 20
9.075
 11
0.625
 21
9.075
  0
LINE
  8
PEN1
  6
LTY1
 10
0.625
 20
9.075
 11
0.625
 21
11.825
  0
LINE
  8
PEN1
  6
LTY1
 10
0.625
 20
11.825
 11
4.400
 21
14.025
  0
LINE
  8
PEN1
  6
LTY1
 10
4.400
 20
14.025
 11
13.775
 21
14.025
  0
LINE
  8
PEN1
  6
LTY1
 10
13.775
 20
14.025
 11
17.525
 21
11.825
  0
LINE
  8
PEN1
  6
LTY1
 10
17.525
 20
11.825
 11
17.525
 21
6.350
  0
LINE
  8
PEN1
  6
LTY1
 10
17.525
 20
6.350
 11
13.775
 21
4.150
  0
LINE
  8
PEN1
  6
LTY1
 10
13.775
 20
4.150
 11
4.400
 21
4.150
  0
LINE
  8
PEN1
  6
LTY1
 10
4.400
 20
4.150
 11
0.625
 21
6.350
  0
LINE
  8
PEN1
  6
LTY1
 10
0.625
 20
6.350
 11
0.625
 21
9.075
  0
LINE
  8
PEN1
  6
LTY1
 10
0.625
 20
9.075
 11
0.000
 21
9.075
  0
LINE
  8
PEN1
  6
LTY1
 10
0.000
 20
9.075
 11
0.000
 21
0.000
  0
LINE
  8
PEN1
  6
LTY1
 10
0.000
 20
0.000
 11
18.175
 21
0.000
  0
LINE
  8
PEN1
  6
LTY1
 10
18.175
 20
0.000
 11
18.175
 21
18.175
  0
LINE
  8
PEN1
  6
LTY1
 10
0.000
 20
0.225
 11
18.175
 21
0.225
  0
LINE
  8
PEN1
  6
LTY1
 10
0.000
 20
0.450
 11
18.175
 21
0.450
  0
LINE
  8
PEN1
  6
LTY1
 10
0.000
 20
0.675
 11
18.175
 21
0.675
  0
LINE
  8
PEN1
  6
LTY1
 10
0.000
 20
0.900
 11
18.175
 21
0.900
  0
LINE
  8
PEN1
  6
LTY1
 10
0.000
 20
1.125
 11
18.175
 21
1.125
  0
LINE
  8
PEN1
  6
LTY1
 10
0.000
 20
1.350
 11
18.175
 21
1.350
  0
LINE
  8
PEN1
  6
LTY1
 10
0.000
 20
1.575
 11
18.175
 21
1.575
  0
LINE
  8
PEN1
  6
LTY1
 10
0.000
 20
1.800
 11
18.175
 21
1.800
  0
LINE
  8
PEN1
  6
LTY1
 10
0.000
 20
2.025
 11
18.175
 21
2.025
  0
LINE
  8
PEN1
  6
LTY1
 10
0.000
 20
2.250
 11
18.175
 21
2.250
  0
LINE
  8
PEN1
  6
LTY1
 10
0.000
 20
2.500
 11
18.175
 21
2.500
  0
LINE
  8
PEN1
  6
LTY1
 10
0.000
 20
2.725
 11
18.175
 21
2.725
  0
LINE
  8
PEN1
  6
LTY1
 10
0.000
 20
2.950
 11
18.175
 21
2.950
  0
LINE
  8
PEN1
  6
LTY1
 10
0.000
 20
3.175
 11
18.175
 21
3.175
  0
LINE
  8
PEN1
  6
LTY1
 10
0.000
 20
3.400
 11
18.175
 21
3.400
  0
LINE
  8
PEN1
  6
LTY1
 10
0.000
 20
3.625
 11
18.175
 21
3.625
  0
LINE
  8
PEN1
  6
LTY1
 10
0.000
 20
3.850
 11
18.175
 21
3.850
  0
LINE
  8
PEN1
  6
LTY1
 10
0.000
 20
4.075
 11
18.175
 21
4.075
  0
LINE
  8
PEN1
  6
LTY1
 10
0.000
 20
4.300
 11
4.125
 21
4.300
  0
LINE
  8
PEN1
  6
LTY1
 10
14.025
 20
4.300
 11
18.175
 21
4.300
  0
LINE
  8
PEN1
  6
LTY1
 10
0.000
 20
4.525
 11
3.725
 21
4.525
  0
LINE
  8
PEN1
  6
LTY1
 10
14.425
 20
4.525
 11
18.175
 21
4.525
  0
LINE
  8
PEN1
  6
LTY1
 10
0.000
 20
4.775
 11
3.325
 21
4.775
  0
LINE
  8
PEN1
  6
LTY1
 10
14.800
 20
4.775
 11
18.175
 21
4.775
  0
LINE
  8
PEN1
  6
LTY1
 10
0.000
 20
5.000
 11
2.950
 21
5.000
  0
LINE
  8
PEN1
  6
LTY1
 10
15.200
 20
5.000
 11
18.175
 21
5.000
  0
LINE
  8
PEN1
  6
LTY1
 10
0.000
 20
5.225
 11
2.550
 21
5.225
  0
LINE
  8
PEN1
  6
LTY1
 10
15.575
 20
5.225
 11
18.175
 21
5.225
  0
LINE
  8
PEN1
  6
LTY1
 10
0.000
 20
5.450
 11
2.175
 21
5.450
  0
LINE
  8
PEN1
  6
LTY1
 10
15.975
 20
5.450
 11
18.175
 21
5.450
  0
LINE
  8
PEN1
  6
LTY1
 10
0.000
 20
5.675
 11
1.775
 21
5.675
  0
LINE
  8
PEN1
  6
LTY1
 10
16.375
 20
5.675
 11
18.175
 21
5.675
  0
LINE
  8
PEN1
  6
LTY1
 10
0.000
 20
5.900
 11
1.375
 21
5.900
  0
LINE
  8
PEN1
  6
LTY1
 10
16.750
 20
5.900
 11
18.175
 21
5.900
  0
LINE
  8
PEN1
  6
LTY1
 10
0.000
 20
6.125
 11
1.000
 21
6.125
  0
LINE
  8
PEN1
  6
LTY1
 10
17.150
 20
6.125
 11
18.175
 21
6.125
  0
LINE
  8
PEN1
  6
LTY1
 10
0.000
 20
6.350
 11
0.625
 21
6.350
  0
LINE
  8
PEN1
  6
LTY1
 10
17.525
 20
6.350
 11
18.175
 21
6.350
  0
LINE
  8
PEN1
  6
LTY1
 10
0.000
 20
6.575
 11
0.625
 21
6.575
  0
LINE
  8
PEN1
  6
LTY1
 10
17.525
 20
6.575
 11
18.175
 21
6.575
  0
LINE
  8
PEN1
  6
LTY1
 10
0.000
 20
6.800
 11
0.625
 21
6.800
  0
LINE
  8
PEN1
  6
LTY1
 10
17.525
 20
6.800
 11
18.175
 21
6.800
  0
LINE
  8
PEN1
  6
LTY1
 10
0.000
 20
7.050
 11
0.625
 21
7.050
  0
LINE
  8
PEN1
  6
LTY1
 10
17.525
 20
7.050
 11
18.175
 21
7.050
  0
LINE
  8
PEN1
  6
LTY1
 10
0.000
 20
7.275
 11
0.625
 21
7.275
  0
LINE
  8
PEN1
  6
LTY1
 10
17.525
 20
7.275
 11
18.175
 21
7.275
  0
LINE
  8
PEN1
  6
LTY1
 10
0.000
 20
7.500
 11
0.625
 21
7.500
  0
LINE
  8
PEN1
  6
LTY1
 10
17.525
 20
7.500
 11
18.175
 21
7.500
  0
LINE
  8
PEN1
  6
LTY1
 10
0.000
 20
7.725
 11
0.625
 21
7.725
  0
LINE
  8
PEN1
  6
LTY1
 10
17.525
 20
7.725
 11
18.175
 21
7.725
  0
LINE
  8
PEN1
  6
LTY1
 10
0.000
 20
7.950
 11
0.625
 21
7.950
  0
LINE
  8
PEN1
  6
LTY1
 10
17.525
 20
7.950
 11
18.175
 21
7.950
  0
LINE
  8
PEN1
  6
LTY1
 10
0.000
 20
8.175
 11
0.625
 21
8.175
  0
LINE
  8
PEN1
  6
LTY1
 10
17.525
 20
8.175
 11
18.175
 21
8.175
  0
LINE
  8
PEN1
  6
LTY1
 10
0.000
 20
8.400
 11
0.625
 21
8.400
  0
LINE
  8
PEN1
  6
LTY1
 10
17.525
 20
8.400
 11
18.175
 21
8.400
  0
LINE
  8
PEN1
  6
LTY1
 10
0.000
 20
8.625
 11
0.625
 21
8.625
  0
LINE
  8
PEN1
  6
LTY1
 10
17.525
 20
8.625
 11
18.175
 21
8.625
  0
LINE
  8
PEN1
  6
LTY1
 10
0.000
 20
8.850
 11
0.625
 21
8.850
  0
LINE
  8
PEN1
  6
LTY1
 10
17.525
 20
8.850
 11
18.175
 21
8.850
  0
LINE
  8
PEN1
  6
LTY1
 10
0.000
 20
9.075
 11
0.625
 21
9.075
  0
LINE
  8
PEN1
  6
LTY1
 10
17.525
 20
9.075
 11
18.175
 21
9.075
  0
LINE
  8
PEN1
  6
LTY1
 10
0.000
 20
9.325
 11
0.625
 21
9.325
  0
LINE
  8
PEN1
  6
LTY1
 10
17.525
 20
9.325
 11
18.175
 21
9.325
  0
LINE
  8
PEN1
  6
LTY1
 10
0.000
 20
9.550
 11
0.625
 21
9.550
  0
LINE
  8
PEN1
  6
LTY1
 10
17.525
 20
9.550
 11
18.175
 21
9.550
  0
LINE
  8
PEN1
  6
LTY1
 10
0.000
 20
9.775
 11
0.625
 21
9.775
  0
LINE
  8
PEN1
  6
LTY1
 10
17.525
 20
9.775
 11
18.175
 21
9.775
  0
LINE
  8
PEN1
  6
LTY1
 10
0.000
 20
10.000
 11
0.625
 21
10.000
  0
LINE
  8
PEN1
  6
LTY1
 10
17.525
 20
10.000
 11
18.175
 21
10.000
  0
LINE
  8
PEN1
  6
LTY1
 10
0.000
 20
10.225
 11
0.625
 21
10.225
  0
LINE
  8
PEN1
  6
LTY1
 10
17.525
 20
10.225
 11
18.175
 21
10.225
  0
LINE
  8
PEN1
  6
LTY1
 10
0.000
 20
10.450
 11
0.625
 21
10.450
  0
LINE
  8
PEN1
  6
LTY1
 10
17.525
 20
10.450
 11
18.175
 21
10.450
  0
LINE
  8
PEN1
  6
LTY1
 10
0.000
 20
10.675
 11
0.625
 21
10.675
  0
LINE
  8
PEN1
  6
LTY1
 10
17.525
 20
10.675
 11
18.175
 21
10.675
  0
LINE
  8
PEN1
  6
LTY1
 10
0.000
 20
10.900
 11
0.625
 21
10.900
  0
LINE
  8
PEN1
  6
LTY1
 10
17.525
 20
10.900
 11
18.175
 21
10.900
  0
LINE
  8
PEN1
  6
LTY1
 10
0.000
 20
11.125
 11
0.625
 21
11.125
  0
LINE
  8
PEN1
  6
LTY1
 10
17.525
 20
11.125
 11
18.175
 21
11.125
  0
LINE
  8
PEN1
  6
LTY1
 10
0.000
 20
11.350
 11
0.625
 21
11.350
  0
LINE
  8
PEN1
  6
LTY1
 10
17.525
 20
11.350
 11
18.175
 21
11.350
  0
LINE
  8
PEN1
  6
LTY1
 10
0.000
 20
11.600
 11
0.625
 21
11.600
  0
LINE
  8
PEN1
  6
LTY1
 10
17.525
 20
11.600
 11
18.175
 21
11.600
  0
LINE
  8
PEN1
  6
LTY1
 10
0.000
 20
11.825
 11
0.625
 21
11.825
  0
LINE
  8
PEN1
  6
LTY1
 10
17.525
 20
11.825
 11
18.175
 21
11.825
  0
LINE
  8
PEN1
  6
LTY1
 10
0.000
 20
12.050
 11
1.000
 21
12.050
  0
LINE
  8
PEN1
  6
LTY1
 10
17.150
 20
12.050
 11
18.175
 21
12.050
  0
LINE
  8
PEN1
  6
LTY1
 10
0.000
 20
12.275
 11
1.375
 21
12.275
  0
LINE
  8
PEN1
  6
LTY1
 10
16.750
 20
12.275
 11
18.175
 21
12.275
  0
LINE
  8
PEN1
  6
LTY1
 10
0.000
 20
12.500
 11
1.775
 21
12.500
  0
LINE
  8
PEN1
  6
LTY1
 10
16.375
 20
12.500
 11
18.175
 21
12.500
  0
LINE
  8
PEN1
  6
LTY1
 10
0.000
 20
12.725
 11
2.175
 21
12.725
  0
LINE
  8
PEN1
  6
LTY1
 10
15.975
 20
12.725
 11
18.175
 21
12.725
  0
LINE
  8
PEN1
  6
LTY1
 10
0.000
 20
12.950
 11
2.550
 21
12.950
  0
LINE
  8
PEN1
  6
LTY1
 10
15.575
 20
12.950
 11
18.175
 21
12.950
  0
LINE
  8
PEN1
  6
LTY1
 10
0.000
 20
13.175
 11
2.950
 21
13.175
  0
LINE
  8
PEN1
  6
LTY1
 10
15.200
 20
13.175
 11
18.175
 21
13.175
  0
LINE
  8
PEN1
  6
LTY1
 10
0.000
 20
13.400
 11
3.325
 21
13.400
  0
LINE
  8
PEN1
  6
LTY1
 10
14.800
 20
13.400
 11
18.175
 21
13.400
  0
LINE
  8
PEN1
  6
LTY1
 10
0.000
 20
13.625
 11
3.725
 21
13.625
  0
LINE
  8
PEN1
  6
LTY1
 10
14.425
 20
13.625
 11
18.175
 21
13.625
  0
LINE
  8
PEN1
  6
LTY1
 10
0.000
 20
13.875
 11
4.125
 21
13.875
  0
LINE
  8
PEN1
  6
LTY1
 10
14.025
 20
13.875
 11
18.175
 21
13.875
  0
LINE
  8
PEN1
  6
LTY1
 10
0.000
 20
14.100
 11
18.175
 21
14.100
  0
LINE
  8
PEN1
  6
LTY1
 10
0.000
 20
14.325
 11
18.175
 21
14.325
  0
LINE
  8
PEN1
  6
LTY1
 10
0.000
 20
14.550
 11
18.175
 21
14.550
  0
LINE
  8
PEN1
  6
LTY1
 10
0.000
 20
14.775
 11
18.175
 21
14.775
  0
LINE
  8
PEN1
  6
LTY1
 10
0.000
 20
15.000
 11
18.175
 21
15.000
  0
LINE
  8
PEN1
  6
LTY1
 10
0.000
 20
15.225
 11
18.175
 21
15.225
  0
LINE
  8
PEN1
  6
LTY1
 10
0.000
 20
15.450
 11
18.175
 21
15.450
  0
LINE
  8
PEN1
  6
LTY1
 10
0.000
 20
15.675
 11
18.175
 21
15.675
  0
LINE
  8
PEN1
  6
LTY1
 10
0.000
 20
15.900
 11
18.175
 21
15.900
  0
LINE
  8
PEN1
  6
LTY1
 10
0.000
 20
16.150
 11
18.175
 21
16.150
  0
LINE
  8
PEN1
  6
LTY1
 10
0.000
 20
16.375
 11
18.175
 21
16.375
  0
LINE
  8
PEN1
  6
LTY1
 10
0.000
 20
16.600
 11
18.175
 21
16.600
  0
LINE
  8
PEN1
  6
LTY1
 10
0.000
 20
16.825
 11
18.175
 21
16.825
  0
LINE
  8
PEN1
  6
LTY1
 10
0.000
 20
17.050
 11
18.175
 21
17.050
  0
LINE
  8
PEN1
  6
LTY1
 10
0.000
 20
17.275
 11
18.175
 21
17.275
  0
LINE
  8
PEN1
  6
LTY1
 10
0.000
 20
17.500
 11
18.175
 21
17.500
  0
LINE
  8
PEN1
  6
LTY1
 10
0.000
 20
17.725
 11
18.175
 21
17.725
  0
LINE
  8
PEN1
  6
LTY1
 10
0.000
 20
17.950
 11
18.175
 21
17.950
  0
LINE
  8
PEN1
  6
LTY1
 10
0.000
 20
18.175
 11
18.175
 21
18.175
  0
LINE
  8
PEN2
  6
LTY1
 10
16.625
 20
7.650
 11
15.450
 21
7.650
  0
LINE
  8
PEN2
  6
LTY1
 10
15.450
 20
7.650
 11
15.450
 21
7.650
  0
LINE
  8
PEN2
  6
LTY1
 10
15.450
 20
7.650
 11
3.225
 21
7.650
  0
LINE
  8
PEN2
  6
LTY1
 10
3.225
 20
7.650
 11
3.225
 21
7.650
  0
LINE
  8
PEN2
  6
LTY1
 10
3.225
 20
7.650
 11
1.550
 21
7.650
  0
LINE
  8
PEN2
  6
LTY1
 10
1.550
 20
7.650
 11
1.550
 21
6.950
  0
LINE
  8
PEN2
  6
LTY1
 10
1.550
 20
6.950
 11
4.925
 21
5.050
  0
LINE
  8
PEN2
  6
LTY1
 10
4.925
 20
5.050
 11
13.250
 21
5.050
  0
LINE
  8
PEN2
  6
LTY1
 10
13.250
 20
5.050
 11
16.625
 21
6.950
  0
LINE
  8
PEN2
  6
LTY1
 10
16.625
 20
6.950
 11
16.625
 21
7.650
  0
LINE
  8
PEN2
  6
LTY1
 10
4.625
 20
5.225
 11
13.500
 21
5.225
  0
LINE
  8
PEN2
  6
LTY1
 10
4.350
 20
5.375
 11
13.800
 21
5.375
  0
LINE
  8
PEN2
  6
LTY1
 10
4.050
 20
5.550
 11
14.100
 21
5.550
  0
LINE
  8
PEN2
  6
LTY1
 10
3.750
 20
5.700
 11
14.375
 21
5.700
  0
LINE
  8
PEN2
  6
LTY1
 10
3.475
 20
5.875
 11
14.675
 21
5.875
  0
LINE
  8
PEN2
  6
LTY1
 10
3.175
 20
6.025
 11
14.975
 21
6.025
  0
LINE
  8
PEN2
  6
LTY1
 10
2.875
 20
6.200
 11
15.250
 21
6.200
  0
LINE
  8
PEN2
  6
LTY1
 10
2.575
 20
6.350
 11
15.550
 21
6.350
  0
LINE
  8
PEN2
  6
LTY1
 10
2.300
 20
6.525
 11
15.850
 21
6.525
  0
LINE
  8
PEN2
  6
LTY1
 10
2.000
 20
6.675
 11
16.150
 21
6.675
  0
LINE
  8
PEN2
  6
LTY1
 10
1.700
 20
6.850
 11
16.425
 21
6.850
  0
LINE
  8
PEN2
  6
LTY1
 10
1.550
 20
7.000
 11
16.625
 21
7.000
  0
LINE
  8
PEN2
  6
LTY1
 10
1.550
 20
7.175
 11
16.625
 21
7.175
  0
LINE
  8
PEN2
  6
LTY1
 10
1.550
 20
7.325
 11
16.625
 21
7.325
  0
LINE
  8
PEN2
  6
LTY1
 10
1.550
 20
7.500
 11
16.625
 21
7.500
  0
LINE
  8
PEN2
  6
LTY1
 10
1.550
 20
7.650
 11
3.225
 21
7.650
  0
LINE
  8
PEN2
  6
LTY1
 10
3.225
 20
7.650
 11
15.450
 21
7.650
  0
LINE
  8
PEN2
  6
LTY1
 10
15.450
 20
7.650
 11
16.625
 21
7.650
  0
LINE
  8
PEN2
  6
LTY1
 10
16.625
 20
7.650
 11
15.450
 21
7.650
  0
LINE
  8
PEN2
  6
LTY1
 10
15.450
 20
7.650
 11
15.450
 21
8.575
  0
LINE
  8
PEN2
  6
LTY1
 10
15.450
 20
8.575
 11
14.150
 21
8.575
  0
LINE
  8
PEN2
  6
LTY1
 10
14.150
 20
8.575
 11
14.150
 21
10.525
  0
LINE
  8
PEN2
  6
LTY1
 10
14.150
 20
10.525
 11
12.325
 21
10.525
  0
LINE
  8
PEN2
  6
LTY1
 10
12.325
 20
10.525
 11
12.325
 21
9.475
  0
LINE
  8
PEN2
  6
LTY1
 10
12.325
 20
9.475
 11
11.550
 21
9.475
  0
LINE
  8
PEN2
  6
LTY1
 10
11.550
 20
9.475
 11
11.550
 21
10.525
  0
LINE
  8
PEN2
  6
LTY1
 10
11.550
 20
10.525
 11
10.650
 21
10.525
  0
LINE
  8
PEN2
  6
LTY1
 10
10.650
 20
10.525
 11
10.650
 21
7.650
  0
LINE
  8
PEN2
  6
LTY1
 10
10.650
 20
7.650
 11
9.875
 21
10.525
  0
LINE
  8
PEN2
  6
LTY1
 10
9.875
 20
10.525
 11
8.825
 21
10.525
  0
LINE
  8
PEN2
  6
LTY1
 10
8.825
 20
10.525
 11
8.050
 21
7.650
  0
LINE
  8
PEN2
  6
LTY1
 10
8.050
 20
7.650
 11
7.400
 21
7.650
  0
LINE
  8
PEN2
  6
LTY1
 10
7.400
 20
7.650
 11
7.400
 21
9.725
  0
LINE
  8
PEN2
  6
LTY1
 10
7.400
 20
9.725
 11
8.300
 21
9.725
  0
LINE
  8
PEN2
  6
LTY1
 10
8.300
 20
9.725
 11
8.300
 21
10.525
  0
LINE
  8
PEN2
  6
LTY1
 10
8.300
 20
10.525
 11
3.225
 21
10.525
  0
LINE
  8
PEN2
  6
LTY1
 10
3.225
 20
10.525
 11
3.225
 21
7.650
  0
LINE
  8
PEN2
  6
LTY1
 10
3.225
 20
7.650
 11
1.550
 21
7.650
  0
LINE
  8
PEN2
  6
LTY1
 10
1.550
 20
7.650
 11
1.550
 21
11.225
  0
LINE
  8
PEN2
  6
LTY1
 10
1.550
 20
11.225
 11
4.925
 21
13.125
  0
LINE
  8
PEN2
  6
LTY1
 10
4.925
 20
13.125
 11
13.250
 21
13.125
  0
LINE
  8
PEN2
  6
LTY1
 10
13.250
 20
13.125
 11
16.625
 21
11.225
  0
LINE
  8
PEN2
  6
LTY1
 10
16.625
 20
11.225
 11
16.625
 21
7.650
  0
LINE
  8
PEN2
  6
LTY1
 10
1.550
 20
7.825
 11
3.225
 21
7.825
  0
LINE
  8
PEN2
  6
LTY1
 10
7.400
 20
7.825
 11
8.075
 21
7.825
  0
LINE
  8
PEN2
  6
LTY1
 10
10.575
 20
7.825
 11
10.650
 21
7.825
  0
LINE
  8
PEN2
  6
LTY1
 10
15.450
 20
7.825
 11
16.625
 21
7.825
  0
LINE
  8
PEN2
  6
LTY1
 10
1.550
 20
7.975
 11
3.225
 21
7.975
  0
LINE
  8
PEN2
  6
LTY1
 10
7.400
 20
7.975
 11
8.100
 21
7.975
  0
LINE
  8
PEN2
  6
LTY1
 10
10.550
 20
7.975
 11
10.650
 21
7.975
  0
LINE
  8
PEN2
  6
LTY1
 10
15.450
 20
7.975
 11
16.625
 21
7.975
  0
LINE
  8
PEN2
  6
LTY1
 10
1.550
 20
8.150
 11
3.225
 21
8.150
  0
LINE
  8
PEN2
  6
LTY1
 10
7.400
 20
8.150
 11
8.175
 21
8.150
  0
LINE
  8
PEN2
  6
LTY1
 10
10.475
 20
8.150
 11
10.650
 21
8.150
  0
LINE
  8
PEN2
  6
LTY1
 10
15.450
 20
8.150
 11
16.625
 21
8.150
  0
LINE
  8
PEN2
  6
LTY1
 10
1.550
 20
8.300
 11
3.225
 21
8.300
  0
LINE
  8
PEN2
  6
LTY1
 10
7.400
 20
8.300
 11
8.200
 21
8.300
  0
LINE
  8
PEN2
  6
LTY1
 10
10.450
 20
8.300
 11
10.650
 21
8.300
  0
LINE
  8
PEN2
  6
LTY1
 10
15.450
 20
8.300
 11
16.625
 21
8.300
  0
LINE
  8
PEN2
  6
LTY1
 10
1.550
 20
8.475
 11
3.225
 21
8.475
  0
LINE
  8
PEN2
  6
LTY1
 10
7.400
 20
8.475
 11
8.250
 21
8.475
  0
LINE
  8
PEN2
  6
LTY1
 10
10.425
 20
8.475
 11
10.650
 21
8.475
  0
LINE
  8
PEN2
  6
LTY1
 10
15.450
 20
8.475
 11
16.625
 21
8.475
  0
LINE
  8
PEN2
  6
LTY1
 10
1.550
 20
8.625
 11
3.225
 21
8.625
  0
LINE
  8
PEN2
  6
LTY1
 10
7.400
 20
8.625
 11
8.300
 21
8.625
  0
LINE
  8
PEN2
  6
LTY1
 10
10.350
 20
8.625
 11
10.650
 21
8.625
  0
LINE
  8
PEN2
  6
LTY1
 10
14.150
 20
8.625
 11
16.625
 21
8.625
  0
LINE
  8
PEN2
  6
LTY1
 10
1.550
 20
8.800
 11
3.225
 21
8.800
  0
LINE
  8
PEN2
  6
LTY1
 10
7.400
 20
8.800
 11
8.350
 21
8.800
  0
LINE
  8
PEN2
  6
LTY1
 10
10.325
 20
8.800
 11
10.650
 21
8.800
  0
LINE
  8
PEN2
  6
LTY1
 10
14.150
 20
8.800
 11
16.625
 21
8.800
  0
LINE
  8
PEN2
  6
LTY1
 10
1.550
 20
8.950
 11
3.225
 21
8.950
  0
LINE
  8
PEN2
  6
LTY1
 10
7.400
 20
8.950
 11
8.375
 21
8.950
  0
LINE
  8
PEN2
  6
LTY1
 10
10.300
 20
8.950
 11
10.650
 21
8.950
  0
LINE
  8
PEN2
  6
LTY1
 10
14.150
 20
8.950
 11
16.625
 21
8.950
  0
LINE
  8
PEN2
  6
LTY1
 10
1.550
 20
9.125
 11
3.225
 21
9.125
  0
LINE
  8
PEN2
  6
LTY1
 10
7.400
 20
9.125
 11
8.425
 21
9.125
  0
LINE
  8
PEN2
  6
LTY1
 10
10.225
 20
9.125
 11
10.650
 21
9.125
  0
LINE
  8
PEN2
  6
LTY1
 10
14.150
 20
9.125
 11
16.625
 21
9.125
  0
LINE
  8
PEN2
  6
LTY1
 10
1.550
 20
9.275
 11
3.225
 21
9.275
  0
LINE
  8
PEN2
  6
LTY1
 10
7.400
 20
9.275
 11
8.475
 21
9.275
  0
LINE
  8
PEN2
  6
LTY1
 10
10.200
 20
9.275
 11
10.650
 21
9.275
  0
LINE
  8
PEN2
  6
LTY1
 10
14.150
 20
9.275
 11
16.625
 21
9.275
  0
LINE
  8
PEN2
  6
LTY1
 10
1.550
 20
9.450
 11
3.225
 21
9.450
  0
LINE
  8
PEN2
  6
LTY1
 10
7.400
 20
9.450
 11
8.525
 21
9.450
  0
LINE
  8
PEN2
  6
LTY1
 10
10.150
 20
9.450
 11
10.650
 21
9.450
  0
LINE
  8
PEN2
  6
LTY1
 10
14.150
 20
9.450
 11
16.625
 21
9.450
  0
LINE
  8
PEN2
  6
LTY1
 10
1.550
 20
9.600
 11
3.225
 21
9.600
  0
LINE
  8
PEN2
  6
LTY1
 10
7.400
 20
9.600
 11
8.575
 21
9.600
  0
LINE
  8
PEN2
  6
LTY1
 10
10.100
 20
9.600
 11
10.650
 21
9.600
  0
LINE
  8
PEN2
  6
LTY1
 10
11.550
 20
9.600
 11
12.325
 21
9.600
  0
LINE
  8
PEN2
  6
LTY1
 10
14.150
 20
9.600
 11
16.625
 21
9.600
  0
LINE
  8
PEN2
  6
LTY1
 10
1.550
 20
9.775
 11
3.225
 21
9.775
  0
LINE
  8
PEN2
  6
LTY1
 10
8.300
 20
9.775
 11
8.600
 21
9.775
  0
LINE
  8
PEN2
  6
LTY1
 10
10.050
 20
9.775
 11
10.650
 21
9.775
  0
LINE
  8
PEN2
  6
LTY1
 10
11.550
 20
9.775
 11
12.325
 21
9.775
  0
LINE
  8
PEN2
  6
LTY1
 10
14.150
 20
9.775
 11
16.625
 21
9.775
  0
LINE
  8
PEN2
  6
LTY1
 10
1.550
 20
9.925
 11
3.225
 21
9.925
  0
LINE
  8
PEN2
  6
LTY1
 10
8.300
 20
9.925
 11
8.675
 21
9.925
  0
LINE
  8
PEN2
  6
LTY1
 10
10.000
 20
9.925
 11
10.650
 21
9.925
  0
LINE
  8
PEN2
  6
LTY1
 10
11.550
 20
9.925
 11
12.325
 21
9.925
  0
LINE
  8
PEN2
  6
LTY1
 10
14.150
 20
9.925
 11
16.625
 21
9.925
  0
LINE
  8
PEN2
  6
LTY1
 10
1.550
 20
10.100
 11
3.225
 21
10.100
  0
LINE
  8
PEN2
  6
LTY1
 10
8.300
 20
10.100
 11
8.700
 21
10.100
  0
LINE
  8
PEN2
  6
LTY1
 10
9.975
 20
10.100
 11
10.650
 21
10.100
  0
LINE
  8
PEN2
  6
LTY1
 10
11.550
 20
10.100
 11
12.325
 21
10.100
  0
LINE
  8
PEN2
  6
LTY1
 10
14.150
 20
10.100
 11
16.625
 21
10.100
  0
LINE
  8
PEN2
  6
LTY1
 10
1.550
 20
10.250
 11
3.225
 21
10.250
  0
LINE
  8
PEN2
  6
LTY1
 10
8.300
 20
10.250
 11
8.725
 21
10.250
  0
LINE
  8
PEN2
  6
LTY1
 10
9.925
 20
10.250
 11
10.650
 21
10.250
  0
LINE
  8
PEN2
  6
LTY1
 10
11.550
 20
10.250
 11
12.325
 21
10.250
  0
LINE
  8
PEN2
  6
LTY1
 10
14.150
 20
10.250
 11
16.625
 21
10.250
  0
LINE
  8
PEN2
  6
LTY1
 10
1.550
 20
10.425
 11
3.225
 21
10.425
  0
LINE
  8
PEN2
  6
LTY1
 10
8.300
 20
10.425
 11
8.800
 21
10.425
  0
LINE
  8
PEN2
  6
LTY1
 10
9.875
 20
10.425
 11
10.650
 21
10.425
  0
LINE
  8
PEN2
  6
LTY1
 10
11.550
 20
10.425
 11
12.325
 21
10.425
  0
LINE
  8
PEN2
  6
LTY1
 10
14.150
 20
10.425
 11
16.625
 21
10.425
  0
LINE
  8
PEN2
  6
LTY1
 10
1.550
 20
10.575
 11
16.625
 21
10.575
  0
LINE
  8
PEN2
  6
LTY1
 10
1.550
 20
10.750
 11
16.625
 21
10.750
  0
LINE
  8
PEN2
  6
LTY1
 10
1.550
 20
10.900
 11
16.625
 21
10.900
  0
LINE
  8
PEN2
  6
LTY1
 10
1.550
 20
11.075
 11
16.625
 21
11.075
  0
LINE
  8
PEN2
  6
LTY1
 10
1.550
 20
11.225
 11
16.625
 21
11.225
  0
LINE
  8
PEN2
  6
LTY1
 10
1.800
 20
11.400
 11
16.325
 21
11.400
  0
LINE
  8
PEN2
  6
LTY1
 10
2.100
 20
11.550
 11
16.050
 21
11.550
  0
LINE
  8
PEN2
  6
LTY1
 10
2.400
 20
11.725
 11
15.750
 21
11.725
  0
LINE
  8
PEN2
  6
LTY1
 10
2.675
 20
11.875
 11
15.450
 21
11.875
  0
LINE
  8
PEN2
  6
LTY1
 10
2.975
 20
12.050
 11
15.175
 21
12.050
  0
LINE
  8
PEN2
  6
LTY1
 10
3.275
 20
12.200
 11
14.875
 21
12.200
  0
LINE
  8
PEN2
  6
LTY1
 10
3.550
 20
12.375
 11
14.575
 21
12.375
  0
LINE
  8
PEN2
  6
LTY1
 10
3.850
 20
12.525
 11
14.275
 21
12.525
  0
LINE
  8
PEN2
  6
LTY1
 10
4.150
 20
12.700
 11
14.000
 21
12.700
  0
LINE
  8
PEN2
  6
LTY1
 10
4.450
 20
12.850
 11
13.700
 21
12.850
  0
LINE
  8
PEN2
  6
LTY1
 10
4.725
 20
13.025
 11
13.400
 21
13.025
  0
LINE
  8
PEN2
  6
LTY1
 10
15.450
 20
7.650
 11
12.325
 21
7.650
  0
LINE
  8
PEN2
  6
LTY1
 10
12.325
 20
7.650
 11
12.325
 21
8.700
  0
LINE
  8
PEN2
  6
LTY1
 10
12.325
 20
8.700
 11
11.550
 21
8.700
  0
LINE
  8
PEN2
  6
LTY1
 10
11.550
 20
8.700
 11
11.550
 21
7.650
  0
LINE
  8
PEN2
  6
LTY1
 10
11.550
 20
7.650
 11
9.725
 21
7.650
  0
LINE
  8
PEN2
  6
LTY1
 10
9.725
 20
7.650
 11
9.600
 21
8.175
  0
LINE
  8
PEN2
  6
LTY1
 10
9.600
 20
8.175
 11
9.075
 21
8.175
  0
LINE
  8
PEN2
  6
LTY1
 10
9.075
 20
8.175
 11
8.950
 21
7.650
  0
LINE
  8
PEN2
  6
LTY1
 10
8.950
 20
7.650
 11
6.625
 21
7.650
  0
LINE
  8
PEN2
  6
LTY1
 10
6.625
 20
7.650
 11
6.625
 21
9.725
  0
LINE
  8
PEN2
  6
LTY1
 10
6.625
 20
9.725
 11
5.700
 21
9.725
  0
LINE
  8
PEN2
  6
LTY1
 10
5.700
 20
9.725
 11
5.700
 21
7.650
  0
LINE
  8
PEN2
  6
LTY1
 10
5.700
 20
7.650
 11
3.225
 21
7.650
  0
LINE
  8
PEN2
  6
LTY1
 10
3.225
 20
7.650
 11
3.225
 21
7.650
  0
LINE
  8
PEN2
  6
LTY1
 10
3.225
 20
7.650
 11
15.450
 21
7.650
  0
LINE
  8
PEN2
  6
LTY1
 10
15.450
 20
7.650
 11
15.450
 21
7.650
  0
LINE
  8
PEN2
  6
LTY1
 10
5.700
 20
7.825
 11
6.625
 21
7.825
  0
LINE
  8
PEN2
  6
LTY1
 10
9.000
 20
7.825
 11
9.675
 21
7.825
  0
LINE
  8
PEN2
  6
LTY1
 10
11.550
 20
7.825
 11
12.325
 21
7.825
  0
LINE
  8
PEN2
  6
LTY1
 10
5.700
 20
7.975
 11
6.625
 21
7.975
  0
LINE
  8
PEN2
  6
LTY1
 10
9.025
 20
7.975
 11
9.650
 21
7.975
  0
LINE
  8
PEN2
  6
LTY1
 10
11.550
 20
7.975
 11
12.325
 21
7.975
  0
LINE
  8
PEN2
  6
LTY1
 10
5.700
 20
8.150
 11
6.625
 21
8.150
  0
LINE
  8
PEN2
  6
LTY1
 10
9.050
 20
8.150
 11
9.600
 21
8.150
  0
LINE
  8
PEN2
  6
LTY1
 10
11.550
 20
8.150
 11
12.325
 21
8.150
  0
LINE
  8
PEN2
  6
LTY1
 10
5.700
 20
8.300
 11
6.625
 21
8.300
  0
LINE
  8
PEN2
  6
LTY1
 10
11.550
 20
8.300
 11
12.325
 21
8.300
  0
LINE
  8
PEN2
  6
LTY1
 10
5.700
 20
8.475
 11
6.625
 21
8.475
  0
LINE
  8
PEN2
  6
LTY1
 10
11.550
 20
8.475
 11
12.325
 21
8.475
  0
LINE
  8
PEN2
  6
LTY1
 10
5.700
 20
8.625
 11
6.625
 21
8.625
  0
LINE
  8
PEN2
  6
LTY1
 10
11.550
 20
8.625
 11
12.325
 21
8.625
  0
LINE
  8
PEN2
  6
LTY1
 10
5.700
 20
8.800
 11
6.625
 21
8.800
  0
LINE
  8
PEN2
  6
LTY1
 10
5.700
 20
8.950
 11
6.625
 21
8.950
  0
LINE
  8
PEN2
  6
LTY1
 10
5.700
 20
9.125
 11
6.625
 21
9.125
  0
LINE
  8
PEN2
  6
LTY1
 10
5.700
 20
9.275
 11
6.625
 21
9.275
  0
LINE
  8
PEN2
  6
LTY1
 10
5.700
 20
9.450
 11
6.625
 21
9.450
  0
LINE
  8
PEN2
  6
LTY1
 10
5.700
 20
9.600
 11
6.625
 21
9.600
  0
LINE
  8
PEN2
  6
LTY1
 10
13.250
 20
7.650
 11
13.250
 21
10.525
  0
LINE
  8
PEN2
  6
LTY1
 10
9.350
 20
8.950
 11
9.350
 21
9.350
  0
LINE
  8
PEN2
  6
LTY1
 10
5.700
 20
10.525
 11
5.700
 21
9.600
  0
LINE
  8
PEN2
  6
LTY1
 10
5.700
 20
9.600
 11
4.150
 21
9.600
  0
LINE
  8
PEN2
  6
LTY1
 10
4.150
 20
9.600
 11
4.150
 21
9.475
  0
LINE
  8
PEN2
  6
LTY1
 10
4.150
 20
9.475
 11
5.700
 21
9.475
  0
LINE
  8
PEN2
  6
LTY1
 10
3.225
 20
8.575
 11
4.800
 21
8.575
  0
LINE
  8
PEN2
  6
LTY1
 10
4.800
 20
8.575
 11
4.800
 21
8.425
  0
LINE
  8
PEN2
  6
LTY1
 10
4.800
 20
8.425
 11
3.225
 21
8.425
  0
LINE
  8
PEN2
  6
LTY1
 10
8.300
 20
10.525
 11
12.325
 21
10.525
  0
ENDBLK
  0
ENDSEC
999
############################################################
999
# SECTION ENTITIES                                         #
999
############################################################
  0
SECTION
  2
ENTITIES
  0
INSERT
  8
SF
  2
SF_KORA7_00
 10
0.000
 20
0.000
 41
1.000
 42
1.000
 50
0.000
 66
1
  0
ATTRIB
  2
CODE_60
 70
9
  8
PEN1
  7
NORMSCHRIFT
 10
289.350
 20
0.000
 72
0
 40
3.500
 51
0.000
 50
0.000
  1
Eplan
  0
ATTRIB
  2
CODE_61
 70
9
  8
PEN1
  7
NORMSCHRIFT
 10
289.350
 20
0.000
 72
0
 40
3.500
 51
0.000
 50
0.000
  1
MSR
  0
ATTRIB
  2
CODE_62
 70
8
  8
PEN2
  7
NORMSCHRIFT
 10
378.750
 20
5.000
 72
2
 11
392.750
 21
5.000
 40
2.500
 51
0.000
 50
0.000
  1
IS_PAC_2
  0
ATTRIB
  2
CODE_63
 70
9
  8
PEN4
  7
NORMSCHRIFT
 10
0.000
 20
0.000
 72
0
 40
0.000
 51
0.000
 50
0.000
  1

  0
ATTRIB
  2
CODE_77
 70
8
  8
PEN2
  7
NORMSCHRIFT
 10
207.250
 20
15.000
 72
0
 40
2.500
 51
0.000
 50
0.000
  1

  0
ATTRIB
  2
CODE_66
 70
8
  8
PEN1
  7
NORMSCHRIFT
 10
206.850
 20
7.500
 72
0
 40
3.500
 51
0.000
 50
0.000
  1

  0
ATTRIB
  2
CODE_65
 70
8
  8
PEN1
  7
NORMSCHRIFT
 10
206.850
 20
0.500
 72
0
 40
3.500
 51
0.000
 50
0.000
  1

  0
ATTRIB
  2
CODE_68
 70
9
  8
PEN2
  7
NORMSCHRIFT
 10
183.750
 20
15.000
 72
2
 11
183.750
 21
15.000
 40
2.500
 51
0.000
 50
0.000
  1

  0
ATTRIB
  2
CODE_160
 70
9
  8
PEN2
  7
NORMSCHRIFT
 10
183.750
 20
15.000
 72
2
 11
183.750
 21
15.000
 40
2.500
 51
0.000
 50
0.000
  1

  0
ATTRIB
  2
CODE_3
 70
8
  8
PEN1
  7
NORMSCHRIFT
 10
322.350
 20
11.500
 72
0
 40
3.500
 51
0.000
 50
0.000
  1

  0
ATTRIB
  2
CODE_67
 70
8
  8
PEN2
  7
NORMSCHRIFT
 10
183.750
 20
10.000
 72
2
 11
183.750
 21
10.000
 40
2.500
 51
0.000
 50
0.000
  1

  0
ATTRIB
  2
CODE_78
 70
8
  8
PEN2
  7
NORMSCHRIFT
 10
183.750
 20
5.000
 72
2
 11
183.750
 21
5.000
 40
2.500
 51
0.000
 50
0.000
  1

  0
ATTRIB
  2
CODE_72
 70
8
  8
PEN2
  7
NORMSCHRIFT
 10
84.250
 20
14.500
 72
0
 40
2.500
 51
0.000
 50
0.000
  1
14.04.2010
  0
ATTRIB
  2
CODE_424
 70
8
  8
PEN2
  7
NORMSCHRIFT
 10
84.250
 20
9.500
 72
0
 40
2.500
 51
0.000
 50
0.000
  1

  0
ATTRIB
  2
CODE_423
 70
8
  8
PEN2
  7
NORMSCHRIFT
 10
84.250
 20
4.500
 72
0
 40
2.500
 51
0.000
 50
0.000
  1

  0
ATTRIB
  2
CODE_425
 70
8
  8
PEN2
  7
NORMSCHRIFT
 10
84.250
 20
0.000
 72
0
 40
2.500
 51
0.000
 50
0.000
  1

  0
ATTRIB
  2
CODE_71
 70
8
  8
PEN2
  7
NORMSCHRIFT
 10
391.000
 20
0.000
 72
2
 11
392.750
 21
0.000
 40
2.500
 51
0.000
 50
0.000
  1
9
  0
ATTRIB
  2
CODE_430
 70
8
  8
PEN4
  7
NORMSCHRIFT
 10
4.200
 20
5.000
 72
0
 40
2.000
 51
0.000
 50
0.000
  1

  0
ATTRIB
  2
CODE_431
 70
8
  8
PEN4
  7
NORMSCHRIFT
 10
38.700
 20
5.000
 72
0
 40
2.000
 51
0.000
 50
0.000
  1

  0
ATTRIB
  2
CODE_432
 70
8
  8
PEN4
  7
NORMSCHRIFT
 10
53.200
 20
5.000
 72
0
 40
2.000
 51
0.000
 50
0.000
  1

  0
ATTRIB
  2
CODE_433
 70
8
  8
PEN4
  7
NORMSCHRIFT
 10
4.200
 20
10.000
 72
0
 40
2.000
 51
0.000
 50
0.000
  1

  0
ATTRIB
  2
CODE_434
 70
8
  8
PEN4
  7
NORMSCHRIFT
 10
38.700
 20
10.000
 72
0
 40
2.000
 51
0.000
 50
0.000
  1

  0
ATTRIB
  2
CODE_435
 70
8
  8
PEN4
  7
NORMSCHRIFT
 10
53.200
 20
10.000
 72
0
 40
2.000
 51
0.000
 50
0.000
  1

  0
ATTRIB
  2
CODE_436
 70
8
  8
PEN4
  7
NORMSCHRIFT
 10
4.200
 20
15.000
 72
0
 40
2.000
 51
0.000
 50
0.000
  1

  0
ATTRIB
  2
CODE_437
 70
8
  8
PEN4
  7
NORMSCHRIFT
 10
38.700
 20
15.000
 72
0
 40
2.000
 51
0.000
 50
0.000
  1

  0
ATTRIB
  2
CODE_438
 70
8
  8
PEN4
  7
NORMSCHRIFT
 10
53.200
 20
15.000
 72
0
 40
2.000
 51
0.000
 50
0.000
  1

  0
ATTRIB
  2
CODE_1
 70
9
  8
PEN1
  7
NORMSCHRIFT
 10
374.500
 20
10.500
 72
1
 11
374.500
 21
10.500
 40
3.500
 51
0.000
 50
0.000
  1

  0
ATTRIB
  2
CODE_2
 70
9
  8
PEN1
  7
NORMSCHRIFT
 10
374.500
 20
10.500
 72
1
 11
374.500
 21
10.500
 40
3.500
 51
0.000
 50
0.000
  1

  0
ATTRIB
  2
CODE_73
 70
8
  8
PEN4
  7
NORMSCHRIFT
 10
107.200
 20
0.500
 72
0
 40
2.000
 51
0.000
 50
0.000
  1

  0
ATTRIB
  2
CODE_74
 70
8
  8
PEN4
  7
NORMSCHRIFT
 10
140.000
 20
0.500
 72
1
 11
140.000
 21
0.500
 40
2.000
 51
0.000
 50
0.000
  1

  0
ATTRIB
  2
CODE_75
 70
8
  8
PEN4
  7
NORMSCHRIFT
 10
183.900
 20
0.500
 72
2
 11
183.900
 21
0.500
 40
2.000
 51
0.000
 50
0.000
  1

  0
ATTRIB
  2
CODE_2000
 70
9
  8
PEN4
  7
NORMSCHRIFT
 10
0.000
 20
0.000
 72
0
 40
0.000
 51
0.000
 50
0.000
  1
60
  0
ATTRIB
  2
CODE_2001
 70
9
  8
PEN4
  7
NORMSCHRIFT
 10
0.000
 20
0.000
 72
0
 40
0.000
 51
0.000
 50
0.000
  1
61
  0
ATTRIB
  2
CODE_2002
 70
9
  8
PEN4
  7
NORMSCHRIFT
 10
0.000
 20
0.000
 72
0
 40
0.000
 51
0.000
 50
0.000
  1
62
  0
ATTRIB
  2
CODE_2003
 70
9
  8
PEN4
  7
NORMSCHRIFT
 10
0.000
 20
0.000
 72
0
 40
0.000
 51
0.000
 50
0.000
  1
63
  0
ATTRIB
  2
CODE_2005
 70
9
  8
PEN4
  7
NORMSCHRIFT
 10
0.000
 20
0.000
 72
0
 40
0.000
 51
0.000
 50
0.000
  1
Anlage ............
  0
ATTRIB
  2
CODE_2006
 70
9
  8
PEN4
  7
NORMSCHRIFT
 10
0.000
 20
0.000
 72
0
 40
0.000
 51
0.000
 50
0.000
  1
Gruppe ............
  0
ATTRIB
  2
CODE_2007
 70
9
  8
PEN4
  7
NORMSCHRIFT
 10
0.000
 20
0.000
 72
0
 40
0.000
 51
0.000
 50
0.000
  1
Blatt .............
  0
ATTRIB
  2
CODE_2008
 70
9
  8
PEN4
  7
NORMSCHRIFT
 10
0.000
 20
0.000
 72
0
 40
0.000
 51
0.000
 50
0.000
  1
Variante ..........
  0
ATTRIB
  2
CODE_2011
 70
9
  8
PEN4
  7
NORMSCHRIFT
 10
0.000
 20
0.000
 72
0
 40
0.000
 51
0.000
 50
0.000
  1
110
  0
ATTRIB
  2
CODE_2010
 70
9
  8
PEN4
  7
NORMSCHRIFT
 10
0.000
 20
0.000
 72
0
 40
0.000
 51
0.000
 50
0.000
  1
N
  0
ATTRIB
  2
CODE_2012
 70
9
  8
PEN4
  7
NORMSCHRIFT
 10
0.000
 20
0.000
 72
0
 40
0.000
 51
0.000
 50
0.000
  1
J
  0
ATTRIB
  2
CODE_2013
 70
9
  8
PEN4
  7
NORMSCHRIFT
 10
0.000
 20
0.000
 72
0
 40
0.000
 51
0.000
 50
0.000
  1
24.5
  0
ATTRIB
  2
CODE_2014
 70
9
  8
PEN4
  7
NORMSCHRIFT
 10
0.000
 20
0.000
 72
0
 40
0.000
 51
0.000
 50
0.000
  1
3.5
  0
ATTRIB
  2
CODE_2015
 70
9
  8
PEN4
  7
NORMSCHRIFT
 10
0.000
 20
0.000
 72
0
 40
0.000
 51
0.000
 50
0.000
  1
/C0
  0
ATTRIB
  2
CODE_2130
 70
9
  8
PEN4
  7
NORMSCHRIFT
 10
0.000
 20
0.000
 72
0
 40
0.000
 51
0.000
 50
0.000
  1
400.000
  0
ATTRIB
  2
CODE_2131
 70
9
  8
PEN4
  7
NORMSCHRIFT
 10
0.000
 20
0.000
 72
0
 40
0.000
 51
0.000
 50
0.000
  1
270.000
  0
ATTRIB
  2
CODE_2132
 70
9
  8
PEN4
  7
NORMSCHRIFT
 10
0.000
 20
0.000
 72
0
 40
0.000
 51
0.000
 50
0.000
  1
20.000
  0
ATTRIB
  2
CODE_2133
 70
9
  8
PEN4
  7
NORMSCHRIFT
 10
0.000
 20
0.000
 72
0
 40
0.000
 51
0.000
 50
0.000
  1
100.000
  0
ATTRIB
  2
CODE_2134
 70
9
  8
PEN4
  7
NORMSCHRIFT
 10
0.000
 20
0.000
 72
0
 40
0.000
 51
0.000
 50
0.000
  1
10.000
  0
ATTRIB
  2
CODE_2016
 70
9
  8
PEN4
  7
NORMSCHRIFT
 10
0.000
 20
0.000
 72
0
 40
0.000
 51
0.000
 50
0.000
  1
J
  0
ATTRIB
  2
CODE_2011
 70
9
  8
PEN4
  7
NORMSCHRIFT
 10
0.000
 20
0.000
 72
0
 40
0.000
 51
0.000
 50
0.000
  1
60
  0
ATTRIB
  2
CODE_2017
 70
9
  8
PEN4
  7
NORMSCHRIFT
 10
0.000
 20
0.000
 72
0
 40
0.000
 51
0.000
 50
0.000
  1
245
  0
ATTRIB
  2
CODE_2018
 70
9
  8
PEN4
  7
NORMSCHRIFT
 10
0.000
 20
0.000
 72
0
 40
0.000
 51
0.000
 50
0.000
  1
3.5
  0
ATTRIB
  2
CODE_2019
 70
9
  8
PEN4
  7
NORMSCHRIFT
 10
0.000
 20
0.000
 72
0
 40
0.000
 51
0.000
 50
0.000
  1
A20
  0
ATTRIB
  2
CODE_51
 70
9
  8
PEN4
  7
NORMSCHRIFT
 10
337.100
 20
6.000
 72
2
 11
337.100
 21
6.000
 40
2.000
 51
0.000
 50
0.000
  1
Engineering Base Gross
  0
ATTRIB
  2
CODE_4006
 70
9
  8
PEN4
  7
NORMSCHRIFT
 10
0.000
 20
0.000
 72
0
 40
0.000
 51
0.000
 50
0.000
  1
1:2
  0
ATTRIB
  2
CODE_4901
 70
9
  8
PEN2
  7
NORMSCHRIFT
 10
400.000
 20
4.750
 72
0
 40
2.500
 51
0.000
 50
90.000
  1
20.04.2010
  0
ATTRIB
  2
CODE_4902
 70
9
  8
PEN2
  7
NORMSCHRIFT
 10
400.000
 20
4.750
 72
0
 40
2.500
 51
0.000
 50
90.000
  1
grossph
  0
ATTRIB
  2
CODE_4903
 70
9
  8
PEN2
  7
NORMSCHRIFT
 10
400.000
 20
4.750
 72
0
 40
2.500
 51
0.000
 50
90.000
  1
7.3.2 SP1
  0
ATTRIB
  2
CODE_4800
 70
8
  8
PEN4
  7
NORMSCHRIFT
 10
0.800
 20
5.000
 72
1
 11
1.500
 21
5.000
 40
2.000
 51
0.000
 50
0.000
  1
a
  0
ATTRIB
  2
CODE_4800
 70
8
  8
PEN4
  7
NORMSCHRIFT
 10
0.800
 20
10.000
 72
1
 11
1.500
 21
10.000
 40
2.000
 51
0.000
 50
0.000
  1
b
  0
ATTRIB
  2
CODE_4800
 70
8
  8
PEN4
  7
NORMSCHRIFT
 10
0.900
 20
15.000
 72
1
 11
1.500
 21
15.000
 40
2.000
 51
0.000
 50
0.000
  1
c
  0
SEQEND
  0
TEXT
  8
PEN2
  7
NORMSCHRIFT
 10
400.000
 20
4.750
 72
0
 40
2.500
 51
0.000
 50
90.000
  1
gedruckt am / printed : 20.04.2010         durch /by: grossph         ELCAD Version:7.3.2 SP1
  0
TEXT
  8
PEN2
  7
NORMSCHRIFT
 10
178.500
 20
15.000
 72
2
 11
183.750
 21
15.000
 40
2.500
 51
0.000
 50
0.000
  1
 / 
  0
TEXT
  8
PEN1
  7
NORMSCHRIFT
 10
289.350
 20
0.000
 72
0
 40
3.500
 51
0.000
 50
0.000
  1
Eplan - MSR
  0
TEXT
  8
PEN4
  7
NORMSCHRIFT
 10
326.300
 20
6.000
 72
2
 11
365.900
 21
6.000
 40
2.000
 51
0.000
 50
0.000
  1
Project: Engineering Base Gross
  0
TEXT
  8
PEN1
  7
NORMSCHRIFT
 10
374.500
 20
10.500
 72
1
 11
374.500
 21
10.500
 40
3.500
 51
0.000
 50
0.000
  1

  0
INSERT
  8
SYMBOL
  2
K7-9170F
 10
196.000
 20
140.000
 41
1.000
 42
1.000
 50
0.000
 66
1
  0
ATTRIB
  2
CODE_4
 70
8
  8
PEN4
  7
NORMSCHRIFT
 10
202.975
 20
126.200
 72
2
 11
202.975
 21
126.200
 40
1.800
 51
0.000
 50
0.000
  1

  0
ATTRIB
  2
CODE_51
 70
8
  8
PEN4
  7
NORMSCHRIFT
 10
200.600
 20
121.250
 72
1
 11
200.600
 21
121.250
 40
2.000
 51
0.000
 50
0.000
  1

  0
SEQEND
  0
ENDSEC
999
############################################################
999
# EOF                                                      #
999
############################################################
  0
EOF
