  0
SECTION
  2
HEADER
  9
$ACADVER
  1
AC1015
  9
$ACADMAINTVER
 70
     6
  9
$DWGCODEPAGE
  3
ANSI_1252
  9
$INSBASE
 10
0.0
 20
0.0
 30
0.0
  9
$EXTMIN
 10
-309.0122407246
 20
-290.2006535994
 30
0.0
  9
$EXTMAX
 10
309.0122407246
 20
328.3993463884
 30
0.0
  9
$LIMMIN
 10
0.0
 20
0.0
  9
$LIMMAX
 10
420.0
 20
297.0
  9
$ORTHOMODE
 70
     0
  9
$REGENMODE
 70
     1
  9
$FILLMODE
 70
     1
  9
$QTEXTMODE
 70
     0
  9
$MIRRTEXT
 70
     1
  9
$LTSCALE
 40
1.0
  9
$ATTMODE
 70
     1
  9
$TEXTSIZE
 40
3.5
  9
$TRACEWID
 40
1.0
  9
$TEXTSTYLE
  7
Standard
  9
$CLAYER
  8
0
  9
$CELTYPE
  6
ByLayer
  9
$CECOLOR
 62
   256
  9
$CELTSCALE
 40
1.0
  9
$DISPSILH
 70
     0
  9
$DIMSCALE
 40
1.0
  9
$DIMASZ
 40
3.556
  9
$DIMEXO
 40
1.0
  9
$DIMDLI
 40
3.75
  9
$DIMRND
 40
0.0
  9
$DIMDLE
 40
0.0
  9
$DIMEXE
 40
1.0
  9
$DIMTP
 40
0.0
  9
$DIMTM
 40
0.0
  9
$DIMTXT
 40
3.5
  9
$DIMCEN
 40
2.5
  9
$DIMTSZ
 40
0.0
  9
$DIMTOL
 70
     0
  9
$DIMLIM
 70
     0
  9
$DIMTIH
 70
     1
  9
$DIMTOH
 70
     1
  9
$DIMSE1
 70
     0
  9
$DIMSE2
 70
     0
  9
$DIMTAD
 70
     1
  9
$DIMZIN
 70
     0
  9
$DIMBLK
  1

  9
$DIMASO
 70
     1
  9
$DIMSHO
 70
     1
  9
$DIMPOST
  1

  9
$DIMAPOST
  1

  9
$DIMALT
 70
     0
  9
$DIMALTD
 70
     3
  9
$DIMALTF
 40
0.0393700787
  9
$DIMLFAC
 40
1.0
  9
$DIMTOFL
 70
     1
  9
$DIMTVP
 40
0.0
  9
$DIMTIX
 70
     0
  9
$DIMSOXD
 70
     0
  9
$DIMSAH
 70
     0
  9
$DIMBLK1
  1

  9
$DIMBLK2
  1

  9
$DIMSTYLE
  2
ISO-25
  9
$DIMCLRD
 70
     0
  9
$DIMCLRE
 70
     0
  9
$DIMCLRT
 70
     0
  9
$DIMTFAC
 40
1.0
  9
$DIMGAP
 40
1.524
  9
$DIMJUST
 70
     0
  9
$DIMSD1
 70
     0
  9
$DIMSD2
 70
     0
  9
$DIMTOLJ
 70
     0
  9
$DIMTZIN
 70
     0
  9
$DIMALTZ
 70
     0
  9
$DIMALTTZ
 70
     0
  9
$DIMUPT
 70
     0
  9
$DIMDEC
 70
     2
  9
$DIMTDEC
 70
     2
  9
$DIMALTU
 70
     2
  9
$DIMALTTD
 70
     3
  9
$DIMTXSTY
  7
Standard
  9
$DIMAUNIT
 70
     0
  9
$DIMADEC
 70
     2
  9
$DIMALTRND
 40
0.0
  9
$DIMAZIN
 70
     0
  9
$DIMDSEP
 70
    44
  9
$DIMATFIT
 70
     3
  9
$DIMFRAC
 70
     0
  9
$DIMLDRBLK
  1

  9
$DIMLUNIT
 70
     2
  9
$DIMLWD
 70
    -2
  9
$DIMLWE
 70
    -2
  9
$DIMTMOVE
 70
     0
  9
$LUNITS
 70
     2
  9
$LUPREC
 70
     2
  9
$SKETCHINC
 40
1.0
  9
$FILLETRAD
 40
10.0
  9
$AUNITS
 70
     0
  9
$AUPREC
 70
     2
  9
$MENU
  1
.
  9
$ELEVATION
 40
0.0
  9
$PELEVATION
 40
0.0
  9
$THICKNESS
 40
0.0
  9
$LIMCHECK
 70
     0
  9
$CHAMFERA
 40
0.0
  9
$CHAMFERB
 40
0.0
  9
$CHAMFERC
 40
0.0
  9
$CHAMFERD
 40
0.0
  9
$SKPOLY
 70
     0
  9
$TDCREATE
 40
2457294.315853576
  9
$TDUCREATE
 40
2457294.232520243
  9
$TDUPDATE
 40
2457294.315881921
  9
$TDUUPDATE
 40
2457294.232548588
  9
$TDINDWG
 40
0.0000000116
  9
$TDUSRTIMER
 40
0.0000000116
  9
$USRTIMER
 70
     1
  9
$ANGBASE
 50
0.0
  9
$ANGDIR
 70
     0
  9
$PDMODE
 70
     0
  9
$PDSIZE
 40
-1.0
  9
$PLINEWID
 40
0.0
  9
$SPLFRAME
 70
     0
  9
$SPLINETYPE
 70
     6
  9
$SPLINESEGS
 70
     8
  9
$HANDSEED
  5
494
  9
$SURFTAB1
 70
     6
  9
$SURFTAB2
 70
     6
  9
$SURFTYPE
 70
     6
  9
$SURFU
 70
     6
  9
$SURFV
 70
     6
  9
$UCSBASE
  2

  9
$UCSNAME
  2

  9
$UCSORG
 10
0.0
 20
0.0
 30
0.0
  9
$UCSXDIR
 10
1.0
 20
0.0
 30
0.0
  9
$UCSYDIR
 10
0.0
 20
1.0
 30
0.0
  9
$UCSORTHOREF
  2

  9
$UCSORTHOVIEW
 70
     0
  9
$UCSORGTOP
 10
0.0
 20
0.0
 30
0.0
  9
$UCSORGBOTTOM
 10
0.0
 20
0.0
 30
0.0
  9
$UCSORGLEFT
 10
0.0
 20
0.0
 30
0.0
  9
$UCSORGRIGHT
 10
0.0
 20
0.0
 30
0.0
  9
$UCSORGFRONT
 10
0.0
 20
0.0
 30
0.0
  9
$UCSORGBACK
 10
0.0
 20
0.0
 30
0.0
  9
$PUCSBASE
  2

  9
$PUCSNAME
  2

  9
$PUCSORG
 10
0.0
 20
0.0
 30
0.0
  9
$PUCSXDIR
 10
1.0
 20
0.0
 30
0.0
  9
$PUCSYDIR
 10
0.0
 20
1.0
 30
0.0
  9
$PUCSORTHOREF
  2

  9
$PUCSORTHOVIEW
 70
     0
  9
$PUCSORGTOP
 10
0.0
 20
0.0
 30
0.0
  9
$PUCSORGBOTTOM
 10
0.0
 20
0.0
 30
0.0
  9
$PUCSORGLEFT
 10
0.0
 20
0.0
 30
0.0
  9
$PUCSORGRIGHT
 10
0.0
 20
0.0
 30
0.0
  9
$PUCSORGFRONT
 10
0.0
 20
0.0
 30
0.0
  9
$PUCSORGBACK
 10
0.0
 20
0.0
 30
0.0
  9
$USERI1
 70
     0
  9
$USERI2
 70
     0
  9
$USERI3
 70
     0
  9
$USERI4
 70
     0
  9
$USERI5
 70
     0
  9
$USERR1
 40
0.0
  9
$USERR2
 40
0.0
  9
$USERR3
 40
0.0
  9
$USERR4
 40
0.0
  9
$USERR5
 40
0.0
  9
$WORLDVIEW
 70
     1
  9
$SHADEDGE
 70
     3
  9
$SHADEDIF
 70
    70
  9
$TILEMODE
 70
     1
  9
$MAXACTVP
 70
    64
  9
$PINSBASE
 10
0.0
 20
0.0
 30
0.0
  9
$PLIMCHECK
 70
     0
  9
$PEXTMIN
 10
1.0000000000E+20
 20
1.0000000000E+20
 30
1.0000000000E+20
  9
$PEXTMAX
 10
-1.0000000000E+20
 20
-1.0000000000E+20
 30
-1.0000000000E+20
  9
$PLIMMIN
 10
0.0
 20
0.0
  9
$PLIMMAX
 10
420.0
 20
297.0
  9
$UNITMODE
 70
     0
  9
$VISRETAIN
 70
     1
  9
$PLINEGEN
 70
     0
  9
$PSLTSCALE
 70
     1
  9
$TREEDEPTH
 70
  3020
  9
$CMLSTYLE
  2
Standard
  9
$CMLJUST
 70
     0
  9
$CMLSCALE
 40
20.0
  9
$PROXYGRAPHICS
 70
     1
  9
$MEASUREMENT
 70
     1
  9
$CELWEIGHT
370
    -1
  9
$ENDCAPS
280
     0
  9
$JOINSTYLE
280
     0
  9
$LWDISPLAY
290
     1
  9
$INSUNITS
 70
     4
  9
$HYPERLINKBASE
  1

  9
$STYLESHEET
  1

  9
$XEDIT
290
     1
  9
$CEPSNTYPE
380
     0
  9
$PSTYLEMODE
290
     1
  9
$FINGERPRINTGUID
  2
{948E314D-A15B-4D36-8062-7F5480041202}
  9
$VERSIONGUID
  2
{FAEB1C32-E019-11D5-929B-00C0DF256EC4}
  9
$EXTNAMES
290
     1
  9
$PSVPSCALE
 40
0.0
  9
$OLESTARTUP
290
     0
  0
ENDSEC
  0
SECTION
  2
CLASSES
  0
CLASS
  1
ACDBDICTIONARYWDFLT
  2
AcDbDictionaryWithDefault
  3
ObjectDBX Classes
 90
        0
280
     0
281
     0
  0
CLASS
  1
VISUALSTYLE
  2
AcDbVisualStyle
  3
ObjectDBX Classes
 90
     4095
280
     0
281
     0
  0
CLASS
  1
MATERIAL
  2
AcDbMaterial
  3
ObjectDBX Classes
 90
     1153
280
     0
281
     0
  0
CLASS
  1
SCALE
  2
AcDbScale
  3
ObjectDBX Classes
 90
     1153
280
     0
281
     0
  0
CLASS
  1
TABLESTYLE
  2
AcDbTableStyle
  3
ObjectDBX Classes
 90
     4095
280
     0
281
     0
  0
CLASS
  1
MLEADERSTYLE
  2
AcDbMLeaderStyle
  3
ACDB_MLEADERSTYLE_CLASS
 90
     4095
280
     0
281
     0
  0
CLASS
  1
SUN
  2
AcDbSun
  3
SCENEOE
 90
     1153
280
     0
281
     0
  0
CLASS
  1
ACDBPLACEHOLDER
  2
AcDbPlaceHolder
  3
ObjectDBX Classes
 90
        0
280
     0
281
     0
  0
CLASS
  1
LAYOUT
  2
AcDbLayout
  3
ObjectDBX Classes
 90
        0
280
     0
281
     0
  0
ENDSEC
  0
SECTION
  2
TABLES
  0
TABLE
  2
VPORT
  5
8
330
0
100
AcDbSymbolTable
 70
     1
  0
VPORT
  5
29
330
8
100
AcDbSymbolTableRecord
100
AcDbViewportTableRecord
  2
*Active
 70
     0
 10
0.0
 20
0.0
 11
1.0
 21
1.0
 12
0.0
 22
19.0993463945
 13
0.0
 23
0.0
 14
10.0
 24
10.0
 15
10.0
 25
10.0
 16
0.0
 26
0.0
 36
1.0
 17
0.0
 27
0.0
 37
0.0
 40
630.9719999875
 41
0.9990696435
 42
50.0
 43
0.0
 44
0.0
 50
0.0
 51
0.0
 71
     0
 72
   100
 73
     1
 74
     3
 75
     0
 76
     0
 77
     0
 78
     0
281
     0
 65
     1
110
0.0
120
0.0
130
0.0
111
1.0
121
0.0
131
0.0
112
0.0
122
1.0
132
0.0
 79
     0
146
0.0
  0
ENDTAB
  0
TABLE
  2
LTYPE
  5
5
330
0
100
AcDbSymbolTable
 70
     6
  0
LTYPE
  5
14
330
5
100
AcDbSymbolTableRecord
100
AcDbLinetypeTableRecord
  2
ByBlock
 70
     0
  3

 72
    65
 73
     0
 40
0.0
  0
LTYPE
  5
15
330
5
100
AcDbSymbolTableRecord
100
AcDbLinetypeTableRecord
  2
ByLayer
 70
     0
  3

 72
    65
 73
     0
 40
0.0
  0
LTYPE
  5
16
330
5
100
AcDbSymbolTableRecord
100
AcDbLinetypeTableRecord
  2
Continuous
 70
     0
  3
Solid line
 72
    65
 73
     0
 40
0.0
  0
LTYPE
  5
6E
330
5
100
AcDbSymbolTableRecord
100
AcDbLinetypeTableRecord
  2
HIDDEN
 70
     0
  3
Hidden __ __ __ __ __ __ __ __ __ __ __ __ __ __
 72
    65
 73
     2
 40
1.905
 49
1.27
 74
     0
 49
-0.635
 74
     0
  0
LTYPE
  5
6F
330
5
100
AcDbSymbolTableRecord
100
AcDbLinetypeTableRecord
  2
PHANTOM
 70
     0
  3
Phantom ______  __  __  ______  __  __  ______
 72
    65
 73
     6
 40
12.7
 49
6.35
 74
     0
 49
-1.27
 74
     0
 49
1.27
 74
     0
 49
-1.27
 74
     0
 49
1.27
 74
     0
 49
-1.27
 74
     0
  0
LTYPE
  5
70
330
5
100
AcDbSymbolTableRecord
100
AcDbLinetypeTableRecord
  2
CENTER
 70
     0
  3
Center ____ _ ____ _ ____ _ ____ _ ____ _ ____
 72
    65
 73
     4
 40
10.16
 49
6.35
 74
     0
 49
-1.27
 74
     0
 49
1.27
 74
     0
 49
-1.27
 74
     0
  0
LTYPE
  5
71
330
5
100
AcDbSymbolTableRecord
100
AcDbLinetypeTableRecord
  2
CENTERX2
 70
     0
  3
Center (2x) ________  __  ________  __  _____
 72
    65
 73
     4
 40
20.32
 49
12.7
 74
     0
 49
-2.54
 74
     0
 49
2.54
 74
     0
 49
-2.54
 74
     0
  0
LTYPE
  5
72
330
5
100
AcDbSymbolTableRecord
100
AcDbLinetypeTableRecord
  2
DOT2
 70
     0
  3
Dot (.5x) ........................................
 72
    65
 73
     2
 40
0.635
 49
0.0
 74
     0
 49
-0.635
 74
     0
  0
ENDTAB
  0
TABLE
  2
LAYER
  5
2
330
0
100
AcDbSymbolTable
 70
     1
  0
LAYER
  5
10
330
2
100
AcDbSymbolTableRecord
100
AcDbLayerTableRecord
  2
0
 70
     0
 62
     7
  6
Continuous
370
    -3
390
F
  0
ENDTAB
  0
TABLE
  2
STYLE
  5
3
330
0
100
AcDbSymbolTable
 70
     1
  0
STYLE
  5
11
330
3
100
AcDbSymbolTableRecord
100
AcDbTextStyleTableRecord
  2
Standard
 70
     0
 40
0.0
 41
1.0
 50
0.0
 71
     0
 42
3.5
  3
txt
  4

  0
ENDTAB
  0
TABLE
  2
VIEW
  5
6
330
0
100
AcDbSymbolTable
 70
     0
  0
ENDTAB
  0
TABLE
  2
UCS
  5
7
330
0
100
AcDbSymbolTable
 70
     0
  0
ENDTAB
  0
TABLE
  2
APPID
  5
9
330
0
100
AcDbSymbolTable
 70
     1
  0
APPID
  5
12
330
9
100
AcDbSymbolTableRecord
100
AcDbRegAppTableRecord
  2
ACAD
 70
     0
  0
ENDTAB
  0
TABLE
  2
DIMSTYLE
  5
A
330
0
100
AcDbSymbolTable
 70
     1
100
AcDbDimStyleTable
  0
DIMSTYLE
105
27
330
A
100
AcDbSymbolTableRecord
100
AcDbDimStyleTableRecord
  2
ISO-25
 70
     0
 41
2.5
 42
0.625
 43
3.75
 44
1.25
 73
     0
 74
     0
 77
     1
 78
     8
140
2.5
141
2.5
143
0.0393700787
147
0.625
171
     3
172
     1
178
     0
271
     2
272
     2
274
     3
278
    44
283
     0
284
     8
340
11
  0
ENDTAB
  0
TABLE
  2
BLOCK_RECORD
  5
1
330
0
100
AcDbSymbolTable
 70
     1
  0
BLOCK_RECORD
  5
1F
330
1
100
AcDbSymbolTableRecord
100
AcDbBlockTableRecord
  2
*Model_Space
340
22
  0
BLOCK_RECORD
  5
1B
330
1
100
AcDbSymbolTableRecord
100
AcDbBlockTableRecord
  2
*Paper_Space
340
1E
  0
BLOCK_RECORD
  5
23
330
1
100
AcDbSymbolTableRecord
100
AcDbBlockTableRecord
  2
*Paper_Space0
340
26
  0
ENDTAB
  0
ENDSEC
  0
SECTION
  2
BLOCKS
  0
BLOCK
  5
20
330
1F
100
AcDbEntity
  8
0
100
AcDbBlockBegin
  2
*Model_Space
 70
     0
 10
0.0
 20
0.0
 30
0.0
  3
*Model_Space
  1

  0
ENDBLK
  5
21
330
1F
100
AcDbEntity
  8
0
100
AcDbBlockEnd
  0
BLOCK
  5
1C
330
1B
100
AcDbEntity
 67
     1
  8
0
100
AcDbBlockBegin
  2
*Paper_Space
 70
     0
 10
0.0
 20
0.0
 30
0.0
  3
*Paper_Space
  1

  0
ENDBLK
  5
1D
330
1B
100
AcDbEntity
 67
     1
  8
0
100
AcDbBlockEnd
  0
BLOCK
  5
24
330
23
100
AcDbEntity
  8
0
100
AcDbBlockBegin
  2
*Paper_Space0
 70
     0
 10
0.0
 20
0.0
 30
0.0
  3
*Paper_Space0
  1

  0
ENDBLK
  5
25
330
23
100
AcDbEntity
  8
0
100
AcDbBlockEnd
  0
ENDSEC
  0
SECTION
  2
ENTITIES
  0
SPLINE
  5
110
330
1F
100
AcDbEntity
  8
0
  6
Continuous
 62
     7
370
    15
100
AcDbSpline
210
0.0
220
0.0
230
1.0
 70
     8
 71
     3
 72
    10
 73
     6
 74
     0
 42
0.000000001
 43
0.00000001
 40
0.0
 40
0.0
 40
0.0
 40
0.0
 40
0.5
 40
0.5
 40
1.0
 40
1.0
 40
1.0
 40
1.0
 10
288.999000466358
 20
-111.6006530795982
 30
0.0
 10
288.999000466516
 20
-111.7315528128065
 30
0.0
 10
288.9451139022958
 20
-111.8616464874204
 30
0.0
 10
288.7599937245047
 20
-112.046766665658
 30
0.0
 10
288.6299000500209
 20
-112.1006532301919
 30
0.0
 10
288.4990003168125
 20
-112.1006532303498
 30
0.0
  0
SPLINE
  5
111
330
1F
100
AcDbEntity
  8
0
  6
Continuous
 62
     7
370
    15
100
AcDbSpline
210
0.0
220
0.0
230
1.0
 70
     8
 71
     3
 72
    14
 73
    10
 74
     0
 42
0.000000001
 43
0.00000001
 40
0.0
 40
0.0
 40
0.0
 40
0.0
 40
0.25
 40
0.25
 40
0.5
 40
0.5
 40
0.75
 40
0.75
 40
1.0
 40
1.0
 40
1.0
 40
1.0
 10
290.499000466358
 20
-111.600653077789
 30
0.0
 10
290.4990004666739
 20
-111.8624524852425
 30
0.0
 10
290.4469458164182
 20
-112.1241488858714
 30
0.0
 10
290.2465732253306
 20
-112.6078911144529
 30
0.0
 10
290.0983341225572
 20
-112.8297466104954
 30
0.0
 10
289.7280938503616
 20
-113.199986883584
 30
0.0
 10
289.5062383546768
 20
-113.3482259868927
 30
0.0
 10
289.0224961265786
 20
-113.5485985791471
 30
0.0
 10
288.7607997260754
 20
-113.600653230034
 30
0.0
 10
288.4990003186218
 20
-113.6006532303498
 30
0.0
  0
SPLINE
  5
113
330
1F
100
AcDbEntity
  8
0
  6
Continuous
 62
     7
370
    15
100
AcDbSpline
210
0.0
220
0.0
230
1.0
 70
     8
 71
     3
 72
    14
 73
    10
 74
     0
 42
0.000000001
 43
0.00000001
 40
0.0
 40
0.0
 40
0.0
 40
0.0
 40
0.25
 40
0.25
 40
0.5
 40
0.5
 40
0.75
 40
0.75
 40
1.0
 40
1.0
 40
1.0
 40
1.0
 10
-289.5009996813808
 20
-113.6006539274731
 30
0.0
 10
-289.7627990890354
 20
-113.6006539277888
 30
0.0
 10
-290.0244954898649
 20
-113.5485992774522
 30
0.0
 10
-290.5082377187574
 20
-113.348226686065
 30
0.0
 10
-290.7300932149095
 20
-113.1999875830731
 30
0.0
 10
-291.1003334880591
 20
-112.8297473103701
 30
0.0
 10
-291.2485725913186
 20
-112.6078918143967
 30
0.0
 10
-291.4489451832894
 20
-112.1241495857458
 30
0.0
 10
-291.5009998339416
 20
-111.8624531849791
 30
0.0
 10
-291.5009998339416
 20
-111.6006537773246
 30
0.0
  0
SPLINE
  5
114
330
1F
100
AcDbEntity
  8
0
  6
Continuous
 62
     7
370
    15
100
AcDbSpline
210
0.0
220
0.0
230
1.0
 70
     8
 71
     3
 72
    10
 73
     6
 74
     0
 42
0.000000001
 43
0.00000001
 40
0.0
 40
0.0
 40
0.0
 40
0.0
 40
0.5
 40
0.5
 40
1.0
 40
1.0
 40
1.0
 40
1.0
 10
-289.5009996831901
 20
-112.1006539274731
 30
0.0
 10
-289.6318994164988
 20
-112.1006539276309
 30
0.0
 10
-289.7619930912102
 20
-112.0467673633245
 30
0.0
 10
-289.9471132694783
 20
-111.8616471852797
 30
0.0
 10
-290.0009998339416
 20
-111.7315535106334
 30
0.0
 10
-290.0009998339416
 20
-111.6006537773246
 30
0.0
  0
CIRCLE
  5
1B9
330
1F
100
AcDbEntity
  8
0
  6
Continuous
 62
     7
370
    15
100
AcDbCircle
 10
8.0009998268
 20
314.3993463884
 30
0.0
 40
3.249999999999938
  0
CIRCLE
  5
1BA
330
1F
100
AcDbEntity
  8
0
  6
Continuous
 62
     7
370
    15
100
AcDbCircle
 10
8.0009998268
 20
-218.6006536116
 30
0.0
 40
3.249999999999917
  0
CIRCLE
  5
1E5
330
1F
100
AcDbEntity
  8
0
  6
Continuous
 62
     7
370
    15
100
AcDbCircle
 10
-281.4990001732
 20
-18.6006536116
 30
0.0
 40
3.250000000000114
  0
CIRCLE
  5
1E6
330
1F
100
AcDbEntity
  8
0
  6
Continuous
 62
     7
370
    15
100
AcDbCircle
 10
-281.4990001732
 20
108.3993463884
 30
0.0
 40
3.250000000000057
  0
CIRCLE
  5
1E7
330
1F
100
AcDbEntity
  8
0
  6
Continuous
 62
     7
370
    15
100
AcDbCircle
 10
-281.4990001732
 20
235.3993463884
 30
0.0
 40
3.250000000000057
  0
CIRCLE
  5
1E8
330
1F
100
AcDbEntity
  8
0
  6
Continuous
 62
     7
370
    15
100
AcDbCircle
 10
-141.9990001732
 20
-218.6006536116
 30
0.0
 40
3.249999999999972
  0
CIRCLE
  5
1E9
330
1F
100
AcDbEntity
  8
0
  6
Continuous
 62
     7
370
    15
100
AcDbCircle
 10
-141.9990001732
 20
314.3993463884
 30
0.0
 40
3.249999999999915
  0
CIRCLE
  5
1EA
330
1F
100
AcDbEntity
  8
0
  6
Continuous
 62
     7
370
    15
100
AcDbCircle
 10
-281.4990001732
 20
-145.6006536116
 30
0.0
 40
3.250000000000057
  0
CIRCLE
  5
1EF
330
1F
100
AcDbEntity
  8
0
  6
Continuous
 62
     7
370
    15
100
AcDbCircle
 10
281.5009998268
 20
-18.6006536116
 30
0.0
 40
3.250000000000057
  0
CIRCLE
  5
1F0
330
1F
100
AcDbEntity
  8
0
  6
Continuous
 62
     7
370
    15
100
AcDbCircle
 10
281.5009998268
 20
108.3993463884
 30
0.0
 40
3.250000000000114
  0
CIRCLE
  5
1F1
330
1F
100
AcDbEntity
  8
0
  6
Continuous
 62
     7
370
    15
100
AcDbCircle
 10
281.5009998268
 20
235.3993463884
 30
0.0
 40
3.250000000000057
  0
CIRCLE
  5
1F2
330
1F
100
AcDbEntity
  8
0
  6
Continuous
 62
     7
370
    15
100
AcDbCircle
 10
142.0009998268
 20
-218.6006536116
 30
0.0
 40
3.249999999999972
  0
CIRCLE
  5
1F3
330
1F
100
AcDbEntity
  8
0
  6
Continuous
 62
     7
370
    15
100
AcDbCircle
 10
142.0009998268
 20
314.3993463884
 30
0.0
 40
3.25
  0
CIRCLE
  5
1F4
330
1F
100
AcDbEntity
  8
0
  6
Continuous
 62
     7
370
    15
100
AcDbCircle
 10
281.5009998268
 20
-145.6006536116
 30
0.0
 40
3.250000000000114
  0
LWPOLYLINE
  5
1FD
330
1F
100
AcDbEntity
  8
0
  6
Continuous
 62
     7
370
    15
100
AcDbPolyline
 90
        9
 70
   128
 43
0.0
 10
-290.5000001732
 20
328.3993463884
 10
-290.5000001732
 20
328.3417022296
 10
-290.5000001732
 20
328.1709849859
 10
-290.5000001732
 20
327.8937552253
 10
-290.5000001732
 20
327.5206667319
 10
-290.5000001732
 20
327.0660570874
 10
-290.5000001732
 20
326.5473966855
 10
-290.5000001732
 20
325.9846173544
 10
-290.4999998398
 20
325.3993463884
  0
LWPOLYLINE
  5
202
330
1F
100
AcDbEntity
  8
0
  6
Continuous
 62
     7
370
    15
100
AcDbPolyline
 90
        9
 70
   128
 43
0.0
 10
290.5019998268
 20
-230.6006536116
 10
290.5019998268
 20
-230.5430094528
 10
290.5019998268
 20
-230.3722922092
 10
290.5019998268
 20
-230.0950624485
 10
290.5019998268
 20
-229.7219739552
 10
290.5019998268
 20
-229.2673643107
 10
290.5019998268
 20
-228.7487039087
 10
290.5019998268
 20
-228.1859245777
 10
290.5019994933
 20
-227.6006536116
  0
SPLINE
  5
203
330
1F
100
AcDbEntity
  8
0
  6
Continuous
 62
     7
370
    15
100
AcDbSpline
210
0.0
220
0.0
230
1.0
 70
     8
 71
     3
 72
    16
 73
    12
 74
     0
 42
0.000000001
 43
0.00000001
 40
0.0
 40
0.0
 40
0.0
 40
0.0
 40
0.2500000000000148
 40
0.2500000000000148
 40
0.5000000000000295
 40
0.5000000000000295
 40
0.6250000000000149
 40
0.6250000000000149
 40
0.7500000000000003
 40
0.7500000000000003
 40
1.0
 40
1.0
 40
1.0
 40
1.0
 10
292.0019998267638
 20
328.3993463883667
 30
0.0
 10
292.0019998267639
 20
328.1471414827447
 30
0.0
 10
291.9630364247918
 20
327.9000398490145
 30
0.0
 10
291.813428363238
 20
327.4014053242662
 30
0.0
 10
291.7011226841663
 20
327.1487611423786
 30
0.0
 10
291.4940297852438
 20
326.7757216297726
 30
0.0
 10
291.4183568231075
 20
326.6515424927757
 30
0.0
 10
291.2553393860968
 20
326.4017241676435
 30
0.0
 10
291.1674172973712
 20
326.2753155581888
 30
0.0
 10
290.8946180779412
 20
325.8993069138969
 30
0.0
 10
290.7000809971885
 20
325.6515511676195
 30
0.0
 10
290.5019997416658
 20
325.3993462800165
 30
0.0
  0
SPLINE
  5
205
330
1F
100
AcDbEntity
  8
0
  6
Continuous
 62
     7
370
    15
100
AcDbSpline
210
0.0
220
0.0
230
1.0
 70
     8
 71
     3
 72
    16
 73
    12
 74
     0
 42
0.000000001
 43
0.00000001
 40
0.0
 40
0.0
 40
0.0
 40
0.0
 40
0.2500000000000012
 40
0.2500000000000012
 40
0.5000000000000024
 40
0.5000000000000024
 40
0.7500000000000037
 40
0.7500000000000037
 40
0.8750000000000018
 40
0.8750000000000018
 40
1.0
 40
1.0
 40
1.0
 40
1.0
 10
293.5019998267638
 20
328.3993463883667
 30
0.0
 10
293.5019998267639
 20
328.1470339031684
 30
0.0
 10
293.425297442153
 20
327.9017587340168
 30
0.0
 10
293.1224212771905
 20
327.3976692955733
 30
0.0
 10
292.9036840481158
 20
327.1518604101757
 30
0.0
 10
292.3445988023442
 20
326.6483114319109
 30
0.0
 10
292.0165601697487
 20
326.4019585250419
 30
0.0
 10
291.469179846074
 20
326.0246837780959
 30
0.0
 10
291.2797622317638
 20
325.8992892193283
 30
0.0
 10
290.8957426049256
 20
325.650029238175
 30
0.0
 10
290.7001655049246
 20
325.5255025772885
 30
0.0
 10
290.5019997474013
 20
325.3993463378429
 30
0.0
  0
SPLINE
  5
206
330
1F
100
AcDbEntity
  8
0
  6
Continuous
 62
     7
370
    15
100
AcDbSpline
210
0.0
220
0.0
230
1.0
 70
     8
 71
     3
 72
    16
 73
    12
 74
     0
 42
0.000000001
 43
0.00000001
 40
0.0
 40
0.0
 40
0.0
 40
0.0
 40
0.25
 40
0.25
 40
0.5
 40
0.5
 40
0.75
 40
0.75
 40
0.875
 40
0.875
 40
1.0
 40
1.0
 40
1.0
 40
1.0
 10
290.5019997420109
 20
-227.6006535576777
 30
0.0
 10
290.8983312674252
 20
-227.8529660431691
 30
0.0
 10
291.2837134971557
 20
-228.0982412125875
 30
0.0
 10
292.0153195356794
 20
-228.6023306516676
 30
0.0
 10
292.3427393365822
 20
-228.8481395372906
 30
0.0
 10
292.9022577421125
 20
-229.3516885162208
 30
0.0
 10
293.1215790954633
 20
-229.5980414232862
 30
0.0
 10
293.348679447092
 20
-229.9753161707506
 30
0.0
 10
293.4060340037306
 20
-230.1007107296102
 30
0.0
 10
293.4824856164653
 20
-230.349970711022
 30
0.0
 10
293.5019998267638
 20
-230.4744973720414
 30
0.0
 10
293.5019998267637
 20
-230.6006536116335
 30
0.0
  0
SPLINE
  5
209
330
1F
100
AcDbEntity
  8
0
  6
Continuous
 62
     7
370
    15
100
AcDbSpline
210
0.0
220
0.0
230
1.0
 70
     8
 71
     3
 72
    16
 73
    12
 74
     0
 42
0.000000001
 43
0.00000001
 40
0.0
 40
0.0
 40
0.0
 40
0.0
 40
0.2499999999999957
 40
0.2499999999999957
 40
0.4999999999999915
 40
0.4999999999999915
 40
0.6249999999999893
 40
0.6249999999999893
 40
0.7499999999999871
 40
0.7499999999999871
 40
1.0
 40
1.0
 40
1.0
 40
1.0
 10
290.5019997813248
 20
-227.6006535537783
 30
0.0
 10
290.7000810476242
 20
-227.8528584551022
 30
0.0
 10
290.8940645759561
 20
-228.0999600847002
 30
0.0
 10
291.2559878002031
 20
-228.5985946008147
 30
0.0
 10
291.4240927234553
 20
-228.8512387785205
 30
0.0
 10
291.6313422099574
 20
-229.2242782848499
 30
0.0
 10
291.6936016848545
 20
-229.3484574196933
 30
0.0
 10
291.8028090544806
 20
-229.5982757403162
 30
0.0
 10
291.8499277521274
 20
-229.7246843474699
 30
0.0
 10
291.9630308365813
 20
-230.1006929859678
 30
0.0
 10
292.0019998267637
 20
-230.3484487283291
 30
0.0
 10
292.0019998267637
 20
-230.6006536116336
 30
0.0
  0
SPLINE
  5
20A
330
1F
100
AcDbEntity
  8
0
  6
Continuous
 62
     7
370
    15
100
AcDbSpline
210
0.0
220
0.0
230
1.0
 70
     8
 71
     3
 72
    16
 73
    12
 74
     0
 42
0.000000001
 43
0.00000001
 40
0.0
 40
0.0
 40
0.0
 40
0.0
 40
0.25
 40
0.25
 40
0.5
 40
0.5
 40
0.625
 40
0.625
 40
0.75
 40
0.75
 40
1.0
 40
1.0
 40
1.0
 40
1.0
 10
-292.000000173236
 20
328.3993463883671
 30
0.0
 10
-292.000000173236
 20
328.1471414870434
 30
0.0
 10
-291.961036772583
 20
327.9000398574391
 30
0.0
 10
-291.8114287160405
 20
327.4014053413356
 30
0.0
 10
-291.6991230405865
 20
327.1487611636191
 30
0.0
 10
-291.4920301479182
 20
326.7757216572984
 30
0.0
 10
-291.4163571880324
 20
326.6515425224532
 30
0.0
 10
-291.2533397557903
 20
326.4017242018303
 30
0.0
 10
-291.1654176695507
 20
326.2753155946727
 30
0.0
 10
-290.8926184566167
 20
325.8993069561836
 30
0.0
 10
-290.6980813799435
 20
325.6515512138172
 30
0.0
 10
-290.500000127797
 20
325.3993463305123
 30
0.0
  0
SPLINE
  5
20B
330
1F
100
AcDbEntity
  8
0
  6
Continuous
 62
     7
370
    15
100
AcDbSpline
210
0.0
220
0.0
230
1.0
 70
     8
 71
     3
 72
    16
 73
    12
 74
     0
 42
0.000000001
 43
0.00000001
 40
0.0
 40
0.0
 40
0.0
 40
0.0
 40
0.250000000000004
 40
0.250000000000004
 40
0.500000000000008
 40
0.500000000000008
 40
0.750000000000012
 40
0.750000000000012
 40
0.875000000000006
 40
0.875000000000006
 40
1.0
 40
1.0
 40
1.0
 40
1.0
 10
-290.5000000884831
 20
325.3993463344117
 30
0.0
 10
-290.8963316138975
 20
325.6516588199032
 30
0.0
 10
-291.2817138436278
 20
325.8969339893214
 30
0.0
 10
-292.0133198821518
 20
326.4010234284015
 30
0.0
 10
-292.3407396830546
 20
326.6468323140244
 30
0.0
 10
-292.9002580885847
 20
327.1503812929549
 30
0.0
 10
-293.1195794419356
 20
327.3967342000201
 30
0.0
 10
-293.3466797935641
 20
327.7740089474843
 30
0.0
 10
-293.4040343502031
 20
327.8994035063442
 30
0.0
 10
-293.4804859629379
 20
328.1486634877559
 30
0.0
 10
-293.500000173236
 20
328.2731901487751
 30
0.0
 10
-293.500000173236
 20
328.3993463883671
 30
0.0
  0
SPLINE
  5
20E
330
1F
100
AcDbEntity
  8
0
  6
Continuous
 62
     7
370
    15
100
AcDbSpline
210
0.0
220
0.0
230
1.0
 70
     8
 71
     3
 72
    16
 73
    12
 74
     0
 42
0.000000001
 43
0.00000001
 40
0.0
 40
0.0
 40
0.0
 40
0.0
 40
0.2499999999999942
 40
0.2499999999999942
 40
0.4999999999999885
 40
0.4999999999999885
 40
0.7499999999999827
 40
0.7499999999999827
 40
0.8749999999999913
 40
0.8749999999999913
 40
1.0
 40
1.0
 40
1.0
 40
1.0
 10
-293.5000001732361
 20
-230.6006536116331
 30
0.0
 10
-293.5000001732362
 20
-230.348341127051
 30
0.0
 10
-293.4232977889908
 20
-230.1030659584812
 30
0.0
 10
-293.120421625516
 20
-229.5989765213353
 30
0.0
 10
-292.9016843973898
 20
-229.3531676364533
 30
0.0
 10
-292.342599154208
 20
-228.8496186595453
 30
0.0
 10
-292.0145605227792
 20
-228.6032657531319
 30
0.0
 10
-291.4671802012998
 20
-228.2259910072437
 30
0.0
 10
-291.2777625874792
 20
-228.1005964486766
 30
0.0
 10
-290.893742961733
 20
-227.8513364680668
 30
0.0
 10
-290.6981658622504
 20
-227.7268098074641
 30
0.0
 10
-290.500000105211
 20
-227.6006535683266
 30
0.0
  0
SPLINE
  5
20F
330
1F
100
AcDbEntity
  8
0
  6
Continuous
 62
     7
370
    15
100
AcDbSpline
210
0.0
220
0.0
230
1.0
 70
     8
 71
     3
 72
    16
 73
    12
 74
     0
 42
0.000000001
 43
0.00000001
 40
0.0
 40
0.0
 40
0.0
 40
0.0
 40
0.250000000000014
 40
0.250000000000014
 40
0.500000000000028
 40
0.500000000000028
 40
0.6250000000000215
 40
0.6250000000000215
 40
0.7500000000000151
 40
0.7500000000000151
 40
1.0
 40
1.0
 40
1.0
 40
1.0
 10
-290.5000001002949
 20
-227.6006535187612
 30
0.0
 10
-290.6980813689357
 20
-227.8528584230654
 30
0.0
 10
-290.8920649002296
 20
-228.099960055522
 30
0.0
 10
-291.2539881308738
 20
-228.5985945776382
 30
0.0
 10
-291.4220930574006
 20
-228.8512387582295
 30
0.0
 10
-291.6293425482081
 20
-229.2242782689225
 30
0.0
 10
-291.6916020244668
 20
-229.3484574052571
 30
0.0
 10
-291.8008093965587
 20
-229.5982757290068
 30
0.0
 10
-291.8479280952777
 20
-229.7246843377509
 30
0.0
 10
-291.9610311821389
 20
-230.100692980278
 30
0.0
 10
-292.0000001732359
 20
-230.3484487253479
 30
0.0
 10
-292.000000173236
 20
-230.6006536116332
 30
0.0
  0
LWPOLYLINE
  5
219
330
1F
100
AcDbEntity
  8
0
  6
Continuous
 62
     7
370
    15
100
AcDbPolyline
 90
       30
 70
   128
 43
0.0
 10
308.1001279748
 20
-85.0539298624
 10
308.1002046644
 20
-81.9720349095
 10
308.1048814785
 20
-78.797236962
 10
308.1141035857
 20
-75.5667576232
 10
308.1277628653
 20
-72.3184713096
 10
308.1456991746
 20
-69.0904612083
 10
308.1677022269
 20
-65.9205727863
 10
308.1935140564
 20
-62.8459700872
 10
308.2228320432
 20
-59.9027000164
 10
308.2553124605
 20
-57.1252697245
 10
308.2905745052
 20
-54.5462420422
 10
308.328204762
 20
-52.1958537111
 10
308.3677620507
 20
-50.1016608853
 10
308.4087825981
 20
-48.2882160611
 10
308.4507854759
 20
-46.7767802208
 10
308.4932782387
 20
-45.5850735679
 10
308.5357626977
 20
-44.7270677733
 10
308.5777407615
 20
-44.2128221703
 10
308.6187202756
 20
-44.0483658186
 10
308.6582207928
 20
-44.2356268185
 10
308.6957792055
 20
-44.7724097059
 10
308.7309551758
 20
-45.6524211924
 10
308.7633362975
 20
-46.8653439477
 10
308.7925429316
 20
-48.3969575617
 10
308.818232657
 20
-50.229305265
 10
308.8401042852
 20
-52.3409044562
 10
308.8579013913
 20
-54.7069985654
 10
308.8714153205
 20
-57.2998473025
 10
308.8804876344
 20
-60.0890518867
 10
308.8850119684
 20
-63.0419114445
  0
SPLINE
  5
21C
330
1F
100
AcDbEntity
  8
0
  6
Continuous
 62
     7
370
    15
100
AcDbSpline
210
0.0
220
0.0
230
1.0
 70
     8
 71
     3
 72
    14
 73
    10
 74
     0
 42
0.000000001
 43
0.00000001
 40
0.0
 40
0.0
 40
0.0
 40
0.0
 40
0.25
 40
0.25
 40
0.5
 40
0.5
 40
0.75
 40
0.75
 40
1.0
 40
1.0
 40
1.0
 40
1.0
 10
303.5010000000004
 20
-54.67164272573505
 30
0.0
 10
303.5010000000004
 20
-54.98283185212201
 30
0.0
 10
303.471798582057
 20
-55.29554036457837
 30
0.0
 10
303.3632445333399
 20
-55.92436455031302
 30
0.0
 10
303.2838525979674
 20
-56.24048071547562
 30
0.0
 10
303.0750125162705
 20
-56.87560804930024
 30
0.0
 10
302.9448633204532
 20
-57.19570350515078
 30
0.0
 10
302.6345304543573
 20
-57.82065169537248
 30
0.0
 10
302.4543606700536
 20
-58.12754197763334
 30
0.0
 10
302.2397034603344
 20
-58.424457082972
 30
0.0
  0
LWPOLYLINE
  5
21D
330
1F
100
AcDbEntity
  8
0
  6
Continuous
 62
     7
370
    15
100
AcDbPolyline
 90
       27
 70
   128
 43
0.0
 10
308.1893116751
 20
-75.0702820112
 10
308.2039083814
 20
-72.1176095498
 10
308.2227260621
 20
-69.208876915
 10
308.2454903132
 20
-66.3864999787
 10
308.2718691805
 20
-63.691635352
 10
308.3014780007
 20
-61.1635802294
 10
308.3338850106
 20
-58.8391993474
 10
308.3686176431
 20
-56.7523874131
 10
308.405169418
 20
-54.9335748439
 10
308.4430073283
 20
-53.4092840223
 10
308.481579612
 20
-52.2017425412
 10
308.5203237983
 20
-51.3285590744
 10
308.5586749097
 20
-50.8024666031
 10
308.5960737008
 20
-50.6311367402
 10
308.6319748128
 20
-50.8170678608
 10
308.6658547268
 20
-51.3575486707
 10
308.6972193974
 20
-52.2446977424
 10
308.7256114569
 20
-53.4655784449
 10
308.7506168852
 20
-55.0023875884
 10
308.7718710469
 20
-56.8327150348
 10
308.7890640085
 20
-58.9298704886
 10
308.8019450578
 20
-61.2632727008
 10
308.8103263601
 20
-63.7988954128
 10
308.8140856972
 20
-66.4997635357
 10
308.8131682495
 20
-69.3264923305
 10
308.8075873954
 20
-72.2378617262
 10
308.7974245164
 20
-75.191417401
  0
LWPOLYLINE
  5
21E
330
1F
100
AcDbEntity
  8
0
  6
Continuous
 62
     7
370
    15
100
AcDbPolyline
 90
       12
 70
   128
 43
0.0
 10
308.3010058704
 20
-75.0925313685
 10
308.2934289845
 20
-76.3598623935
 10
308.2819415332
 20
-77.5236205407
 10
308.2674741613
 20
-78.4895250461
 10
308.2511989294
 20
-79.1793240712
 10
308.2344343599
 20
-79.5371342012
 10
308.2185386186
 20
-79.5339677875
 10
308.2047994838
 20
-79.1700813541
 10
308.1943300186
 20
-78.4749548157
 10
308.1879783968
 20
-77.5049031903
 10
308.1862591889
 20
-76.3385142915
 10
308.1893116751
 20
-75.0702820112
  0
LWPOLYLINE
  5
21F
330
1F
100
AcDbEntity
  8
0
  6
Continuous
 62
     7
370
    15
100
AcDbPolyline
 90
       21
 70
   128
 43
0.0
 10
308.6857303211
 20
-75.1691680437
 10
308.6935266675
 20
-72.7439904806
 10
308.6963944456
 20
-70.3775853132
 10
308.6942630412
 20
-68.1282212904
 10
308.6871849365
 20
-66.0512852195
 10
308.6753344179
 20
-64.1979181597
 10
308.6590032846
 20
-62.6137561588
 10
308.6385936632
 20
-61.3378065429
 10
308.6146081064
 20
-60.4014874262
 10
308.5876372181
 20
-59.8278540928
 10
308.5583451112
 20
-59.6310312991
 10
308.5274530545
 20
-59.8158654755
 10
308.495721713
 20
-60.3778053912
 10
308.4639324176
 20
-61.3030142205
 10
308.4328679263
 20
-62.5687102514
 10
308.40329315
 20
-64.143727847
 10
308.3759363178
 20
-65.9892848469
 10
308.3514710457
 20
-68.0599375128
 10
308.3304997499
 20
-70.3046995039
 10
308.3135388133
 20
-72.6682973301
 10
308.3010058704
 20
-75.0925313685
  0
LWPOLYLINE
  5
220
330
1F
100
AcDbEntity
  8
0
  6
Continuous
 62
     7
370
    15
100
AcDbPolyline
 90
       12
 70
   128
 43
0.0
 10
308.7974245164
 20
-75.191417401
 10
308.7898476305
 20
-76.458748426
 10
308.7783601792
 20
-77.6225065732
 10
308.7638928073
 20
-78.5884110786
 10
308.7476175754
 20
-79.2782101036
 10
308.7308530059
 20
-79.6360202337
 10
308.7149572646
 20
-79.63285382
 10
308.7012181298
 20
-79.2689673866
 10
308.6907486646
 20
-78.5738408481
 10
308.6843970428
 20
-77.6037892228
 10
308.6826778349
 20
-76.437400324
 10
308.6857303211
 20
-75.1691680437
  0
LWPOLYLINE
  5
221
330
1F
100
AcDbEntity
  8
0
  6
Continuous
 62
     7
370
    15
100
AcDbPolyline
 90
       22
 70
   128
 43
0.0
 10
308.4405797309
 20
-75.1308497061
 10
308.4481379599
 20
-73.8781510631
 10
308.4597150849
 20
-72.736760192
 10
308.4742824277
 20
-71.8080946805
 10
308.4905456158
 20
-71.1746705347
 10
308.5070595937
 20
-70.8927702696
 10
308.5223570218
 20
-70.987441961
 10
308.5350786567
 20
-71.4502736136
 10
308.5440941252
 20
-72.240140604
 10
308.5486023634
 20
-73.2868597837
 10
308.5482027944
 20
-74.4974255603
 10
308.5429309219
 20
-75.7642738519
 10
308.5332551748
 20
-76.9748396285
 10
308.5200352856
 20
-78.0215588082
 10
308.5044458996
 20
-78.8114257985
 10
308.4878722021
 20
-79.2742574511
 10
308.4717868389
 20
-79.3689291425
 10
308.4576190651
 20
-79.0870288775
 10
308.4466277495
 20
-78.4536047316
 10
308.4397895188
 20
-77.5249392201
 10
308.4377119797
 20
-76.383548349
 10
308.4405797309
 20
-75.1308497061
  0
SPLINE
  5
225
330
1F
100
AcDbEntity
  8
0
  6
Continuous
 62
     7
370
    15
100
AcDbSpline
210
0.0
220
0.0
230
1.0
 70
     8
 71
     3
 72
    14
 73
    10
 74
     0
 42
0.000000001
 43
0.00000001
 40
0.0
 40
0.0
 40
0.0
 40
0.0
 40
0.25
 40
0.25
 40
0.5
 40
0.5
 40
0.75
 40
0.75
 40
1.0
 40
1.0
 40
1.0
 40
1.0
 10
-303.5010000000003
 20
-54.67164272573598
 30
0.0
 10
-303.5010000000002
 20
-54.98283185212334
 30
0.0
 10
-303.4717985820568
 20
-55.29554036458015
 30
0.0
 10
-303.3632445333394
 20
-55.92436455031567
 30
0.0
 10
-303.2838525979667
 20
-56.24048071547866
 30
0.0
 10
-303.0750125162693
 20
-56.87560804930416
 30
0.0
 10
-302.944863320452
 20
-57.19570350515507
 30
0.0
 10
-302.6345304543553
 20
-57.82065169537756
 30
0.0
 10
-302.4543606700529
 20
-58.12754197763604
 30
0.0
 10
-302.2397034603333
 20
-58.42445708297507
 30
0.0
  0
LWPOLYLINE
  5
228
330
1F
100
AcDbEntity
  8
0
  6
Continuous
 62
     7
370
    15
100
AcDbPolyline
 90
       30
 70
   128
 43
0.0
 10
-308.8850119684
 20
-63.0419114445
 10
-308.8804876344
 20
-60.0890518867
 10
-308.8714153205
 20
-57.2998473025
 10
-308.8579013913
 20
-54.7069985654
 10
-308.8401042852
 20
-52.3409044562
 10
-308.818232657
 20
-50.229305265
 10
-308.7925429316
 20
-48.3969575617
 10
-308.7633362975
 20
-46.8653439477
 10
-308.7309551758
 20
-45.6524211923
 10
-308.6957792055
 20
-44.7724097059
 10
-308.6582207928
 20
-44.2356268185
 10
-308.6187202756
 20
-44.0483658186
 10
-308.5777407615
 20
-44.2128221703
 10
-308.5357626977
 20
-44.7270677733
 10
-308.4932782387
 20
-45.5850735679
 10
-308.4507854759
 20
-46.7767802208
 10
-308.4087825981
 20
-48.2882160611
 10
-308.3677620507
 20
-50.1016608853
 10
-308.328204762
 20
-52.1958537111
 10
-308.2905745052
 20
-54.5462420422
 10
-308.2553124605
 20
-57.1252697245
 10
-308.2228320432
 20
-59.9027000164
 10
-308.1935140564
 20
-62.8459700872
 10
-308.1677022269
 20
-65.9205727863
 10
-308.1456991746
 20
-69.0904612083
 10
-308.1277628653
 20
-72.3184713096
 10
-308.1141035857
 20
-75.5667576232
 10
-308.1048814785
 20
-78.797236962
 10
-308.1002046644
 20
-81.9720349095
 10
-308.1001279748
 20
-85.0539298624
  0
LWPOLYLINE
  5
229
330
1F
100
AcDbEntity
  8
0
  6
Continuous
 62
     7
370
    15
100
AcDbPolyline
 90
       12
 70
   128
 43
0.0
 10
-308.6857303211
 20
-75.1691680437
 10
-308.6826778349
 20
-76.437400324
 10
-308.6843970428
 20
-77.6037892228
 10
-308.6907486646
 20
-78.5738408481
 10
-308.7012181298
 20
-79.2689673866
 10
-308.7149572646
 20
-79.63285382
 10
-308.7308530059
 20
-79.6360202337
 10
-308.7476175754
 20
-79.2782101036
 10
-308.7638928073
 20
-78.5884110786
 10
-308.7783601792
 20
-77.6225065732
 10
-308.7898476305
 20
-76.458748426
 10
-308.7974245164
 20
-75.191417401
  0
LWPOLYLINE
  5
22A
330
1F
100
AcDbEntity
  8
0
  6
Continuous
 62
     7
370
    15
100
AcDbPolyline
 90
       21
 70
   128
 43
0.0
 10
-308.3010058704
 20
-75.0925313685
 10
-308.3135388133
 20
-72.6682973301
 10
-308.3304997499
 20
-70.3046995039
 10
-308.3514710457
 20
-68.0599375128
 10
-308.3759363178
 20
-65.9892848469
 10
-308.40329315
 20
-64.143727847
 10
-308.4328679263
 20
-62.5687102514
 10
-308.4639324176
 20
-61.3030142205
 10
-308.495721713
 20
-60.3778053912
 10
-308.5274530545
 20
-59.8158654755
 10
-308.5583451112
 20
-59.6310312991
 10
-308.5876372181
 20
-59.8278540928
 10
-308.6146081064
 20
-60.4014874262
 10
-308.6385936632
 20
-61.3378065429
 10
-308.6590032846
 20
-62.6137561588
 10
-308.6753344179
 20
-64.1979181597
 10
-308.6871849365
 20
-66.0512852195
 10
-308.6942630412
 20
-68.1282212904
 10
-308.6963944456
 20
-70.3775853132
 10
-308.6935266675
 20
-72.7439904806
 10
-308.6857303211
 20
-75.1691680437
  0
LWPOLYLINE
  5
22B
330
1F
100
AcDbEntity
  8
0
  6
Continuous
 62
     7
370
    15
100
AcDbPolyline
 90
       12
 70
   128
 43
0.0
 10
-308.1893116751
 20
-75.0702820112
 10
-308.1862591889
 20
-76.3385142915
 10
-308.1879783968
 20
-77.5049031903
 10
-308.1943300186
 20
-78.4749548157
 10
-308.2047994838
 20
-79.1700813541
 10
-308.2185386186
 20
-79.5339677875
 10
-308.2344343599
 20
-79.5371342012
 10
-308.2511989294
 20
-79.1793240712
 10
-308.2674741613
 20
-78.4895250461
 10
-308.2819415332
 20
-77.5236205407
 10
-308.2934289845
 20
-76.3598623935
 10
-308.3010058704
 20
-75.0925313685
  0
LWPOLYLINE
  5
22C
330
1F
100
AcDbEntity
  8
0
  6
Continuous
 62
     7
370
    15
100
AcDbPolyline
 90
       27
 70
   128
 43
0.0
 10
-308.7974245164
 20
-75.191417401
 10
-308.8075873954
 20
-72.2378617262
 10
-308.8131682495
 20
-69.3264923305
 10
-308.8140856972
 20
-66.4997635357
 10
-308.8103263601
 20
-63.7988954128
 10
-308.8019450578
 20
-61.2632727008
 10
-308.7890640085
 20
-58.9298704886
 10
-308.7718710469
 20
-56.8327150348
 10
-308.7506168852
 20
-55.0023875884
 10
-308.7256114569
 20
-53.4655784449
 10
-308.6972193974
 20
-52.2446977424
 10
-308.6658547268
 20
-51.3575486707
 10
-308.6319748128
 20
-50.8170678608
 10
-308.5960737008
 20
-50.6311367402
 10
-308.5586749097
 20
-50.8024666031
 10
-308.5203237983
 20
-51.3285590744
 10
-308.481579612
 20
-52.2017425412
 10
-308.4430073283
 20
-53.4092840223
 10
-308.405169418
 20
-54.9335748439
 10
-308.3686176431
 20
-56.7523874131
 10
-308.3338850106
 20
-58.8391993474
 10
-308.3014780007
 20
-61.1635802294
 10
-308.2718691805
 20
-63.691635352
 10
-308.2454903132
 20
-66.3864999787
 10
-308.2227260621
 20
-69.208876915
 10
-308.2039083814
 20
-72.1176095498
 10
-308.1893116751
 20
-75.0702820112
  0
LWPOLYLINE
  5
22D
330
1F
100
AcDbEntity
  8
0
  6
Continuous
 62
     7
370
    15
100
AcDbPolyline
 90
       22
 70
   128
 43
0.0
 10
-308.5461564606
 20
-75.1308497061
 10
-308.5490242117
 20
-73.8781510631
 10
-308.5469466727
 20
-72.736760192
 10
-308.540108442
 20
-71.8080946805
 10
-308.5291171264
 20
-71.1746705347
 10
-308.5149493526
 20
-70.8927702696
 10
-308.4988639893
 20
-70.987441961
 10
-308.4822902918
 20
-71.4502736136
 10
-308.4667009058
 20
-72.240140604
 10
-308.4534810167
 20
-73.2868597837
 10
-308.4438052696
 20
-74.4974255603
 10
-308.438533397
 20
-75.7642738519
 10
-308.4381338281
 20
-76.9748396285
 10
-308.4426420663
 20
-78.0215588082
 10
-308.4516575348
 20
-78.8114257985
 10
-308.4643791696
 20
-79.2742574511
 10
-308.4796765978
 20
-79.3689291425
 10
-308.4961905757
 20
-79.0870288775
 10
-308.5124537638
 20
-78.4536047316
 10
-308.5270211065
 20
-77.5249392201
 10
-308.5385982316
 20
-76.383548349
 10
-308.5461564606
 20
-75.1308497061
  0
SPLINE
  5
233
330
1F
100
AcDbEntity
  8
0
  6
Continuous
 62
     7
370
    15
100
AcDbSpline
210
0.0
220
0.0
230
1.0
 70
     8
 71
     3
 72
     8
 73
     4
 74
     0
 42
0.000000001
 43
0.00000001
 40
0.0
 40
0.0
 40
0.0
 40
0.0
 40
1.0
 40
1.0
 40
1.0
 40
1.0
 10
302.1086373862291
 20
-95.876389370425
 30
0.0
 10
302.4438113783685
 20
-95.98924811827949
 30
0.0
 10
302.7852686444508
 20
-96.08469697104775
 30
0.0
 10
303.1297038477283
 20
-96.16947871180597
 30
0.0
  0
SPLINE
  5
23B
330
1F
100
AcDbEntity
  8
0
  6
Continuous
 62
     7
370
    15
100
AcDbSpline
210
0.0
220
0.0
230
1.0
 70
     8
 71
     3
 72
     8
 73
     4
 74
     0
 42
0.000000001
 43
0.00000001
 40
0.0
 40
0.0
 40
0.0
 40
0.0
 40
1.0
 40
1.0
 40
1.0
 40
1.0
 10
-303.1296831704024
 20
-96.1694736221238
 30
0.0
 10
-302.7852549177141
 20
-96.08469312077288
 30
0.0
 10
-302.4438047641106
 20
-95.98924589114402
 30
0.0
 10
-302.1086373862283
 20
-95.87638937042182
 30
0.0
  0
SPLINE
  5
243
330
1F
100
AcDbEntity
  8
0
  6
Continuous
 62
     7
370
    15
100
AcDbSpline
210
0.0
220
0.0
230
1.0
 70
     8
 71
     3
 72
    18
 73
    14
 74
     0
 42
0.000000001
 43
0.00000001
 40
0.0
 40
0.0
 40
0.0
 40
0.0
 40
0.2500000000000157
 40
0.2500000000000157
 40
0.3750000000000074
 40
0.3750000000000074
 40
0.4999999999999992
 40
0.4999999999999992
 40
0.624999999999991
 40
0.624999999999991
 40
0.7499999999999827
 40
0.7499999999999827
 40
1.0
 40
1.0
 40
1.0
 40
1.0
 10
300.0010000000005
 20
-96.45065359942551
 30
0.0
 10
300.3717434707943
 20
-96.32589878389136
 30
0.0
 10
300.7331936438935
 20
-96.20428400055586
 30
0.0
 10
301.2589199266292
 20
-96.01824884538973
 30
0.0
 10
301.430584160885
 20
-95.95588106292496
 30
0.0
 10
301.7565928849774
 20
-95.83268403990948
 30
0.0
 10
301.9123946693604
 20
-95.77135842892622
 30
0.0
 10
302.209092413351
 20
-95.64787674360767
 30
0.0
 10
302.3508057945068
 20
-95.58528260344025
 30
0.0
 10
302.6099974926494
 20
-95.46171113928689
 30
0.0
 10
302.7284715313915
 20
-95.40036947009752
 30
0.0
 10
303.0504321392976
 20
-95.21565847349832
 30
0.0
 10
303.2204240223174
 20
-95.09104399973278
 30
0.0
 10
303.3336825231362
 20
-94.96628683047463
 30
0.0
  0
SPLINE
  5
244
330
1F
100
AcDbEntity
  8
0
  6
Continuous
 62
     7
370
    15
100
AcDbSpline
210
0.0
220
0.0
230
1.0
 70
     8
 71
     3
 72
   194
 73
   190
 74
     0
 42
0.000000001
 43
0.00000001
 40
0.0
 40
0.0
 40
0.0
 40
0.0
 40
0.000096457943347
 40
0.000096457943347
 40
0.000096457943347
 40
0.0001929158865833
 40
0.0001929158865833
 40
0.0001929158865833
 40
0.0002893738298334
 40
0.0002893738298334
 40
0.0002893738298334
 40
0.0003858317731682
 40
0.0003858317731682
 40
0.0003858317731682
 40
0.0004822897166155
 40
0.0004822897166155
 40
0.0004822897166155
 40
0.0005787476601697
 40
0.0005787476601697
 40
0.0005787476601697
 40
0.0006752056038013
 40
0.0006752056038013
 40
0.0006752056038013
 40
0.0007716635474657
 40
0.0007716635474657
 40
0.0007716635474657
 40
0.0008681214911129
 40
0.0008681214911129
 40
0.0008681214911129
 40
0.000964579434696
 40
0.000964579434696
 40
0.000964579434696
 40
0.0010610373781801
 40
0.0010610373781801
 40
0.0010610373781801
 40
0.0011574953215519
 40
0.0011574953215519
 40
0.0011574953215519
 40
0.0012539532648289
 40
0.0012539532648289
 40
0.0012539532648289
 40
0.0013504112080688
 40
0.0013504112080688
 40
0.0013504112080688
 40
0.00144686915138
 40
0.00144686915138
 40
0.00144686915138
 40
0.0014950925805426
 40
0.0014950925805426
 40
0.0014950925805426
 40
0.0015915505238049
 40
0.0015915505238049
 40
0.0015915505238049
 40
0.0016880084670233
 40
0.0016880084670233
 40
0.0016880084670233
 40
0.0017844664102962
 40
0.0017844664102962
 40
0.0017844664102962
 40
0.001880924353673
 40
0.001880924353673
 40
0.001880924353673
 40
0.0019773822971642
 40
0.0019773822971642
 40
0.0019773822971642
 40
0.0020738402407509
 40
0.0020738402407509
 40
0.0020738402407509
 40
0.0021702981843945
 40
0.0021702981843945
 40
0.0021702981843945
 40
0.0022185216135649
 40
0.0022185216135649
 40
0.0022185216135649
 40
0.0023149795572002
 40
0.0023149795572002
 40
0.0023149795572002
 40
0.0024114375007698
 40
0.0024114375007698
 40
0.0024114375007698
 40
0.0025078954442383
 40
0.0025078954442383
 40
0.0025078954442383
 40
0.002604353387592
 40
0.002604353387592
 40
0.002604353387592
 40
0.0027008113308481
 40
0.0027008113308481
 40
0.0027008113308481
 40
0.002797269274065
 40
0.002797269274065
 40
0.002797269274065
 40
0.002893727217352
 40
0.002893727217352
 40
0.002893727217352
 40
0.0029901851606875
 40
0.0029901851606875
 40
0.0029901851606875
 40
0.0030384085898363
 40
0.0030384085898363
 40
0.0030384085898363
 40
0.0031348665330479
 40
0.0031348665330479
 40
0.0031348665330479
 40
0.0032313244763115
 40
0.0032313244763115
 40
0.0032313244763115
 40
0.0033277824196782
 40
0.0033277824196782
 40
0.0033277824196782
 40
0.0034242403631594
 40
0.0034242403631594
 40
0.0034242403631594
 40
0.0035206983067371
 40
0.0035206983067371
 40
0.0035206983067371
 40
0.0036171562503731
 40
0.0036171562503731
 40
0.0036171562503731
 40
0.0037136141940187
 40
0.0037136141940187
 40
0.0037136141940187
 40
0.0037618376231835
 40
0.0037618376231835
 40
0.0037618376231835
 40
0.0038582955667461
 40
0.0038582955667461
 40
0.0038582955667461
 40
0.0039547535102084
 40
0.0039547535102084
 40
0.0039547535102084
 40
0.004051211453556
 40
0.004051211453556
 40
0.004051211453556
 40
0.0041476693968048
 40
0.0041476693968048
 40
0.0041476693968048
 40
0.0042441273400114
 40
0.0042441273400114
 40
0.0042441273400114
 40
0.0043405852832837
 40
0.0043405852832837
 40
0.0043405852832837
 40
0.004437043226613
 40
0.004437043226613
 40
0.004437043226613
 40
0.0044852666557572
 40
0.0044852666557572
 40
0.0044852666557572
 40
0.0045817245989661
 40
0.0045817245989661
 40
0.0045817245989661
 40
0.0046781825422247
 40
0.0046781825422247
 40
0.0046781825422247
 40
0.0047746404855835
 40
0.0047746404855835
 40
0.0047746404855835
 40
0.0048710984290543
 40
0.0048710984290543
 40
0.0048710984290543
 40
0.0049675563726196
 40
0.0049675563726196
 40
0.0049675563726196
 40
0.0050640143162421
 40
0.0050640143162421
 40
0.0050640143162421
 40
0.0051604722598735
 40
0.0051604722598735
 40
0.0051604722598735
 40
0.0052086956890331
 40
0.0052086956890331
 40
0.0052086956890331
 40
0.0053051536325823
 40
0.0053051536325823
 40
0.0053051536325823
 40
0.0054016115760323
 40
0.0054016115760323
 40
0.0054016115760323
 40
0.0054980695193683
 40
0.0054980695193683
 40
0.0054980695193683
 40
0.0055945274626061
 40
0.0055945274626061
 40
0.0055945274626061
 40
0.0056975007042783
 40
0.0056975007042783
 40
0.0056975007042783
 40
0.0058005459654804
 40
0.0058005459654804
 40
0.0058005459654804
 40
0.0058005459654804
 10
303.5010000000004
 20
-31.60065359942545
 30
0.0
 10
303.5010000000004
 20
-31.59039925763904
 30
0.0
 10
303.5006019480873
 20
-31.58014389412507
 30
0.0
 10
303.4998060444234
 20
-31.56988924023604
 30
0.0
 10
303.49901014076
 20
-31.55963458635473
 30
0.0
 10
303.4978162632656
 20
-31.54937907030361
 30
0.0
 10
303.4962250012786
 20
-31.53912436929977
 30
0.0
 10
303.4946337392915
 20
-31.52886966829547
 30
0.0
 10
303.4926448489153
 20
-31.51861421052461
 30
0.0
 10
303.4902593103715
 20
-31.50835962697361
 30
0.0
 10
303.4878737718264
 20
-31.49810504341744
 30
0.0
 10
303.4850912195662
 20
-31.487849762265
 30
0.0
 10
303.4819130257111
 20
-31.47759537636977
 30
0.0
 10
303.4787348318538
 20
-31.4673409904674
 30
0.0
 10
303.4751605094502
 20
-31.45708592801336
 30
0.0
 10
303.4711918228297
 20
-31.44683175197577
 30
0.0
 10
303.4672231362065
 20
-31.43657757593128
 30
0.0
 10
303.4628594773407
 20
-31.42632271450525
 30
0.0
 10
303.458103002363
 20
-31.41606870913993
 30
0.0
 10
303.453346527383
 20
-31.4058147037695
 30
0.0
 10
303.4481965076046
 20
-31.39555998267174
 30
0.0
 10
303.4426554898307
 20
-31.38530607420033
 30
0.0
 10
303.4371144720556
 20
-31.37505216572661
 30
0.0
 10
303.4311816074356
 20
-31.36479749809715
 30
0.0
 10
303.4248598315938
 20
-31.35454359506085
 30
0.0
 10
303.4185380557525
 20
-31.34428969202542
 30
0.0
 10
303.4118264002599
 20
-31.33403498180135
 30
0.0
 10
303.4047281869922
 20
-31.32378099203367
 30
0.0
 10
303.3976299737272
 20
-31.31352700226991
 30
0.0
 10
303.3901441153425
 20
-31.30327216117533
 30
0.0
 10
303.382274316698
 20
-31.29301800878007
 30
0.0
 10
303.3744045180584
 20
-31.282763856391
 30
0.0
 10
303.3661495736458
 20
-31.27250882090439
 30
0.0
 10
303.3575135673476
 20
-31.26225446318326
 30
0.0
 10
303.3488775610552
 20
-31.25200010546929
 30
0.0
 10
303.3398591700218
 20
-31.24174485371302
 30
0.0
 10
303.3304628525412
 20
-31.23149029798575
 30
0.0
 10
303.3210665350663
 20
-31.22123574226467
 30
0.0
 10
303.3112908518492
 20
-31.21098031075709
 30
0.0
 10
303.3011406303352
 20
-31.20072563101176
 30
0.0
 10
303.290990408824
 20
-31.19047095126911
 30
0.0
 10
303.2804640942567
 20
-31.18021545147454
 30
0.0
 10
303.2695668773749
 20
-31.16996080477949
 30
0.0
 10
303.2586696604889
 20
-31.15970615808045
 30
0.0
 10
303.2473998721094
 20
-31.14945079268428
 30
0.0
 10
303.235763059858
 20
-31.13919643528395
 30
0.0
 10
303.2299449880675
 20
-31.13406955120005
 30
0.0
 10
303.2240348585932
 20
-31.1289425379066
 30
0.0
 10
303.2180334052277
 20
-31.12381556903669
 30
0.0
 10
303.2060298087512
 20
-31.11356104205574
 30
0.0
 10
303.193659444294
 20
-31.10330557559702
 30
0.0
 10
303.1809284100212
 20
-31.09305087566914
 30
0.0
 10
303.1681973757526
 20
-31.0827961757446
 30
0.0
 10
303.1551037212981
 20
-31.07254067053443
 30
0.0
 10
303.1416539060273
 20
-31.06228601491589
 30
0.0
 10
303.1282040907523
 20
-31.05203135929418
 30
0.0
 10
303.1143960542072
 20
-31.0417759814379
 30
0.0
 10
303.1002366133409
 20
-31.03152149324763
 30
0.0
 10
303.0860771724655
 20
-31.02126700505087
 30
0.0
 10
303.071564158122
 20
-31.01101183469753
 30
0.0
 10
303.0567047404923
 20
-31.00075755943298
 30
0.0
 10
303.041845322852
 20
-30.99050328416112
 30
0.0
 10
303.0266372255566
 20
-30.98024833216558
 30
0.0
 10
303.0110879669663
 20
-30.96999425448499
 30
0.0
 10
302.9955387083666
 20
-30.95974017679819
 30
0.0
 10
302.9796459064323
 20
-30.94948540162511
 30
0.0
 10
302.9634174219551
 20
-30.93923146233725
 30
0.0
 10
302.9471889374718
 20
-30.92897752304555
 30
0.0
 10
302.9306222843647
 20
-30.91872284784632
 30
0.0
 10
302.9137256594425
 20
-30.90846896104299
 30
0.0
 10
302.9052778324508
 20
-30.9033423122533
 30
0.0
 10
302.8967470465962
 20
-30.89821556589395
 30
0.0
 10
302.8881343572002
 20
-30.89308891229785
 30
0.0
 10
302.8709079885214
 20
-30.88283501588131
 30
0.0
 10
302.8533519495847
 20
-30.87258031162496
 30
0.0
 10
302.8354749277909
 20
-30.86232632641021
 30
0.0
 10
302.8175979060042
 20
-30.85207234119944
 30
0.0
 10
302.7993971627966
 20
-30.84181750323463
 30
0.0
 10
302.7808817028161
 20
-30.83156335189454
 30
0.0
 10
302.7623662428471
 20
-30.82130920056077
 30
0.0
 10
302.743533229776
 20
-30.81105416404614
 30
0.0
 10
302.7243919769896
 20
-30.80079980280568
 30
0.0
 10
302.7052507242169
 20
-30.79054544157254
 30
0.0
 10
302.6857982995752
 20
-30.78029018379668
 30
0.0
 10
302.6660443161718
 20
-30.77003561951683
 30
0.0
 10
302.6462903327807
 20
-30.75978105524334
 30
0.0
 10
302.6262317646483
 20
-30.74952561264073
 30
0.0
 10
302.6058785151242
 20
-30.73927091973377
 30
0.0
 10
302.5855252656056
 20
-30.72901622682965
 30
0.0
 10
302.5648742169398
 20
-30.71876071179684
 30
0.0
 10
302.5439355528331
 20
-30.70850604890638
 30
0.0
 10
302.5229968887185
 20
-30.69825138601201
 30
0.0
 10
302.5017674017274
 20
-30.68799600345276
 30
0.0
 10
302.4802575456915
 20
-30.67774162982174
 30
0.0
 10
302.4587476896467
 20
-30.66748725618642
 30
0.0
 10
302.4369542517577
 20
-30.65723197197666
 30
0.0
 10
302.4148880109589
 20
-30.64697733071137
 30
0.0
 10
302.4038555245475
 20
-30.64185030470619
 30
0.0
 10
302.392754216334
 20
-30.63672315860804
 30
0.0
 10
302.3815854544546
 20
-30.63159610413647
 30
0.0
 10
302.3592466470752
 20
-30.62134140594335
 30
0.0
 10
302.3366353944741
 20
-30.61108589879036
 30
0.0
 10
302.3137628514166
 20
-30.60083123915916
 30
0.0
 10
302.2908903083526
 20
-30.59057657952497
 30
0.0
 10
302.2677529709666
 20
-30.58032119558647
 30
0.0
 10
302.2443622635748
 20
-30.57006670056861
 30
0.0
 10
302.2209715561683
 20
-30.55981220554431
 30
0.0
 10
302.1973238955154
 20
-30.54955702761779
 30
0.0
 10
302.1734309667686
 20
-30.53930274507384
 30
0.0
 10
302.1495380380049
 20
-30.52904846252258
 30
0.0
 10
302.1253961809632
 20
-30.518793503541
 30
0.0
 10
302.1010173323274
 20
-30.50853941991838
 30
0.0
 10
302.0766384836766
 20
-30.49828533628948
 30
0.0
 10
302.0520189087995
 20
-30.48803055621796
 30
0.0
 10
302.0271707860558
 20
-30.4777766135347
 30
0.0
 10
302.0023226633027
 20
-30.46752267084752
 30
0.0
 10
301.9772421861585
 20
-30.45726799375562
 30
0.0
 10
301.9519417642966
 20
-30.44701410672902
 30
0.0
 10
301.9266413424327
 20
-30.43676021970159
 30
0.0
 10
301.9011171000453
 20
-30.42650555095001
 30
0.0
 10
301.8753816672998
 20
-30.41625162421154
 30
0.0
 10
301.8625146903524
 20
-30.41112495545604
 30
0.0
 10
301.8495941890715
 20
-30.40599817766672
 30
0.0
 10
301.8366217616682
 20
-30.40087148188736
 30
0.0
 10
301.8106754159033
 20
-30.39061750110276
 30
0.0
 10
301.7845183359365
 20
-30.38036266893382
 30
0.0
 10
301.7581634614896
 20
-30.37010852419356
 30
0.0
 10
301.7318085870589
 20
-30.35985437945957
 30
0.0
 10
301.7052518808808
 20
-30.34959935034908
 30
0.0
 10
301.6785064744362
 20
-30.33934499646098
 30
0.0
 10
301.6517610680107
 20
-30.3290906425802
 30
0.0
 10
301.6248228642675
 20
-30.31883539210528
 30
0.0
 10
301.5977051744266
 20
-30.30858083393126
 30
0.0
 10
301.5705874846027
 20
-30.29832627576367
 30
0.0
 10
301.5432861546376
 20
-30.28807083807201
 30
0.0
 10
301.5158146632593
 20
-30.27781614745404
 30
0.0
 10
301.488343171889
 20
-30.2675614568391
 30
0.0
 10
301.4606973108841
 20
-30.25730594147326
 30
0.0
 10
301.4328907141027
 20
-30.24705127392265
 30
0.0
 10
301.4050841173116
 20
-30.23679660636842
 30
0.0
 10
301.3771125251749
 20
-30.22654121482123
 30
0.0
 10
301.3489897142268
 20
-30.21628682589849
 30
0.0
 10
301.3208669032658
 20
-30.20603243697104
 30
0.0
 10
301.292588653931
 20
-30.19577719303633
 30
0.0
 10
301.2641689752726
 20
-30.18552256818239
 30
0.0
 10
301.2499599524728
 20
-30.18039555038238
 30
0.0
 10
301.2357147583419
 20
-30.17526841231346
 30
0.0
 10
301.2214351484305
 20
-30.17014136551999
 30
0.0
 10
301.1928742874579
 20
-30.15988668268361
 30
0.0
 10
301.1641724485905
 20
-30.14963118944303
 30
0.0
 10
301.1353437918098
 20
-30.13937654141053
 30
0.0
 10
301.1065151350211
 20
-30.12912189337518
 30
0.0
 10
301.0775552440916
 20
-30.11886651873178
 30
0.0
 10
301.0484784194904
 20
-30.10861203042996
 30
0.0
 10
301.0194015948715
 20
-30.0983575421219
 30
0.0
 10
300.9902033823278
 20
-30.08810236834202
 30
0.0
 10
300.9608982110767
 20
-30.07784808755976
 30
0.0
 10
300.931593039805
 20
-30.06759380677035
 30
0.0
 10
300.9021764205701
 20
-30.05733884717461
 30
0.0
 10
300.8726628992178
 20
-30.04708476107372
 30
0.0
 10
300.8431493778479
 20
-30.03683067496668
 30
0.0
 10
300.8135344331637
 20
-30.02657589056147
 30
0.0
 10
300.7838327151975
 20
-30.01632194239643
 30
0.0
 10
300.7541309972204
 20
-30.00606799422757
 30
0.0
 10
300.7243379559179
 20
-29.99581331051424
 30
0.0
 10
300.6944683328011
 20
-29.98555941649836
 30
0.0
 10
300.664598709682
 20
-29.9753055224817
 30
0.0
 10
300.6346479289801
 20
-29.96505084638124
 30
0.0
 10
300.604630810771
 20
-29.95479691263909
 30
0.0
 10
300.5896231141119
 20
-29.94967024038183
 30
0.0
 10
300.5745979748736
 20
-29.94454345917507
 30
0.0
 10
300.5595572514976
 20
-29.93941676013379
 30
0.0
 10
300.5294740760727
 20
-29.92916277282514
 30
0.0
 10
300.4993250931581
 20
-29.91890793477571
 30
0.0
 10
300.4691252161564
 20
-29.90865378515348
 30
0.0
 10
300.4389253391729
 20
-29.89839963553747
 30
0.0
 10
300.4086699417946
 20
-29.88814460255218
 30
0.0
 10
300.378373983195
 20
-29.87789024574936
 30
0.0
 10
300.3480780246169
 20
-29.8676358889538
 30
0.0
 10
300.317736863827
 20
-29.85738063653321
 30
0.0
 10
300.2873654926101
 20
-29.84712607679509
 30
0.0
 10
300.2569941214122
 20
-29.83687151706337
 30
0.0
 10
300.2265878872755
 20
-29.82661607819855
 30
0.0
 10
300.1961618015075
 20
-29.81636138552877
 30
0.0
 10
300.1636809185465
 20
-29.8054141517982
 30
0.0
 10
300.1311719207724
 20
-29.79446591602803
 30
0.0
 10
300.0986530789046
 20
-29.78351871257576
 30
0.0
 10
300.0661114973342
 20
-29.77256385398765
 30
0.0
 10
300.0335543710577
 20
-29.76160811346559
 30
0.0
 10
300.0010000000004
 20
-29.75065359942549
 30
0.0
  0
SPLINE
  5
246
330
1F
100
AcDbEntity
  8
0
  6
Continuous
 62
     7
370
    15
100
AcDbSpline
210
0.0
220
0.0
230
1.0
 70
     8
 71
     3
 72
    22
 73
    18
 74
     0
 42
0.000000001
 43
0.00000001
 40
0.0
 40
0.0
 40
0.0
 40
0.0
 40
0.1249999999999999
 40
0.1249999999999999
 40
0.2499999999999997
 40
0.2499999999999997
 40
0.3749999999999996
 40
0.3749999999999996
 40
0.4999999999999994
 40
0.4999999999999994
 40
0.6249999999999993
 40
0.6249999999999993
 40
0.7499999999999991
 40
0.7499999999999991
 40
0.8749999999999996
 40
0.8749999999999996
 40
1.0
 40
1.0
 40
1.0
 40
1.0
 10
-300.0010000000003
 20
-29.75065359942454
 30
0.0
 10
-300.2321010595768
 20
-29.82841888007937
 30
0.0
 10
-300.4595390775502
 20
-29.90496349094672
 30
0.0
 10
-300.9065181570832
 20
-30.05830373063506
 30
0.0
 10
-301.1278770093696
 20
-30.13575183101568
 30
0.0
 10
-301.5526477521935
 20
-30.29046093810237
 30
0.0
 10
-301.7537884493477
 20
-30.36685712022004
 30
0.0
 10
-302.1333151325973
 20
-30.52037699845213
 30
0.0
 10
-302.3133130285771
 20
-30.59831344106422
 30
0.0
 10
-302.6371830822874
 20
-30.75239833505053
 30
0.0
 10
-302.7818771965614
 20
-30.82873407554921
 30
0.0
 10
-303.0363513722063
 20
-30.98261686804178
 30
0.0
 10
-303.1462940916625
 20
-31.06063386370082
 30
0.0
 10
-303.3212800155316
 20
-31.2142827045105
 30
0.0
 10
-303.3877866587064
 20
-31.29064430380704
 30
0.0
 10
-303.4779149451591
 20
-31.44507614921388
 30
0.0
 10
-303.5010000000001
 20
-31.52288831496107
 30
0.0
 10
-303.5010000000003
 20
-31.60065359942448
 30
0.0
  0
SPLINE
  5
247
330
1F
100
AcDbEntity
  8
0
  6
Continuous
 62
     7
370
    15
100
AcDbSpline
210
0.0
220
0.0
230
1.0
 70
     8
 71
     3
 72
   158
 73
   154
 74
     0
 42
0.000000001
 43
0.00000001
 40
0.0000000000000001
 40
0.0000000000000001
 40
0.0000000000000001
 40
0.0000000000000001
 40
0.0000964579433054
 40
0.0000964579433054
 40
0.0000964579433054
 40
0.0001929158865649
 40
0.0001929158865649
 40
0.0001929158865649
 40
0.0002893738298803
 40
0.0002893738298803
 40
0.0002893738298803
 40
0.0003858317732547
 40
0.0003858317732547
 40
0.0003858317732547
 40
0.0004822897165176
 40
0.0004822897165176
 40
0.0004822897165176
 40
0.000530513145684
 40
0.000530513145684
 40
0.000530513145684
 40
0.000626971088983
 40
0.000626971088983
 40
0.000626971088983
 40
0.0007234290323824
 40
0.0007234290323824
 40
0.0007234290323824
 40
0.0008198869758966
 40
0.0008198869758966
 40
0.0008198869758966
 40
0.0009163449195096
 40
0.0009163449195096
 40
0.0009163449195096
 40
0.0010128028631848
 40
0.0010128028631848
 40
0.0010128028631848
 40
0.0011092608068735
 40
0.0011092608068735
 40
0.0011092608068735
 40
0.0012057187505252
 40
0.0012057187505252
 40
0.0012057187505252
 40
0.001253942179707
 40
0.001253942179707
 40
0.001253942179707
 40
0.0013504001232178
 40
0.0013504001232178
 40
0.0013504001232178
 40
0.0014468580666137
 40
0.0014468580666137
 40
0.0014468580666137
 40
0.0015433160099083
 40
0.0015433160099083
 40
0.0015433160099083
 40
0.0016397739531545
 40
0.0016397739531545
 40
0.0016397739531545
 40
0.0017362318964554
 40
0.0017362318964554
 40
0.0017362318964554
 40
0.0018326898398251
 40
0.0018326898398251
 40
0.0018326898398251
 40
0.0019291477830843
 40
0.0019291477830843
 40
0.0019291477830843
 40
0.0020256057263405
 40
0.0020256057263405
 40
0.0020256057263405
 40
0.002073829155508
 40
0.002073829155508
 40
0.002073829155508
 40
0.0021702870989024
 40
0.0021702870989024
 40
0.0021702870989024
 40
0.0022667450424117
 40
0.0022667450424117
 40
0.0022667450424117
 40
0.0023632029860206
 40
0.0023632029860206
 40
0.0023632029860206
 40
0.0024596609296932
 40
0.0024596609296932
 40
0.0024596609296932
 40
0.0025561188733812
 40
0.0025561188733812
 40
0.0025561188733812
 40
0.0026525768170336
 40
0.0026525768170336
 40
0.0026525768170336
 40
0.0027490347606061
 40
0.0027490347606061
 40
0.0027490347606061
 40
0.0027972581897821
 40
0.0027972581897821
 40
0.0027972581897821
 40
0.0028937161331791
 40
0.0028937161331791
 40
0.0028937161331791
 40
0.0029901740764737
 40
0.0029901740764737
 40
0.0029901740764737
 40
0.0030866320197174
 40
0.0030866320197174
 40
0.0030866320197174
 40
0.0031830899630113
 40
0.0031830899630113
 40
0.0031830899630113
 40
0.0032795479063809
 40
0.0032795479063809
 40
0.0032795479063809
 40
0.003376005849646
 40
0.003376005849646
 40
0.003376005849646
 40
0.0034724637929061
 40
0.0034724637929061
 40
0.0034724637929061
 40
0.0035206872220724
 40
0.0035206872220724
 40
0.0035206872220724
 40
0.0036171451654666
 40
0.0036171451654666
 40
0.0036171451654666
 40
0.0037136031089731
 40
0.0037136031089731
 40
0.0037136031089731
 40
0.0038100610525771
 40
0.0038100610525771
 40
0.0038100610525771
 40
0.0039065189962434
 40
0.0039065189962434
 40
0.0039065189962434
 40
0.0040029769399245
 40
0.0040029769399245
 40
0.0040029769399245
 40
0.0040994348835703
 40
0.0040994348835703
 40
0.0040994348835703
 40
0.004195892827137
 40
0.004195892827137
 40
0.004195892827137
 40
0.0042441162563114
 40
0.0042441162563114
 40
0.0042441162563114
 40
0.0043405741997042
 40
0.0043405741997042
 40
0.0043405741997042
 40
0.0044370321429949
 40
0.0044370321429949
 40
0.0044370321429949
 40
0.0045334900862339
 40
0.0045334900862339
 40
0.0045334900862339
 40
0.0046541336914973
 40
0.0046541336914973
 40
0.0046541336914973
 40
0.0046541336914973
 10
-303.3336862752058
 20
-94.96628269744916
 30
0.0
 10
-303.3243769857719
 20
-94.97653723277799
 30
0.0
 10
-303.3146879707913
 20
-94.98679264774069
 30
0.0
 10
-303.3046240155878
 20
-94.99704731951003
 30
0.0
 10
-303.2945600603875
 20
-95.00730199127615
 30
0.0
 10
-303.284119623418
 20
-95.01755749166391
 30
0.0
 10
-303.2733078540011
 20
-95.02781215316827
 30
0.0
 10
-303.262496084581
 20
-95.03806681467567
 30
0.0
 10
-303.251311326624
 20
-95.04832220909944
 30
0.0
 10
-303.2397590870965
 20
-95.05857661629395
 30
0.0
 10
-303.2282068475637
 20
-95.0688310234931
 30
0.0
 10
-303.2162853833012
 20
-95.07908623015953
 30
0.0
 10
-303.2040006147339
 20
-95.08934085615788
 30
0.0
 10
-303.1917158461752
 20
-95.09959548214907
 30
0.0
 10
-303.1790658773457
 20
-95.10985098936479
 30
0.0
 10
-303.1660569459141
 20
-95.1201056924431
 30
0.0
 10
-303.1595528539553
 20
-95.12523274935641
 30
0.0
 10
-303.1529586688158
 20
-95.1303599006555
 30
0.0
 10
-303.146275203822
 20
-95.13548694033165
 30
0.0
 10
-303.1329075057031
 20
-95.14574160893515
 30
0.0
 10
-303.1191810682672
 20
-95.15599700697338
 30
0.0
 10
-303.1051026675915
 20
-95.16625151802891
 30
0.0
 10
-303.0910242669073
 20
-95.17650602909072
 30
0.0
 10
-303.0765917462498
 20
-95.18676122499328
 30
0.0
 10
-303.061812235466
 20
-95.19701552493751
 30
0.0
 10
-303.0470327246716
 20
-95.20726982488905
 30
0.0
 10
-303.0319039596219
 20
-95.21752480069608
 30
0.0
 10
-303.0164334189577
 20
-95.22777889874205
 30
0.0
 10
-303.0009628782839
 20
-95.23803299679442
 30
0.0
 10
-302.985148192014
 20
-95.24828778888818
 30
0.0
 10
-302.9689971819152
 20
-95.25854174005858
 30
0.0
 10
-302.9528461718098
 20
-95.26879569123311
 30
0.0
 10
-302.9363563636615
 20
-95.27905037327774
 30
0.0
 10
-302.9195359160243
 20
-95.28930426128576
 30
0.0
 10
-302.9027154683854
 20
-95.29955814929487
 30
0.0
 10
-302.8855618045078
 20
-95.30981281505683
 30
0.0
 10
-302.868083412749
 20
-95.32006673509613
 30
0.0
 10
-302.8506050209939
 20
-95.33032065513326
 30
0.0
 10
-302.8327992238411
 20
-95.34057540123928
 30
0.0
 10
-302.814674831855
 20
-95.35082944273839
 30
0.0
 10
-302.8056131566074
 20
-95.35595616887142
 30
0.0
 10
-302.7964713307655
 20
-95.3610830132663
 30
0.0
 10
-302.7872504849703
 20
-95.36620978327012
 30
0.0
 10
-302.7688077336099
 20
-95.37646391250756
 30
0.0
 10
-302.7500467095807
 20
-95.38671892411008
 30
0.0
 10
-302.7309766912508
 20
-95.39697326047802
 30
0.0
 10
-302.7119066729344
 20
-95.40722759683867
 30
0.0
 10
-302.6925247390715
 20
-95.41748282978038
 30
0.0
 10
-302.6728404688112
 20
-95.4277373730925
 30
0.0
 10
-302.6531561985635
 20
-95.43799191639805
 30
0.0
 10
-302.6331665766143
 20
-95.4482473418985
 30
0.0
 10
-302.6128814734653
 20
-95.45850202635592
 30
0.0
 10
-302.5925963703232
 20
-95.46875671080994
 30
0.0
 10
-302.5720126786633
 20
-95.47901222604605
 30
0.0
 10
-302.5511405504991
 20
-95.48926690352042
 30
0.0
 10
-302.5302684223288
 20
-95.49952158099774
 30
0.0
 10
-302.509104660413
 20
-95.50977699252361
 30
0.0
 10
-302.4876596880816
 20
-95.52003141614904
 30
0.0
 10
-302.4662147157394
 20
-95.53028583977962
 30
0.0
 10
-302.4444852870954
 20
-95.54054101646027
 30
0.0
 10
-302.4224822070215
 20
-95.55079563550083
 30
0.0
 10
-302.4004791269625
 20
-95.56105025453445
 30
0.0
 10
-302.3781989945031
 20
-95.57130575958988
 30
0.0
 10
-302.3556527946225
 20
-95.58156046353174
 30
0.0
 10
-302.3331065947434
 20
-95.59181516747297
 30
0.0
 10
-302.3102908735582
 20
-95.60207064212253
 30
0.0
 10
-302.2872168906446
 20
-95.61232524863442
 30
0.0
 10
-302.2756805621202
 20
-95.61745225726803
 30
0.0
 10
-302.2640790207798
 20
-95.6225793441659
 30
0.0
 10
-302.2524136988518
 20
-95.62770630839053
 30
0.0
 10
-302.2290817142876
 20
-95.6379608260874
 30
0.0
 10
-302.205491866225
 20
-95.64821602950832
 30
0.0
 10
-302.1816558103138
 20
-95.65847033678193
 30
0.0
 10
-302.1578197543856
 20
-95.66872464406285
 30
0.0
 10
-302.1337338391383
 20
-95.67897962701062
 30
0.0
 10
-302.1094099728509
 20
-95.68923373122473
 30
0.0
 10
-302.0850861065481
 20
-95.69948783544531
 30
0.0
 10
-302.0605205629969
 20
-95.70974263273507
 30
0.0
 10
-302.035725493311
 20
-95.71999658763627
 30
0.0
 10
-302.0109304236148
 20
-95.73025054254171
 30
0.0
 10
-301.9859020293865
 20
-95.74050522685235
 30
0.0
 10
-301.9606526942683
 20
-95.75075911546114
 30
0.0
 10
-301.9354033591472
 20
-95.76101300407113
 30
0.0
 10
-301.9099292151552
 20
-95.77126766876884
 30
0.0
 10
-301.8842428676912
 20
-95.7815215861718
 30
0.0
 10
-301.8585565202323
 20
-95.7917755035727
 30
0.0
 10
-301.8326540343922
 20
-95.80203024547019
 30
0.0
 10
-301.8065482261395
 20
-95.81228428157468
 30
0.0
 10
-301.7804424178993
 20
-95.82253831767423
 30
0.0
 10
-301.7541292881102
 20
-95.83279321977948
 30
0.0
 10
-301.7276218517587
 20
-95.84304744208437
 30
0.0
 10
-301.7143688951838
 20
-95.84817425861672
 30
0.0
 10
-301.7010666119909
 20
-95.85330119948469
 30
0.0
 10
-301.6877166464201
 20
-95.8584280693688
 30
0.0
 10
-301.6610151809551
 20
-95.86868239837277
 30
0.0
 10
-301.6341198738841
 20
-95.87893762389626
 30
0.0
 10
-301.6070440163974
 20
-95.88919216083941
 30
0.0
 10
-301.5799681589283
 20
-95.8994466977759
 30
0.0
 10
-301.5527076034044
 20
-95.90970211795637
 30
0.0
 10
-301.5252758099376
 20
-95.91995679953759
 30
0.0
 10
-301.4978440164802
 20
-95.93021148111526
 30
0.0
 10
-301.4702367829389
 20
-95.940466995919
 30
0.0
 10
-301.4424677259827
 20
-95.95072167707828
 30
0.0
 10
-301.4146986690193
 20
-95.9609763582402
 30
0.0
 10
-301.3867635348266
 20
-95.97123177756879
 30
0.0
 10
-301.3586760841823
 20
-95.98148621506014
 30
0.0
 10
-301.330588633523
 20
-95.99174065255696
 30
0.0
 10
-301.3023446008538
 20
-96.00199580122892
 30
0.0
 10
-301.2739580455084
 20
-96.01225040372141
 30
0.0
 10
-301.2455714901809
 20
-96.02250500620744
 30
0.0
 10
-301.2170380205823
 20
-96.03276049527763
 30
0.0
 10
-301.188371704675
 20
-96.04301518509877
 30
0.0
 10
-301.15970538877
 20
-96.05326987491912
 30
0.0
 10
-301.1309018351902
 20
-96.0635253373021
 30
0.0
 10
-301.1019752593909
 20
-96.0737799340262
 30
0.0
 10
-301.0875128025733
 20
-96.07890693776602
 30
0.0
 10
-301.0730187668788
 20
-96.08403402037985
 30
0.0
 10
-301.0584949417765
 20
-96.08916098095547
 30
0.0
 10
-301.0294456223324
 20
-96.09941549135405
 30
0.0
 10
-301.0002737789005
 20
-96.10967069004161
 30
0.0
 10
-300.9709938265171
 20
-96.1199249950082
 30
0.0
 10
-300.9417138741132
 20
-96.13017929998196
 30
0.0
 10
-300.912321327368
 20
-96.14043428303988
 30
0.0
 10
-300.8828307193564
 20
-96.15068838930053
 30
0.0
 10
-300.8533401113265
 20
-96.16094249556748
 30
0.0
 10
-300.8237469243458
 20
-96.17119729683137
 30
0.0
 10
-300.7940657971192
 20
-96.18145125694278
 30
0.0
 10
-300.7643846698807
 20
-96.19170521705834
 30
0.0
 10
-300.7346110555087
 20
-96.20195990780685
 30
0.0
 10
-300.7047596856581
 20
-96.21221380331004
 30
0.0
 10
-300.6749083158043
 20
-96.22246769881437
 30
0.0
 10
-300.6449746174993
 20
-96.23272237085482
 30
0.0
 10
-300.6149734024553
 20
-96.24297629532954
 30
0.0
 10
-300.5849721874172
 20
-96.25323021980225
 30
0.0
 10
-300.554898859722
 20
-96.26348496849235
 30
0.0
 10
-300.5247682980917
 20
-96.27373901057545
 30
0.0
 10
-300.4946377364756
 20
-96.28399305265367
 30
0.0
 10
-300.4644453252154
 20
-96.29424795991503
 30
0.0
 10
-300.4342059969026
 20
-96.30450218633729
 30
0.0
 10
-300.4190872015699
 20
-96.30962900492828
 30
0.0
 10
-300.4039558111754
 20
-96.31475594760116
 30
0.0
 10
-300.3888136958976
 20
-96.31988281905005
 30
0.0
 10
-300.3585277250452
 20
-96.33013715118372
 30
0.0
 10
-300.3281953653718
 20
-96.34039237883853
 30
0.0
 10
-300.2978316055832
 20
-96.35064691743307
 30
0.0
 10
-300.2674678458143
 20
-96.360901456021
 30
0.0
 10
-300.2370680345815
 20
-96.37115687736362
 30
0.0
 10
-300.2066471816112
 20
-96.38141156080152
 30
0.0
 10
-300.1762263286516
 20
-96.39166624423586
 30
0.0
 10
-300.1457797738753
 20
-96.40192176158128
 30
0.0
 10
-300.1153225350586
 20
-96.41217644796153
 30
0.0
 10
-300.0772301589952
 20
-96.42500181838852
 30
0.0
 10
-300.0391128579279
 20
-96.4378286599858
 30
0.0
 10
-300.0010000000002
 20
-96.45065359942457
 30
0.0
  0
SPLINE
  5
249
330
1F
100
AcDbEntity
  8
0
  6
Continuous
 62
     7
370
    15
100
AcDbSpline
210
0.0
220
0.0
230
1.0
 70
     8
 71
     3
 72
    10
 73
     6
 74
     0
 42
0.000000001
 43
0.00000001
 40
0.0
 40
0.0
 40
0.0
 40
0.0
 40
0.4809556476517864
 40
0.9621255138730731
 40
1.0
 40
1.0
 40
1.0
 40
1.0
 10
-300.0010000000002
 20
-96.60065359942458
 30
0.0
 10
-300.2624739497149
 20
-96.56578423697292
 30
0.0
 10
-300.785538310144
 20
-96.49602998118858
 30
0.0
 10
-301.3080336465104
 20
-96.20108765445515
 30
0.0
 10
-301.4594513795038
 20
-95.95804197563702
 30
0.0
 10
-301.470500278893
 20
-95.94030701686333
 30
0.0
  0
SPLINE
  5
24B
330
1F
100
AcDbEntity
  8
0
  6
Continuous
 62
     7
370
    15
100
AcDbSpline
210
0.0
220
0.0
230
1.0
 70
     8
 71
     3
 72
    16
 73
    12
 74
     0
 42
0.000000001
 43
0.00000001
 40
0.0
 40
0.0
 40
0.0
 40
0.0
 40
0.249999999999987
 40
0.249999999999987
 40
0.3749999999999784
 40
0.3749999999999784
 40
0.4999999999999697
 40
0.4999999999999697
 40
0.7499999999999849
 40
0.7499999999999849
 40
1.0
 40
1.0
 40
1.0
 40
1.0
 10
-300.0010000000005
 20
-98.10065359942458
 30
0.0
 10
-300.3268600578867
 20
-98.10065359942455
 30
0.0
 10
-300.6455606288711
 20
-98.05588064069462
 30
0.0
 10
-301.111061695144
 20
-97.9238713338994
 30
0.0
 10
-301.2651503352705
 20
-97.86838540558914
 30
0.0
 10
-301.5610625104085
 20
-97.737905930813
 30
0.0
 10
-301.7033992025022
 20
-97.66294687635846
 30
0.0
 10
-302.1134126373702
 20
-97.40973271614848
 30
0.0
 10
-302.3672607238988
 20
-97.19952291756339
 30
0.0
 10
-302.8010226798759
 20
-96.72507929556225
 30
0.0
 10
-302.9836367882509
 20
-96.46077773924522
 30
0.0
 10
-303.1296992513222
 20
-96.16948787836449
 30
0.0
  0
SPLINE
  5
24C
330
1F
100
AcDbEntity
  8
0
  6
Continuous
 62
     7
370
    15
100
AcDbSpline
210
0.0
220
0.0
230
1.0
 70
     8
 71
     3
 72
    10
 73
     6
 74
     0
 42
0.000000001
 43
0.00000001
 40
0.0
 40
0.0
 40
0.0
 40
0.0
 40
0.4809459571018425
 40
0.962114825948149
 40
1.0
 40
1.0
 40
1.0
 40
1.0
 10
300.0010000000004
 20
-29.60065359942547
 30
0.0
 10
300.2624694297798
 20
-29.6355216293555
 30
0.0
 10
300.7855294767733
 20
-29.70527385006118
 30
0.0
 10
301.3080260369344
 20
-30.00021424448152
 30
0.0
 10
301.459447927436
 20
-30.24326441454114
 30
0.0
 10
301.4705000418649
 20
-30.26100437461278
 30
0.0
  0
SPLINE
  5
24E
330
1F
100
AcDbEntity
  8
0
  6
Continuous
 62
     7
370
    15
100
AcDbSpline
210
0.0
220
0.0
230
1.0
 70
     8
 71
     3
 72
    22
 73
    18
 74
     0
 42
0.000000001
 43
0.00000001
 40
0.0
 40
0.0
 40
0.0
 40
0.0
 40
0.125
 40
0.125
 40
0.25
 40
0.25
 40
0.375
 40
0.375
 40
0.5
 40
0.5
 40
0.625
 40
0.625
 40
0.75
 40
0.75
 40
0.875
 40
0.875
 40
1.0
 40
1.0
 40
1.0
 40
1.0
 10
300.0010000000005
 20
-28.10065359942547
 30
0.0
 10
300.2321097103714
 20
-28.10065359942549
 30
0.0
 10
300.4595864446748
 20
-28.12335306599935
 30
0.0
 10
300.9065705022183
 20
-28.21216387795406
 30
0.0
 10
301.1277850592961
 20
-28.27901997242332
 30
0.0
 10
301.5527542979503
 20
-28.4550291589244
 30
0.0
 10
301.7539412092442
 20
-28.56269081119466
 30
0.0
 10
302.1333849727748
 20
-28.81588159553964
 30
0.0
 10
302.3132785665368
 20
-28.96325728721401
 30
0.0
 10
302.6373617552873
 20
-29.28719554443715
 30
0.0
 10
302.7820531141952
 20
-29.46337324967011
 30
0.0
 10
303.0363552240913
 20
-29.84314332036382
 30
0.0
 10
303.1463420261641
 20
-30.04855199333491
 30
0.0
 10
303.3214204547911
 20
-30.47060764434748
 30
0.0
 10
303.3878675711445
 20
-30.68870022612697
 30
0.0
 10
303.4778720883486
 20
-31.13816967451262
 30
0.0
 10
303.5010000000004
 20
-31.36954387965465
 30
0.0
 10
303.5010000000004
 20
-31.60065359942547
 30
0.0
  0
SPLINE
  5
24F
330
1F
100
AcDbEntity
  8
0
  6
Continuous
 62
     7
370
    15
100
AcDbSpline
210
0.0
220
0.0
230
1.0
 70
     8
 71
     3
 72
   140
 73
   136
 74
     0
 42
0.000000001
 43
0.00000001
 40
0.0000000000000002
 40
0.0000000000000002
 40
0.0000000000000002
 40
0.0000000000000002
 40
0.0000964576976803
 40
0.0000964576976803
 40
0.0000964576976803
 40
0.0001446811895579
 40
0.0001446811895579
 40
0.0001446811895579
 40
0.0002411388874329
 40
0.0002411388874329
 40
0.0002411388874329
 40
0.00033759658542
 40
0.00033759658542
 40
0.00033759658542
 40
0.0004340542834813
 40
0.0004340542834813
 40
0.0004340542834813
 40
0.0005305119815648
 40
0.0005305119815648
 40
0.0005305119815648
 40
0.0006269696796148
 40
0.0006269696796148
 40
0.0006269696796148
 40
0.0007234273775816
 40
0.0007234273775816
 40
0.0007234273775816
 40
0.000819885075431
 40
0.000819885075431
 40
0.000819885075431
 40
0.0009163427731547
 40
0.0009163427731547
 40
0.0009163427731547
 40
0.0009645662650268
 40
0.0009645662650268
 40
0.0009645662650268
 40
0.001061023962622
 40
0.001061023962622
 40
0.001061023962622
 40
0.0011574816602519
 40
0.0011574816602519
 40
0.0011574816602519
 40
0.0012539393579859
 40
0.0012539393579859
 40
0.0012539393579859
 40
0.0013503970556105
 40
0.0013503970556105
 40
0.0013503970556105
 40
0.0014468547532058
 40
0.0014468547532058
 40
0.0014468547532058
 40
0.0015433124508715
 40
0.0015433124508715
 40
0.0015433124508715
 40
0.0016397701486552
 40
0.0016397701486552
 40
0.0016397701486552
 40
0.001736227846564
 40
0.001736227846564
 40
0.001736227846564
 40
0.0018326855445742
 40
0.0018326855445742
 40
0.0018326855445742
 40
0.0018809090364656
 40
0.0018809090364656
 40
0.0018809090364656
 40
0.0019773667345452
 40
0.0019773667345452
 40
0.0019773667345452
 40
0.0020738244326002
 40
0.0020738244326002
 40
0.0020738244326002
 40
0.0021702821305792
 40
0.0021702821305792
 40
0.0021702821305792
 40
0.0022667398284449
 40
0.0022667398284449
 40
0.0022667398284449
 40
0.0023631975261842
 40
0.0023631975261842
 40
0.0023631975261842
 40
0.0024596552238181
 40
0.0024596552238181
 40
0.0024596552238181
 40
0.0025561129214128
 40
0.0025561129214128
 40
0.0025561129214128
 40
0.0026525706190903
 40
0.0026525706190903
 40
0.0026525706190903
 40
0.0027007941109668
 40
0.0027007941109668
 40
0.0027007941109668
 40
0.0027972518086031
 40
0.0027972518086031
 40
0.0027972518086031
 40
0.0028937095061917
 40
0.0028937095061917
 40
0.0028937095061917
 40
0.0029901672038384
 40
0.0029901672038384
 40
0.0029901672038384
 40
0.0030866249015965
 40
0.0030866249015965
 40
0.0030866249015965
 40
0.003183082599478
 40
0.003183082599478
 40
0.003183082599478
 40
0.003279540297463
 40
0.003279540297463
 40
0.003279540297463
 40
0.0033759979955107
 40
0.0033759979955107
 40
0.0033759979955107
 40
0.0034724556935685
 40
0.0034724556935685
 40
0.0034724556935685
 40
0.0035689133915819
 40
0.0035689133915819
 40
0.0035689133915819
 40
0.0036171368834599
 40
0.0036171368834599
 40
0.0036171368834599
 40
0.0037135945813162
 40
0.0037135945813162
 40
0.0037135945813162
 40
0.0038100522790471
 40
0.0038100522790471
 40
0.0038100522790471
 40
0.0039065099766681
 40
0.0039065099766681
 40
0.0039065099766681
 40
0.0040127644871567
 40
0.0040127644871567
 40
0.0040127644871567
 40
0.0041190954778368
 40
0.0041190954778368
 40
0.0041190954778368
 40
0.0041190954778368
 10
303.1297038477256
 20
-96.16947871180417
 30
0.0
 10
303.1161602950619
 20
-96.19648858371181
 30
0.0
 10
303.1022659108465
 20
-96.22332507435189
 30
0.0
 10
303.0880274040483
 20
-96.24997521956438
 30
0.0
 10
303.0809085460406
 20
-96.26329955211826
 30
0.0
 10
303.0737032817703
 20
-96.27657804843734
 30
0.0
 10
303.0664124815297
 20
-96.2898091038372
 30
0.0
 10
303.051830071149
 20
-96.31627268441045
 30
0.0
 10
303.0369038193971
 20
-96.34254939765266
 30
0.0
 10
303.0216409419108
 20
-96.36862653475428
 30
0.0
 10
303.0063780644136
 20
-96.39470367187437
 30
0.0
 10
302.9907763012686
 20
-96.42058509386388
 30
0.0
 10
302.9748431992885
 20
-96.44625827704428
 30
0.0
 10
302.9589100973008
 20
-96.47193146023703
 30
0.0
 10
302.9426432973383
 20
-96.49740020585872
 30
0.0
 10
302.926050671279
 20
-96.52265218695166
 30
0.0
 10
302.9094580452171
 20
-96.54790416804869
 30
0.0
 10
302.8925371362836
 20
-96.57294312351718
 30
0.0
 10
302.8752961346365
 20
-96.59775693436244
 30
0.0
 10
302.8580551329926
 20
-96.62257074520309
 30
0.0
 10
302.8404914858847
 20
-96.64716308545653
 30
0.0
 10
302.8226136943254
 20
-96.67152205492866
 30
0.0
 10
302.8047359027748
 20
-96.69588102438861
 30
0.0
 10
302.7865413197719
 20
-96.72001022975783
 30
0.0
 10
302.7680387491534
 20
-96.74389800002149
 30
0.0
 10
302.7495361785483
 20
-96.76778577026795
 30
0.0
 10
302.7307228808623
 20
-96.79143564232335
 30
0.0
 10
302.7116079541667
 20
-96.81483618422101
 30
0.0
 10
302.692493027486
 20
-96.83823672610033
 30
0.0
 10
302.6730736417081
 20
-96.86139140258516
 30
0.0
 10
302.653359180035
 20
-96.8842890300683
 30
0.0
 10
302.6435024966577
 20
-96.89573720795589
 30
0.0
 10
302.633571513683
 20
-96.90712177391707
 30
0.0
 10
302.6235674297378
 20
-96.91844135426437
 30
0.0
 10
302.6035581505711
 20
-96.94108177236384
 30
0.0
 10
302.5832541799218
 20
-96.96346470263546
 30
0.0
 10
302.5626653106181
 20
-96.98557935013108
 30
0.0
 10
302.5420764413111
 20
-97.0076939976303
 30
0.0
 10
302.5211996250908
 20
-97.02954363675444
 30
0.0
 10
302.5000449152756
 20
-97.05111774146827
 30
0.0
 10
302.4788902054462
 20
-97.07269184619648
 30
0.0
 10
302.4574544560586
 20
-97.09399362183404
 30
0.0
 10
302.4357481657701
 20
-97.11501263689043
 30
0.0
 10
302.4140418754948
 20
-97.13603165193399
 30
0.0
 10
302.3920617884318
 20
-97.15677106207036
 30
0.0
 10
302.3698184963852
 20
-97.17722087609144
 30
0.0
 10
302.3475752043438
 20
-97.19767069010769
 30
0.0
 10
302.3250654138806
 20
-97.217833935678
 30
0.0
 10
302.3022999839042
 20
-97.23770088456942
 30
0.0
 10
302.2795345539186
 20
-97.25756783346891
 30
0.0
 10
302.2565101136947
 20
-97.27714142707532
 30
0.0
 10
302.2332377813527
 20
-97.29641221018865
 30
0.0
 10
302.209965448994
 20
-97.31568299331589
 30
0.0
 10
302.186441778739
 20
-97.33465381910295
 30
0.0
 10
302.1626781393726
 20
-97.35331551505571
 30
0.0
 10
302.1389144999877
 20
-97.37197721102307
 30
0.0
 10
302.114907372959
 20
-97.39033254017038
 30
0.0
 10
302.0906683685761
 20
-97.40837262193733
 30
0.0
 10
302.0664293641776
 20
-97.42641270371591
 30
0.0
 10
302.0419548934983
 20
-97.44414020913374
 30
0.0
 10
302.017256798603
 20
-97.46154655829157
 30
0.0
 10
302.0049084370207
 20
-97.47024924949667
 30
0.0
 10
301.9925034965711
 20
-97.47887215301168
 30
0.0
 10
301.980043478121
 20
-97.48741422540556
 30
0.0
 10
301.9551220570753
 20
-97.5044993191061
 30
0.0
 10
301.9299775061904
 20
-97.52126291225386
 30
0.0
 10
301.9046219958136
 20
-97.53769689108059
 30
0.0
 10
301.8792664854402
 20
-97.55413086990518
 30
0.0
 10
301.8536962613509
 20
-97.57023766769825
 30
0.0
 10
301.8279236991701
 20
-97.58600949067407
 30
0.0
 10
301.8021511370008
 20
-97.60178131364275
 30
0.0
 10
301.7761724207959
 20
-97.61722049705706
 30
0.0
 10
301.7500001201241
 20
-97.63231957373858
 30
0.0
 10
301.7238278194704
 20
-97.64741865040963
 30
0.0
 10
301.6974580592604
 20
-97.6621798560103
 30
0.0
 10
301.6709035913429
 20
-97.67659605591291
 30
0.0
 10
301.6443491234462
 20
-97.6910122558042
 30
0.0
 10
301.6176060162136
 20
-97.70508558455809
 30
0.0
 10
301.5906871918377
 20
-97.7188092453336
 30
0.0
 10
301.5637683674799
 20
-97.7325329060999
 30
0.0
 10
301.5366698404431
 20
-97.74590893092025
 30
0.0
 10
301.5094046911225
 20
-97.75893086524643
 30
0.0
 10
301.4821395418095
 20
-97.77195279956895
 30
0.0
 10
301.45470373342
 20
-97.7846225715513
 30
0.0
 10
301.4271104922739
 20
-97.79693407269873
 30
0.0
 10
301.3995172511153
 20
-97.80924557385174
 30
0.0
 10
301.3717624918119
 20
-97.8212006271725
 30
0.0
 10
301.3438595742692
 20
-97.8327934732235
 30
0.0
 10
301.3299088903373
 20
-97.83858957432585
 30
0.0
 10
301.3159204288349
 20
-97.84429545408507
 30
0.0
 10
301.3018958918941
 20
-97.84991041883117
 30
0.0
 10
301.273845260131
 20
-97.86114097204806
 30
0.0
 10
301.2456471534301
 20
-97.87200904065057
 30
0.0
 10
301.217315157201
 20
-97.88250939125493
 30
0.0
 10
301.188983160982
 20
-97.89300974185555
 30
0.0
 10
301.1605130803503
 20
-97.90314392898571
 30
0.0
 10
301.1319186483149
 20
-97.91290706359382
 30
0.0
 10
301.10332421627
 20
-97.92267019820511
 30
0.0
 10
301.0746011990994
 20
-97.93206372568928
 30
0.0
 10
301.0457634663729
 20
-97.94108310763752
 30
0.0
 10
301.0169257336266
 20
-97.9501024895919
 30
0.0
 10
300.987969015568
 20
-97.95874906131593
 30
0.0
 10
300.9589073068278
 20
-97.96701864076121
 30
0.0
 10
300.9298455980652
 20
-97.97528822021285
 30
0.0
 10
300.9006745956776
 20
-97.98318203170992
 30
0.0
 10
300.8714084074564
 20
-97.99069625464827
 30
0.0
 10
300.842142219216
 20
-97.99821047759157
 30
0.0
 10
300.8127765118969
 20
-98.00534622449587
 30
0.0
 10
300.7833254942102
 20
-98.01210004061578
 30
0.0
 10
300.7538744765114
 20
-98.01885385673846
 30
0.0
 10
300.7243337878156
 20
-98.02522674204104
 30
0.0
 10
300.694717725234
 20
-98.03121561135548
 30
0.0
 10
300.6651016626499
 20
-98.03720448067041
 30
0.0
 10
300.6354058411094
 20
-98.04281022072982
 30
0.0
 10
300.6056446333885
 20
-98.04803011894218
 30
0.0
 10
300.5758834256752
 20
-98.05325001715322
 30
0.0
 10
300.5460524252324
 20
-98.05808484641916
 30
0.0
 10
300.5161660676121
 20
-98.06253226898943
 30
0.0
 10
300.5012237187499
 20
-98.06475585676905
 30
0.0
 10
300.4862667040757
 20
-98.06688273835154
 30
0.0
 10
300.4712968325148
 20
-98.06891265683849
 30
0.0
 10
300.4413554264669
 20
-98.07297271930565
 30
0.0
 10
300.4113592565483
 20
-98.0766452921262
 30
0.0
 10
300.3813228281331
 20
-98.07992860241127
 30
0.0
 10
300.3512863997413
 20
-98.08321191269378
 30
0.0
 10
300.321205265638
 20
-98.08610644666408
 30
0.0
 10
300.291093961512
 20
-98.08861080866629
 30
0.0
 10
300.260982657407
 20
-98.09111517066677
 30
0.0
 10
300.2308367250125
 20
-98.09322973161402
 30
0.0
 10
300.2006707174268
 20
-98.0949534727338
 30
0.0
 10
300.1674413972876
 20
-98.09685225716342
 30
0.0
 10
300.13418202264
 20
-98.09827712727095
 30
0.0
 10
300.1009120517818
 20
-98.09922724905886
 30
0.0
 10
300.0676181380883
 20
-98.10017805460478
 30
0.0
 10
300.0343076252111
 20
-98.1006535994256
 30
0.0
 10
300.0010000000002
 20
-98.1006535994256
 30
0.0
  0
SPLINE
  5
251
330
1F
100
AcDbEntity
  8
0
  6
Continuous
 62
     7
370
    15
100
AcDbSpline
210
0.0
220
0.0
230
1.0
 70
     8
 71
     3
 72
    10
 73
     6
 74
     0
 42
0.000000001
 43
0.00000001
 40
0.0
 40
0.0
 40
0.0
 40
0.0
 40
0.0082974669961031
 40
0.4808429054368951
 40
1.0
 40
1.0
 40
1.0
 40
1.0
 10
301.4984706995487
 20
-95.92226922969644
 30
0.0
 10
301.4961290454251
 20
-95.92629525625084
 30
0.0
 10
301.3604288645297
 20
-96.15960577218195
 30
0.0
 10
300.8351345333879
 20
-96.47813424381124
 30
0.0
 10
300.2876228291017
 20
-96.55855386260826
 30
0.0
 10
300.0010000000005
 20
-96.6006535994256
 30
0.0
  0
SPLINE
  5
253
330
1F
100
AcDbEntity
  8
0
  6
Continuous
 62
     7
370
    15
100
AcDbSpline
210
0.0
220
0.0
230
1.0
 70
     8
 71
     3
 72
   194
 73
   190
 74
     0
 42
0.000000001
 43
0.00000001
 40
0.0
 40
0.0
 40
0.0
 40
0.0
 40
0.0000964576977157
 40
0.0000964576977157
 40
0.0000964576977157
 40
0.0001929153953084
 40
0.0001929153953084
 40
0.0001929153953084
 40
0.0002893730929145
 40
0.0002893730929145
 40
0.0002893730929145
 40
0.0003858307906127
 40
0.0003858307906127
 40
0.0003858307906127
 40
0.0004822884884346
 40
0.0004822884884346
 40
0.0004822884884346
 40
0.0005787461863751
 40
0.0005787461863751
 40
0.0005787461863751
 40
0.0006752038844029
 40
0.0006752038844029
 40
0.0006752038844029
 40
0.00077166158247
 40
0.00077166158247
 40
0.00077166158247
 40
0.0008681192805218
 40
0.0008681192805218
 40
0.0008681192805218
 40
0.0009645769785064
 40
0.0009645769785064
 40
0.0009645769785064
 40
0.0010610346763844
 40
0.0010610346763844
 40
0.0010610346763844
 40
0.0011574923741388
 40
0.0011574923741388
 40
0.0011574923741388
 40
0.0012539500717848
 40
0.0012539500717848
 40
0.0012539500717848
 40
0.0013504077693805
 40
0.0013504077693805
 40
0.0013504077693805
 40
0.0014468654670374
 40
0.0014468654670374
 40
0.0014468654670374
 40
0.0015433231647621
 40
0.0015433231647621
 40
0.0015433231647621
 40
0.0016397808623633
 40
0.0016397808623633
 40
0.0016397808623633
 40
0.0017362385599619
 40
0.0017362385599619
 40
0.0017362385599619
 40
0.0017844620518322
 40
0.0017844620518322
 40
0.0017844620518322
 40
0.0018809197495827
 40
0.0018809197495827
 40
0.0018809197495827
 40
0.0019773774474599
 40
0.0019773774474599
 40
0.0019773774474599
 40
0.0020738351454476
 40
0.0020738351454476
 40
0.0020738351454476
 40
0.0021702928435069
 40
0.0021702928435069
 40
0.0021702928435069
 40
0.0022667505415854
 40
0.0022667505415854
 40
0.0022667505415854
 40
0.0023632082396275
 40
0.0023632082396275
 40
0.0023632082396275
 40
0.002459665937584
 40
0.002459665937584
 40
0.002459665937584
 40
0.002556123635422
 40
0.002556123635422
 40
0.002556123635422
 40
0.0026043471272961
 40
0.0026043471272961
 40
0.0026043471272961
 40
0.0027008048249456
 40
0.0027008048249456
 40
0.0027008048249456
 40
0.002797262522532
 40
0.002797262522532
 40
0.002797262522532
 40
0.0028937202201602
 40
0.0028937202201602
 40
0.0028937202201602
 40
0.0029901779178862
 40
0.0029901779178862
 40
0.0029901779178862
 40
0.0030866356154976
 40
0.0030866356154976
 40
0.0030866356154976
 40
0.0031830933130868
 40
0.0031830933130868
 40
0.0031830933130868
 40
0.0032795510107501
 40
0.0032795510107501
 40
0.0032795510107501
 40
0.0033760087085328
 40
0.0033760087085328
 40
0.0033760087085328
 40
0.00347246640644
 40
0.00347246640644
 40
0.00347246640644
 40
0.0035206898983251
 40
0.0035206898983251
 40
0.0035206898983251
 40
0.003617147596372
 40
0.003617147596372
 40
0.003617147596372
 40
0.0037136052944472
 40
0.0037136052944472
 40
0.0037136052944472
 40
0.0038100629924949
 40
0.0038100629924949
 40
0.0038100629924949
 40
0.0039065206904641
 40
0.0039065206904641
 40
0.0039065206904641
 40
0.0040029783883186
 40
0.0040029783883186
 40
0.0040029783883186
 40
0.0040994360860469
 40
0.0040994360860469
 40
0.0040994360860469
 40
0.0041958937836722
 40
0.0041958937836722
 40
0.0041958937836722
 40
0.0042923514812633
 40
0.0042923514812633
 40
0.0042923514812633
 40
0.0043405749731355
 40
0.0043405749731355
 40
0.0043405749731355
 40
0.0044370326708775
 40
0.0044370326708775
 40
0.0044370326708775
 40
0.0045334903685288
 40
0.0045334903685288
 40
0.0045334903685288
 40
0.0046299480661396
 40
0.0046299480661396
 40
0.0046299480661396
 40
0.0047264057638127
 40
0.0047264057638127
 40
0.0047264057638127
 40
0.0048228634615988
 40
0.0048228634615988
 40
0.0048228634615988
 40
0.0049193211595078
 40
0.0049193211595078
 40
0.0049193211595078
 40
0.0050157788575188
 40
0.0050157788575188
 40
0.0050157788575188
 40
0.0051122365555898
 40
0.0051122365555898
 40
0.0051122365555898
 40
0.0052086942536678
 40
0.0052086942536678
 40
0.0052086942536678
 40
0.0052569177455611
 40
0.0052569177455611
 40
0.0052569177455611
 40
0.0053533754435452
 40
0.0053533754435452
 40
0.0053533754435452
 40
0.0054498331414192
 40
0.0054498331414192
 40
0.0054498331414192
 40
0.0055462908391678
 40
0.0055462908391678
 40
0.0055462908391678
 40
0.0056427485368084
 40
0.0056427485368084
 40
0.0056427485368084
 40
0.0057463980959701
 40
0.0057463980959701
 40
0.0057463980959701
 40
0.0058501186428531
 40
0.0058501186428531
 40
0.0058501186428531
 40
0.0058501186428531
 10
-303.5010000000002
 20
-31.60065359942445
 30
0.0
 10
-303.5010000000002
 20
-31.57043825003086
 30
0.0
 10
-303.500608668305
 20
-31.54022075349214
 30
0.0
 10
-303.4998261979291
 20
-31.51001565655665
 30
0.0
 10
-303.4990437275538
 20
-31.47981055964645
 30
0.0
 10
-303.4978700024718
 20
-31.44961339016683
 30
0.0
 10
-303.4963055892352
 20
-31.41943870527074
 30
0.0
 10
-303.4947411759986
 20
-31.38926402037347
 30
0.0
 10
-303.4927858428318
 20
-31.3591073524231
 30
0.0
 10
-303.4904405317722
 20
-31.32898325649565
 30
0.0
 10
-303.4880952207113
 20
-31.29885916055164
 30
0.0
 10
-303.485359584387
 20
-31.2687631764751
 30
0.0
 10
-303.4822349415558
 20
-31.23870984454816
 30
0.0
 10
-303.479110298722
 20
-31.20865651259826
 30
0.0
 10
-303.4755961866459
 20
-31.17864138308813
 30
0.0
 10
-303.4716943013057
 20
-31.14867896862534
 30
0.0
 10
-303.4677924159625
 20
-31.11871655414021
 30
0.0
 10
-303.4635021795627
 20
-31.08880241841494
 30
0.0
 10
-303.4588256650639
 20
-31.05895103340854
 30
0.0
 10
-303.4541491505624
 20
-31.02909964838544
 30
0.0
 10
-303.4490856654985
 20
-30.99930659419809
 30
0.0
 10
-303.4436376588185
 20
-30.96958628915786
 30
0.0
 10
-303.4381896521371
 20
-30.9398659841097
 30
0.0
 10
-303.4323563171702
 20
-30.91021402771055
 30
0.0
 10
-303.4261404771123
 20
-30.88064477166684
 30
0.0
 10
-303.4199246370547
 20
-30.85107551562529
 30
0.0
 10
-303.4133253715755
 20
-30.82158458179846
 30
0.0
 10
-303.4063458756328
 20
-30.79218624243811
 30
0.0
 10
-303.3993663796929
 20
-30.76278790308947
 30
0.0
 10
-303.3920056199198
 20
-30.73347780538157
 30
0.0
 10
-303.3842671598218
 20
-30.70427012943311
 30
0.0
 10
-303.3765286997289
 20
-30.67506245350363
 30
0.0
 10
-303.3684113936004
 20
-30.64595287475913
 30
0.0
 10
-303.3599191695682
 20
-30.61695546874173
 30
0.0
 10
-303.3514269455426
 20
-30.58795806274656
 30
0.0
 10
-303.3425585463343
 20
-30.55906853606383
 30
0.0
 10
-303.333318260082
 20
-30.53030084751273
 30
0.0
 10
-303.3240779738361
 20
-30.5015331589814
 30
0.0
 10
-303.3144644325434
 20
-30.47288304920139
 30
0.0
 10
-303.3044822790738
 20
-30.44436434848093
 30
0.0
 10
-303.2945001256076
 20
-30.41584564777032
 30
0.0
 10
-303.2841478821491
 20
-30.38745413360823
 30
0.0
 10
-303.2734305404023
 20
-30.35920349642237
 30
0.0
 10
-303.262713198652
 20
-30.33095285922739
 30
0.0
 10
-303.2516291719603
 20
-30.30283891615606
 30
0.0
 10
-303.2401837943876
 20
-30.27487520686481
 30
0.0
 10
-303.2287384168091
 20
-30.24691149755927
 30
0.0
 10
-303.2169300207931
 20
-30.219093950978
 30
0.0
 10
-303.2047643498898
 20
-30.19143608946476
 30
0.0
 10
-303.1925986789959
 20
-30.16377822797275
 30
0.0
 10
-303.1800739150792
 20
-30.13627591541818
 30
0.0
 10
-303.1671960957059
 20
-30.10894240635145
 30
0.0
 10
-303.1543182763335
 20
-30.08160889728651
 30
0.0
 10
-303.1410854946827
 20
-30.05444014479528
 30
0.0
 10
-303.1275041350472
 20
-30.02744926001565
 30
0.0
 10
-303.1207138323706
 20
-30.01395456713629
 30
0.0
 10
-303.1138360280704
 20
-30.00050358214385
 30
0.0
 10
-303.1068715522379
 20
-29.98709792917308
 30
0.0
 10
-303.0929418269312
 20
-29.96028513407823
 30
0.0
 10
-303.0786637894515
 20
-29.93365072985378
 30
0.0
 10
-303.0640443371733
 20
-29.90720758950504
 30
0.0
 10
-303.0494248848836
 20
-29.88076444913549
 30
0.0
 10
-303.0344618531429
 20
-29.85450865748309
 30
0.0
 10
-303.0191624756368
 20
-29.82845291365003
 30
0.0
 10
-303.0038630981201
 20
-29.80239716979875
 30
0.0
 10
-302.9882251095206
 20
-29.77653761592207
 30
0.0
 10
-302.9722560743875
 20
-29.75088676535681
 30
0.0
 10
-302.9562870392471
 20
-29.72523591477963
 30
0.0
 10
-302.9399845931136
 20
-29.69978996958062
 30
0.0
 10
-302.9233566252515
 20
-29.67456124575866
 30
0.0
 10
-302.9067286573871
 20
-29.64933252193308
 30
0.0
 10
-302.8897727057875
 20
-29.62431728402678
 30
0.0
 10
-302.8724969776117
 20
-29.59952763947878
 30
0.0
 10
-302.8552212494394
 20
-29.57473799493583
 30
0.0
 10
-302.8376231868007
 20
-29.55017027329304
 30
0.0
 10
-302.8197113072896
 20
-29.5258363626155
 30
0.0
 10
-302.8017994277877
 20
-29.50150245195045
 30
0.0
 10
-302.7835710793676
 20
-29.47739874927073
 30
0.0
 10
-302.7650350819978
 20
-29.45353691291508
 30
0.0
 10
-302.7464990846415
 20
-29.42967507657681
 30
0.0
 10
-302.7276526939232
 20
-29.40605157348865
 30
0.0
 10
-302.7085050235663
 20
-29.38267782242317
 30
0.0
 10
-302.6989317201133
 20
-29.37099159597295
 30
0.0
 10
-302.6892825822534
 20
-29.35936714441808
 30
0.0
 10
-302.6795587757791
 20
-29.34780587161466
 30
0.0
 10
-302.6601100826828
 20
-29.32468204174931
 30
0.0
 10
-302.6403604881387
 20
-29.30180841687933
 30
0.0
 10
-302.620319529228
 20
-29.27919603922519
 30
0.0
 10
-302.6002785703257
 20
-29.25658366158062
 30
0.0
 10
-302.5799432799147
 20
-29.23422918308437
 30
0.0
 10
-302.559323465168
 20
-29.21214338433807
 30
0.0
 10
-302.5387036504171
 20
-29.19005758558723
 30
0.0
 10
-302.5177962584894
 20
-29.16823719645419
 30
0.0
 10
-302.4966113564906
 20
-29.14669272822943
 30
0.0
 10
-302.4754264544783
 20
-29.12514825999083
 30
0.0
 10
-302.4539609049017
 20
-29.10387652472746
 30
0.0
 10
-302.4322252092265
 20
-29.08288792684433
 30
0.0
 10
-302.4104895135655
 20
-29.06189932897496
 30
0.0
 10
-302.3884804107443
 20
-29.04119071685852
 30
0.0
 10
-302.3662085071976
 20
-29.02077206774877
 30
0.0
 10
-302.3439366036552
 20
-29.00035341864294
 30
0.0
 10
-302.321398601715
 20
-28.9802217094887
 30
0.0
 10
-302.2986053745071
 20
-28.96038665401209
 30
0.0
 10
-302.2758121472893
 20
-28.94055159852693
 30
0.0
 10
-302.2527603199636
 20
-28.92101026005424
 30
0.0
 10
-302.2294610244256
 20
-28.90177207875389
 30
0.0
 10
-302.2061617288706
 20
-28.88253389743943
 30
0.0
 10
-302.1826115153327
 20
-28.86359602496924
 30
0.0
 10
-302.1588217658926
 20
-28.84496761828635
 30
0.0
 10
-302.135032016434
 20
-28.82633921158898
 30
0.0
 10
-302.1109992086743
 20
-28.80801751259112
 30
0.0
 10
-302.086734965687
 20
-28.79001138581716
 30
0.0
 10
-302.0746035180046
 20
-28.78100882245525
 30
0.0
 10
-302.0624135512238
 20
-28.77208463448458
 30
0.0
 10
-302.0501665397468
 20
-28.76323990163857
 30
0.0
 10
-302.0256711563121
 20
-28.74554945341391
 30
0.0
 10
-302.0009448216358
 20
-28.72817493316459
 30
0.0
 10
-301.9759995018099
 20
-28.71112475065832
 30
0.0
 10
-301.9510541819791
 20
-28.69407456814865
 30
0.0
 10
-301.9258861834933
 20
-28.67734619887667
 30
0.0
 10
-301.9005076880812
 20
-28.66094773949196
 30
0.0
 10
-301.8751291926729
 20
-28.64454928010967
 30
0.0
 10
-301.8495364427124
 20
-28.62847830258331
 30
0.0
 10
-301.8237418246021
 20
-28.61274258320472
 30
0.0
 10
-301.7979472065037
 20
-28.59700686383351
 30
0.0
 10
-301.7719469010478
 20
-28.58160407269228
 30
0.0
 10
-301.7457534879585
 20
-28.5665416591267
 30
0.0
 10
-301.7195600748876
 20
-28.5514792455717
 30
0.0
 10
-301.6931696759704
 20
-28.536754979358
 30
0.0
 10
-301.6665950525722
 20
-28.52237597697912
 30
0.0
 10
-301.6400204291948
 20
-28.50799697461152
 30
0.0
 10
-301.6132576467261
 20
-28.49396110702519
 30
0.0
 10
-301.5863196362237
 20
-28.48027515266455
 30
0.0
 10
-301.559381625739
 20
-28.46658919831292
 30
0.0
 10
-301.5322643988459
 20
-28.4532511307366
 30
0.0
 10
-301.5049810441433
 20
-28.44026738586478
 30
0.0
 10
-301.4776976894476
 20
-28.42728364099619
 30
0.0
 10
-301.4502441674542
 20
-28.41465229633096
 30
0.0
 10
-301.4226337120212
 20
-28.40237944156291
 30
0.0
 10
-301.4088292510196
 20
-28.39624335498384
 30
0.0
 10
-301.3949847988723
 20
-28.39019652980144
 30
0.0
 10
-301.3811020221051
 20
-28.38423969437712
 30
0.0
 10
-301.3533349264184
 20
-28.37232536182026
 30
0.0
 10
-301.3254113737077
 20
-28.36076973173897
 30
0.0
 10
-301.2973450503061
 20
-28.3495784679415
 30
0.0
 10
-301.2692787269179
 20
-28.33838720414931
 30
0.0
 10
-301.2410654333544
 20
-28.32755862977857
 30
0.0
 10
-301.2127187632789
 20
-28.31709795976824
 30
0.0
 10
-301.1843720932121
 20
-28.30663728976113
 30
0.0
 10
-301.1558878495781
 20
-28.29654297546128
 30
0.0
 10
-301.1272797730554
 20
-28.28681988711987
 30
0.0
 10
-301.0986716965227
 20
-28.27709679877502
 30
0.0
 10
-301.0699355513589
 20
-28.26774349692149
 30
0.0
 10
-301.0410852141929
 20
-28.25876450084303
 30
0.0
 10
-301.012234877007
 20
-28.24978550475838
 30
0.0
 10
-300.9832660761951
 20
-28.24117948512097
 30
0.0
 10
-300.9541928128135
 20
-28.23295060456272
 30
0.0
 10
-300.9251195494096
 20
-28.22472172399815
 30
0.0
 10
-300.8959375187802
 20
-28.21686876421256
 30
0.0
 10
-300.8666608344885
 20
-28.2093955261377
 30
0.0
 10
-300.8373841501779
 20
-28.201922288058
 30
0.0
 10
-300.8080084774045
 20
-28.19482766523583
 30
0.0
 10
-300.778548029981
 20
-28.18811509252487
 30
0.0
 10
-300.7490875825459
 20
-28.18140251981128
 30
0.0
 10
-300.7195379984344
 20
-28.17507100334961
 30
0.0
 10
-300.6899135791757
 20
-28.1691236082358
 30
0.0
 10
-300.660289159915
 20
-28.16317621312158
 30
0.0
 10
-300.6305855191994
 20
-28.15761205876185
 30
0.0
 10
-300.6008170335294
 20
-28.15243383753458
 30
0.0
 10
-300.5859336173709
 20
-28.14984487072115
 30
0.0
 10
-300.5710331673106
 20
-28.14735222151459
 30
0.0
 10
-300.5561174860441
 20
-28.14495619127544
 30
0.0
 10
-300.5262844665893
 20
-28.14016386463198
 30
0.0
 10
-300.4963871956452
 20
-28.13575756951866
 30
0.0
 10
-300.4664401379601
 20
-28.13173943531267
 30
0.0
 10
-300.4364930802952
 20
-28.12772130110939
 30
0.0
 10
-300.4064918018697
 20
-28.12409073281211
 30
0.0
 10
-300.3764508100282
 20
-28.12084948291893
 30
0.0
 10
-300.3464098182101
 20
-28.11760823302827
 30
0.0
 10
-300.3163246650877
 20
-28.11475582154471
 30
0.0
 10
-300.2862098876198
 20
-28.11229362373337
 30
0.0
 10
-300.2560951101726
 20
-28.10983142592372
 30
0.0
 10
-300.2259462496003
 20
-28.10775907711293
 30
0.0
 10
-300.1957778595772
 20
-28.10607757572456
 30
0.0
 10
-300.1633604932946
 20
-28.10427072271155
 30
0.0
 10
-300.1309152272953
 20
-28.10291487492769
 30
0.0
 10
-300.0984601236253
 20
-28.10201078766125
 30
0.0
 10
-300.0659827958582
 20
-28.1011060813081
 30
0.0
 10
-300.0334900591444
 20
-28.10065359942445
 30
0.0
 10
-300.001
 20
-28.10065359942445
 30
0.0
  0
SPLINE
  5
254
330
1F
100
AcDbEntity
  8
0
  6
Continuous
 62
     7
370
    15
100
AcDbSpline
210
0.0
220
0.0
230
1.0
 70
     8
 71
     3
 72
    10
 73
     6
 74
     0
 42
0.000000001
 43
0.00000001
 40
0.0
 40
0.0
 40
0.0
 40
0.0
 40
0.0082975416431513
 40
0.4808429445147192
 40
1.0
 40
1.0
 40
1.0
 40
1.0
 10
-301.4984707635923
 20
-30.27903807850513
 30
0.0
 10
-301.4961290883292
 20
-30.27501201535732
 30
0.0
 10
-301.3604288921711
 20
-30.04170145880311
 30
0.0
 10
-300.8351345389709
 20
-29.7231729512104
 30
0.0
 10
-300.2876228310201
 20
-29.64275333492627
 30
0.0
 10
-300.0010000000003
 20
-29.60065359942445
 30
0.0
  0
SPLINE
  5
25E
330
1F
100
AcDbEntity
  8
0
  6
Continuous
 62
     7
370
    15
100
AcDbSpline
210
0.0
220
0.0
230
1.0
 70
     8
 71
     3
 72
    16
 73
    12
 74
     0
 42
0.000000001
 43
0.00000001
 40
0.0
 40
0.0
 40
0.0
 40
0.0
 40
0.2499999999999912
 40
0.2499999999999912
 40
0.3749999999999985
 40
0.3749999999999985
 40
0.5000000000000058
 40
0.5000000000000058
 40
0.7500000000000029
 40
0.7500000000000029
 40
1.0
 40
1.0
 40
1.0
 40
1.0
 10
308.2424512927053
 20
-278.1643078416924
 30
0.0
 10
308.2437078091889
 20
-278.7251195921781
 30
0.0
 10
308.1893696294
 20
-279.2784855078048
 30
0.0
 10
308.0269932223369
 20
-280.099381601219
 30
0.0
 10
307.9593114549951
 20
-280.3714783178971
 30
0.0
 10
307.7963185125081
 20
-280.9128333697758
 30
0.0
 10
307.7009487311257
 20
-281.1817406308634
 30
0.0
 10
307.3788122948914
 20
-281.9698513148467
 30
0.0
 10
307.114902844647
 20
-282.4756124672723
 30
0.0
 10
306.490215536444
 20
-283.4505506610815
 30
0.0
 10
306.1268143772397
 20
-283.9221297952946
 30
0.0
 10
305.7207930996384
 20
-284.3656021515845
 30
0.0
  0
SPLINE
  5
260
330
1F
100
AcDbEntity
  8
0
  6
Continuous
 62
     7
370
    15
100
AcDbSpline
210
0.0
220
0.0
230
1.0
 70
     8
 71
     3
 72
    12
 73
     8
 74
     0
 42
0.000000001
 43
0.00000001
 40
0.0
 40
0.0
 40
0.0
 40
0.0
 40
0.4999999999999846
 40
0.4999999999999846
 40
0.7499999999999922
 40
0.7499999999999922
 40
1.0
 40
1.0
 40
1.0
 40
1.0
 10
302.2429660940404
 20
-278.1393376841186
 30
0.0
 10
302.2417070842369
 20
-278.7112070362442
 30
0.0
 10
302.1509983947923
 20
-279.2794962809159
 30
0.0
 10
301.8890857214574
 20
-280.098387035314
 30
0.0
 10
301.7809015986071
 20
-280.3653578232093
 30
0.0
 10
301.5284504898127
 20
-280.8786652260026
 30
0.0
 10
301.3837627669765
 20
-281.1264387158781
 30
0.0
 10
301.2207930996383
 20
-281.3656021515847
 30
0.0
  0
SPLINE
  5
261
330
1F
100
AcDbEntity
  8
0
  6
Continuous
 62
     7
370
    15
100
AcDbSpline
210
0.0
220
0.0
230
1.0
 70
     8
 71
     3
 72
    12
 73
     8
 74
     0
 42
0.000000001
 43
0.00000001
 40
0.0
 40
0.0
 40
0.0
 40
0.0
 40
0.5000000000000075
 40
0.5000000000000075
 40
0.7500000000000038
 40
0.7500000000000038
 40
1.0
 40
1.0
 40
1.0
 40
1.0
 10
-301.2207930996382
 20
-281.3656021515839
 30
0.0
 10
-301.5467324125167
 20
-280.8872753121599
 30
0.0
 10
-301.8037139481474
 20
-280.366890358814
 30
0.0
 10
-302.0649288783322
 20
-279.5477985800642
 30
0.0
 10
-302.1311243222909
 20
-279.2687305799534
 30
0.0
 10
-302.2195806668282
 20
-278.7081752160944
 30
0.0
 10
-302.2423365890962
 20
-278.4252723793032
 30
0.0
 10
-302.2429660940401
 20
-278.1393376841181
 30
0.0
  0
SPLINE
  5
263
330
1F
100
AcDbEntity
  8
0
  6
Continuous
 62
     7
370
    15
100
AcDbSpline
210
0.0
220
0.0
230
1.0
 70
     8
 71
     3
 72
    16
 73
    12
 74
     0
 42
0.000000001
 43
0.00000001
 40
0.0
 40
0.0
 40
0.0
 40
0.0
 40
0.2500000000000208
 40
0.2500000000000208
 40
0.3750000000000169
 40
0.3750000000000169
 40
0.5000000000000131
 40
0.5000000000000131
 40
0.7500000000000064
 40
0.7500000000000064
 40
1.0
 40
1.0
 40
1.0
 40
1.0
 10
-305.7207930996382
 20
-284.3656021515838
 30
0.0
 10
-306.1268143813539
 20
-283.9221297907999
 30
0.0
 10
-306.4859181044842
 20
-283.4565688157224
 30
0.0
 10
-306.9557963036619
 20
-282.7242659939733
 30
0.0
 10
-307.1008933620709
 20
-282.4744731275115
 30
0.0
 10
-307.3674980682276
 20
-281.9629693004445
 30
0.0
 10
-307.4887033230581
 20
-281.701505407742
 30
0.0
 10
-307.8102809878997
 20
-280.9132337380764
 30
0.0
 10
-307.9715014514842
 20
-280.3778872189133
 30
0.0
 10
-308.1883881902093
 20
-279.2854590215878
 30
0.0
 10
-308.243707809176
 20
-278.7251195864948
 30
0.0
 10
-308.2424512927051
 20
-278.1643078416922
 30
0.0
  0
SPLINE
  5
26A
330
1F
100
AcDbEntity
  8
0
  6
Continuous
 62
     7
370
    15
100
AcDbSpline
210
0.0
220
0.0
230
1.0
 70
     8
 71
     3
 72
    16
 73
    12
 74
     0
 42
0.000000001
 43
0.00000001
 40
0.0
 40
0.0
 40
0.0
 40
0.0
 40
0.2499999999999939
 40
0.2499999999999939
 40
0.3749999999999949
 40
0.3749999999999949
 40
0.4999999999999959
 40
0.4999999999999959
 40
0.7499999999999979
 40
0.7499999999999979
 40
1.0
 40
1.0
 40
1.0
 40
1.0
 10
300.5249168931047
 20
-282.2006535994248
 30
0.0
 10
300.1945404535062
 20
-282.5056164667466
 30
0.0
 10
299.8346474171641
 20
-282.7826523192098
 30
0.0
 10
299.2527122667394
 20
-283.1510511689326
 30
0.0
 10
299.0516869969742
 20
-283.2659556562137
 30
0.0
 10
298.6355604272776
 20
-283.4786933141371
 30
0.0
 10
298.4192860726272
 20
-283.5769572842773
 30
0.0
 10
297.7593909939175
 20
-283.8398694614158
 30
0.0
 10
297.3052458911386
 20
-283.9732214452362
 30
0.0
 10
296.3729041620642
 20
-284.1536929562916
 30
0.0
 10
295.8916750131011
 20
-284.2006535994249
 30
0.0
 10
295.4088176348315
 20
-284.2006535994249
 30
0.0
  0
SPLINE
  5
26C
330
1F
100
AcDbEntity
  8
0
  6
Continuous
 62
     7
370
    15
100
AcDbSpline
210
0.0
220
0.0
230
1.0
 70
     8
 71
     3
 72
    18
 73
    14
 74
     0
 42
0.000000001
 43
0.00000001
 40
0.0
 40
0.0
 40
0.0
 40
0.0
 40
0.2500000000000193
 40
0.2500000000000193
 40
0.3750000000000184
 40
0.3750000000000184
 40
0.5000000000000177
 40
0.5000000000000177
 40
0.6250000000000169
 40
0.6250000000000169
 40
0.750000000000016
 40
0.750000000000016
 40
1.0
 40
1.0
 40
1.0
 40
1.0
 10
305.0249168931047
 20
-285.2006535994248
 30
0.0
 10
304.4657633237446
 20
-285.9631357394613
 30
0.0
 10
303.8320811671119
 20
-286.6526083762078
 30
0.0
 10
302.7692676549675
 20
-287.5761645500356
 30
0.0
 10
302.3936682549664
 20
-287.866979200633
 30
0.0
 10
301.6141089839232
 20
-288.4007662269526
 30
0.0
 10
301.2125629870186
 20
-288.6425459174672
 30
0.0
 10
300.3861275460029
 20
-289.0767993582488
 30
0.0
 10
299.9612262529076
 20
-289.2692594087001
 30
0.0
 10
299.0872668570179
 20
-289.6036926041132
 30
0.0
 10
298.6354342668863
 20
-289.7461520987719
 30
0.0
 10
297.2727144663204
 20
-290.0860021436059
 30
0.0
 10
296.3492123419179
 20
-290.2006535994249
 30
0.0
 10
295.4088176348315
 20
-290.2006535994249
 30
0.0
  0
SPLINE
  5
26D
330
1F
100
AcDbEntity
  8
0
  6
Continuous
 62
     7
370
    15
100
AcDbSpline
210
0.0
220
0.0
230
1.0
 70
     8
 71
     3
 72
    16
 73
    12
 74
     0
 42
0.000000001
 43
0.00000001
 40
0.0
 40
0.0
 40
0.0
 40
0.0
 40
0.2500000000000248
 40
0.2500000000000248
 40
0.3750000000000239
 40
0.3750000000000239
 40
0.500000000000023
 40
0.500000000000023
 40
0.7500000000000114
 40
0.7500000000000114
 40
1.0
 40
1.0
 40
1.0
 40
1.0
 10
260.7678014834532
 20
-284.2006535994249
 30
0.0
 10
261.2506593567129
 20
-284.2006535994249
 30
0.0
 10
261.7259590692828
 20
-284.1544310994185
 30
0.0
 10
262.4247654640645
 20
-284.0197747384099
 30
0.0
 10
262.6553327363964
 20
-283.9639542562625
 30
0.0
 10
263.1111395185469
 20
-283.8305770232469
 30
0.0
 10
263.3375217262319
 20
-283.7525287591757
 30
0.0
 10
263.9974533499756
 20
-283.489689672105
 30
0.0
 10
264.4119563478821
 20
-283.2770534785397
 30
0.0
 10
265.1890140767977
 20
-282.7860139671665
 30
0.0
 10
265.5535246408053
 20
-282.5056161541215
 30
0.0
 10
265.8839007417266
 20
-282.200653599425
 30
0.0
  0
SPLINE
  5
26F
330
1F
100
AcDbEntity
  8
0
  6
Continuous
 62
     7
370
    15
100
AcDbSpline
210
0.0
220
0.0
230
1.0
 70
     8
 71
     3
 72
    16
 73
    12
 74
     0
 42
0.000000001
 43
0.00000001
 40
0.0
 40
0.0
 40
0.0
 40
0.0
 40
0.2500000000000087
 40
0.2500000000000087
 40
0.3750000000000105
 40
0.3750000000000105
 40
0.5000000000000123
 40
0.5000000000000123
 40
0.7500000000000061
 40
0.7500000000000061
 40
1.0
 40
1.0
 40
1.0
 40
1.0
 10
-295.4088176348306
 20
-284.2006535994249
 30
0.0
 10
-295.8916755080903
 20
-284.200653599425
 30
0.0
 10
-296.3669752206604
 20
-284.1544310994184
 30
0.0
 10
-297.0657816154421
 20
-284.0197747384099
 30
0.0
 10
-297.2963488877742
 20
-283.9639542562627
 30
0.0
 10
-297.7521556699247
 20
-283.8305770232469
 30
0.0
 10
-297.9785378776097
 20
-283.7525287591757
 30
0.0
 10
-298.6384695013533
 20
-283.489689672105
 30
0.0
 10
-299.0529724992598
 20
-283.2770534785396
 30
0.0
 10
-299.8300302281754
 20
-282.7860139671665
 30
0.0
 10
-300.1945407921827
 20
-282.5056161541214
 30
0.0
 10
-300.5249168931041
 20
-282.2006535994249
 30
0.0
  0
SPLINE
  5
271
330
1F
100
AcDbEntity
  8
0
  6
Continuous
 62
     7
370
    15
100
AcDbSpline
210
0.0
220
0.0
230
1.0
 70
     8
 71
     3
 72
    16
 73
    12
 74
     0
 42
0.000000001
 43
0.00000001
 40
0.0
 40
0.0
 40
0.0
 40
0.0
 40
0.2499999999999835
 40
0.2499999999999835
 40
0.3749999999999862
 40
0.3749999999999862
 40
0.499999999999989
 40
0.499999999999989
 40
0.7499999999999944
 40
0.7499999999999944
 40
1.0
 40
1.0
 40
1.0
 40
1.0
 10
-265.8839007417263
 20
-282.2006535994249
 30
0.0
 10
-265.5535243021277
 20
-282.5056164667466
 30
0.0
 10
-265.1936312657859
 20
-282.7826523192099
 30
0.0
 10
-264.6116961153612
 20
-283.1510511689326
 30
0.0
 10
-264.4106708455964
 20
-283.2659556562137
 30
0.0
 10
-263.9945442758996
 20
-283.4786933141371
 30
0.0
 10
-263.7782699212492
 20
-283.5769572842773
 30
0.0
 10
-263.1183748425396
 20
-283.8398694614159
 30
0.0
 10
-262.6642297397605
 20
-283.9732214452359
 30
0.0
 10
-261.7318880106859
 20
-284.1536929562913
 30
0.0
 10
-261.2506588617227
 20
-284.2006535994249
 30
0.0
 10
-260.7678014834532
 20
-284.2006535994249
 30
0.0
  0
SPLINE
  5
274
330
1F
100
AcDbEntity
  8
0
  6
Continuous
 62
     7
370
    15
100
AcDbSpline
210
0.0
220
0.0
230
1.0
 70
     8
 71
     3
 72
    18
 73
    14
 74
     0
 42
0.000000001
 43
0.00000001
 40
0.0
 40
0.0
 40
0.0
 40
0.0
 40
0.2499999999999868
 40
0.2499999999999868
 40
0.374999999999989
 40
0.374999999999989
 40
0.4999999999999912
 40
0.4999999999999912
 40
0.6249999999999934
 40
0.6249999999999934
 40
0.7499999999999956
 40
0.7499999999999956
 40
1.0
 40
1.0
 40
1.0
 40
1.0
 10
-295.4088176348305
 20
-290.2006535994249
 30
0.0
 10
-296.3492122742091
 20
-290.2006535994249
 30
0.0
 10
-297.2703078444855
 20
-290.0860077899654
 30
0.0
 10
-298.6262622441575
 20
-289.7487333911931
 30
0.0
 10
-299.0765975514282
 20
-289.6073905551352
 30
0.0
 10
-299.9553062561146
 20
-289.2719023961015
 30
0.0
 10
-300.3813324839028
 20
-289.0790831673539
 30
0.0
 10
-301.2079535865091
 20
-288.6452010497536
 30
0.0
 10
-301.6085576619308
 20
-288.404146563955
 30
0.0
 10
-302.3844965076295
 20
-287.8736722681596
 30
0.0
 10
-302.7618472072126
 20
-287.5822489924038
 30
0.0
 10
-303.8306521948706
 20
-286.6545693217544
 30
0.0
 10
-304.4657632834851
 20
-285.9631357943598
 30
0.0
 10
-305.024916893104
 20
-285.2006535994249
 30
0.0
  0
LINE
  5
2C0
330
1F
100
AcDbEntity
  8
0
  6
Continuous
 62
     7
370
    15
100
AcDbLine
 10
-269.0000001732
 20
-108.6006536116
 30
0.0
 11
-241.0000001732
 21
-108.6006536116
 31
0.0
  0
LINE
  5
2C1
330
1F
100
AcDbEntity
  8
0
  6
Continuous
 62
     7
370
    15
100
AcDbLine
 10
-241.0000001732
 20
-100.6006536116
 30
0.0
 11
-269.0000001732
 21
-100.6006536116
 31
0.0
  0
LINE
  5
2C2
330
1F
100
AcDbEntity
  8
0
  6
Continuous
 62
     7
370
    15
100
AcDbLine
 10
-239.0000001732
 20
-108.6006536116
 30
0.0
 11
-211.0000001732
 21
-108.6006536116
 31
0.0
  0
LINE
  5
2C3
330
1F
100
AcDbEntity
  8
0
  6
Continuous
 62
     7
370
    15
100
AcDbLine
 10
-211.0000001732
 20
-100.6006536116
 30
0.0
 11
-239.0000001732
 21
-100.6006536116
 31
0.0
  0
LINE
  5
2C4
330
1F
100
AcDbEntity
  8
0
  6
Continuous
 62
     7
370
    15
100
AcDbLine
 10
-209.0000001732
 20
-108.6006536116
 30
0.0
 11
-181.0000001732
 21
-108.6006536116
 31
0.0
  0
LINE
  5
2C5
330
1F
100
AcDbEntity
  8
0
  6
Continuous
 62
     7
370
    15
100
AcDbLine
 10
-181.0000001732
 20
-100.6006536116
 30
0.0
 11
-209.0000001732
 21
-100.6006536116
 31
0.0
  0
LINE
  5
2C6
330
1F
100
AcDbEntity
  8
0
  6
Continuous
 62
     7
370
    15
100
AcDbLine
 10
-179.0000001732
 20
-108.6006536116
 30
0.0
 11
-151.0000001732
 21
-108.6006536116
 31
0.0
  0
LINE
  5
2C7
330
1F
100
AcDbEntity
  8
0
  6
Continuous
 62
     7
370
    15
100
AcDbLine
 10
-151.0000001732
 20
-100.6006536116
 30
0.0
 11
-179.0000001732
 21
-100.6006536116
 31
0.0
  0
LINE
  5
2C8
330
1F
100
AcDbEntity
  8
0
  6
Continuous
 62
     7
370
    15
100
AcDbLine
 10
-149.0000001732
 20
-108.6006536116
 30
0.0
 11
-121.0000001732
 21
-108.6006536116
 31
0.0
  0
LINE
  5
2C9
330
1F
100
AcDbEntity
  8
0
  6
Continuous
 62
     7
370
    15
100
AcDbLine
 10
-121.0000001732
 20
-100.6006536116
 30
0.0
 11
-149.0000001732
 21
-100.6006536116
 31
0.0
  0
LINE
  5
2CA
330
1F
100
AcDbEntity
  8
0
  6
Continuous
 62
     7
370
    15
100
AcDbLine
 10
-119.0000001732
 20
-108.6006536116
 30
0.0
 11
-91.0000001732
 21
-108.6006536116
 31
0.0
  0
LINE
  5
2CB
330
1F
100
AcDbEntity
  8
0
  6
Continuous
 62
     7
370
    15
100
AcDbLine
 10
-91.0000001732
 20
-100.6006536116
 30
0.0
 11
-119.0000001732
 21
-100.6006536116
 31
0.0
  0
LINE
  5
2CC
330
1F
100
AcDbEntity
  8
0
  6
Continuous
 62
     7
370
    15
100
AcDbLine
 10
-89.0000001732
 20
-108.6006536116
 30
0.0
 11
-61.0000001732
 21
-108.6006536116
 31
0.0
  0
LINE
  5
2CD
330
1F
100
AcDbEntity
  8
0
  6
Continuous
 62
     7
370
    15
100
AcDbLine
 10
-61.0000001732
 20
-100.6006536116
 30
0.0
 11
-89.0000001732
 21
-100.6006536116
 31
0.0
  0
LINE
  5
2CE
330
1F
100
AcDbEntity
  8
0
  6
Continuous
 62
     7
370
    15
100
AcDbLine
 10
-59.0000001732
 20
-108.6006536116
 30
0.0
 11
-31.0000001732
 21
-108.6006536116
 31
0.0
  0
LINE
  5
2CF
330
1F
100
AcDbEntity
  8
0
  6
Continuous
 62
     7
370
    15
100
AcDbLine
 10
-31.0000001732
 20
-100.6006536116
 30
0.0
 11
-59.0000001732
 21
-100.6006536116
 31
0.0
  0
LINE
  5
2D0
330
1F
100
AcDbEntity
  8
0
  6
Continuous
 62
     7
370
    15
100
AcDbLine
 10
-29.0000001732
 20
-108.6006536116
 30
0.0
 11
-1.0000001732
 21
-108.6006536116
 31
0.0
  0
LINE
  5
2D1
330
1F
100
AcDbEntity
  8
0
  6
Continuous
 62
     7
370
    15
100
AcDbLine
 10
-1.0000001732
 20
-100.6006536116
 30
0.0
 11
-29.0000001732
 21
-100.6006536116
 31
0.0
  0
LINE
  5
2D2
330
1F
100
AcDbEntity
  8
0
  6
Continuous
 62
     7
370
    15
100
AcDbLine
 10
0.9999998268
 20
-108.6006536116
 30
0.0
 11
28.9999998268
 21
-108.6006536116
 31
0.0
  0
LINE
  5
2D3
330
1F
100
AcDbEntity
  8
0
  6
Continuous
 62
     7
370
    15
100
AcDbLine
 10
28.9999998268
 20
-100.6006536116
 30
0.0
 11
0.9999998268
 21
-100.6006536116
 31
0.0
  0
LINE
  5
2D4
330
1F
100
AcDbEntity
  8
0
  6
Continuous
 62
     7
370
    15
100
AcDbLine
 10
30.9999998268
 20
-108.6006536116
 30
0.0
 11
58.9999998268
 21
-108.6006536116
 31
0.0
  0
LINE
  5
2D5
330
1F
100
AcDbEntity
  8
0
  6
Continuous
 62
     7
370
    15
100
AcDbLine
 10
58.9999998268
 20
-100.6006536116
 30
0.0
 11
30.9999998268
 21
-100.6006536116
 31
0.0
  0
LINE
  5
2D6
330
1F
100
AcDbEntity
  8
0
  6
Continuous
 62
     7
370
    15
100
AcDbLine
 10
60.9999998268
 20
-108.6006536116
 30
0.0
 11
88.9999998268
 21
-108.6006536116
 31
0.0
  0
LINE
  5
2D7
330
1F
100
AcDbEntity
  8
0
  6
Continuous
 62
     7
370
    15
100
AcDbLine
 10
88.9999998268
 20
-100.6006536116
 30
0.0
 11
60.9999998268
 21
-100.6006536116
 31
0.0
  0
LINE
  5
2D8
330
1F
100
AcDbEntity
  8
0
  6
Continuous
 62
     7
370
    15
100
AcDbLine
 10
90.9999998268
 20
-108.6006536116
 30
0.0
 11
118.9999998268
 21
-108.6006536116
 31
0.0
  0
LINE
  5
2D9
330
1F
100
AcDbEntity
  8
0
  6
Continuous
 62
     7
370
    15
100
AcDbLine
 10
118.9999998268
 20
-100.6006536116
 30
0.0
 11
90.9999998268
 21
-100.6006536116
 31
0.0
  0
LINE
  5
2DA
330
1F
100
AcDbEntity
  8
0
  6
Continuous
 62
     7
370
    15
100
AcDbLine
 10
120.9999998268
 20
-108.6006536116
 30
0.0
 11
148.9999998268
 21
-108.6006536116
 31
0.0
  0
LINE
  5
2DB
330
1F
100
AcDbEntity
  8
0
  6
Continuous
 62
     7
370
    15
100
AcDbLine
 10
148.9999998268
 20
-100.6006536116
 30
0.0
 11
120.9999998268
 21
-100.6006536116
 31
0.0
  0
LINE
  5
2DC
330
1F
100
AcDbEntity
  8
0
  6
Continuous
 62
     7
370
    15
100
AcDbLine
 10
150.9999998268
 20
-108.6006536116
 30
0.0
 11
178.9999998268
 21
-108.6006536116
 31
0.0
  0
LINE
  5
2DD
330
1F
100
AcDbEntity
  8
0
  6
Continuous
 62
     7
370
    15
100
AcDbLine
 10
178.9999998268
 20
-100.6006536116
 30
0.0
 11
150.9999998268
 21
-100.6006536116
 31
0.0
  0
LINE
  5
2DE
330
1F
100
AcDbEntity
  8
0
  6
Continuous
 62
     7
370
    15
100
AcDbLine
 10
180.9999998268
 20
-108.6006536116
 30
0.0
 11
208.9999998268
 21
-108.6006536116
 31
0.0
  0
LINE
  5
2DF
330
1F
100
AcDbEntity
  8
0
  6
Continuous
 62
     7
370
    15
100
AcDbLine
 10
208.9999998268
 20
-100.6006536116
 30
0.0
 11
180.9999998268
 21
-100.6006536116
 31
0.0
  0
LINE
  5
2E0
330
1F
100
AcDbEntity
  8
0
  6
Continuous
 62
     7
370
    15
100
AcDbLine
 10
-269.0000001732
 20
300.3993463884
 30
0.0
 11
-241.0000001732
 21
300.3993463884
 31
0.0
  0
LINE
  5
2E1
330
1F
100
AcDbEntity
  8
0
  6
Continuous
 62
     7
370
    15
100
AcDbLine
 10
-241.0000001732
 20
308.3993463884
 30
0.0
 11
-269.0000001732
 21
308.3993463884
 31
0.0
  0
LINE
  5
2E2
330
1F
100
AcDbEntity
  8
0
  6
Continuous
 62
     7
370
    15
100
AcDbLine
 10
210.9999998268
 20
-108.6006536116
 30
0.0
 11
238.9999998268
 21
-108.6006536116
 31
0.0
  0
LINE
  5
2E3
330
1F
100
AcDbEntity
  8
0
  6
Continuous
 62
     7
370
    15
100
AcDbLine
 10
238.9999998268
 20
-100.6006536116
 30
0.0
 11
210.9999998268
 21
-100.6006536116
 31
0.0
  0
LINE
  5
2E4
330
1F
100
AcDbEntity
  8
0
  6
Continuous
 62
     7
370
    15
100
AcDbLine
 10
-239.0000001732
 20
300.3993463884
 30
0.0
 11
-211.0000001732
 21
300.3993463884
 31
0.0
  0
LINE
  5
2E5
330
1F
100
AcDbEntity
  8
0
  6
Continuous
 62
     7
370
    15
100
AcDbLine
 10
-211.0000001732
 20
308.3993463884
 30
0.0
 11
-239.0000001732
 21
308.3993463884
 31
0.0
  0
LINE
  5
2E6
330
1F
100
AcDbEntity
  8
0
  6
Continuous
 62
     7
370
    15
100
AcDbLine
 10
240.9999998268
 20
-108.6006536116
 30
0.0
 11
268.9999998268
 21
-108.6006536116
 31
0.0
  0
LINE
  5
2E7
330
1F
100
AcDbEntity
  8
0
  6
Continuous
 62
     7
370
    15
100
AcDbLine
 10
268.9999998268
 20
-100.6006536116
 30
0.0
 11
240.9999998268
 21
-100.6006536116
 31
0.0
  0
LINE
  5
2E8
330
1F
100
AcDbEntity
  8
0
  6
Continuous
 62
     7
370
    15
100
AcDbLine
 10
-209.0000001732
 20
300.3993463884
 30
0.0
 11
-181.0000001732
 21
300.3993463884
 31
0.0
  0
LINE
  5
2E9
330
1F
100
AcDbEntity
  8
0
  6
Continuous
 62
     7
370
    15
100
AcDbLine
 10
-181.0000001732
 20
308.3993463884
 30
0.0
 11
-209.0000001732
 21
308.3993463884
 31
0.0
  0
LINE
  5
2EA
330
1F
100
AcDbEntity
  8
0
  6
Continuous
 62
     7
370
    15
100
AcDbLine
 10
-179.0000001732
 20
300.3993463884
 30
0.0
 11
-151.0000001732
 21
300.3993463884
 31
0.0
  0
LINE
  5
2EB
330
1F
100
AcDbEntity
  8
0
  6
Continuous
 62
     7
370
    15
100
AcDbLine
 10
-151.0000001732
 20
308.3993463884
 30
0.0
 11
-179.0000001732
 21
308.3993463884
 31
0.0
  0
LINE
  5
2EC
330
1F
100
AcDbEntity
  8
0
  6
Continuous
 62
     7
370
    15
100
AcDbLine
 10
-149.0000001732
 20
300.3993463884
 30
0.0
 11
-121.0000001732
 21
300.3993463884
 31
0.0
  0
LINE
  5
2ED
330
1F
100
AcDbEntity
  8
0
  6
Continuous
 62
     7
370
    15
100
AcDbLine
 10
-121.0000001732
 20
308.3993463884
 30
0.0
 11
-149.0000001732
 21
308.3993463884
 31
0.0
  0
LINE
  5
2EE
330
1F
100
AcDbEntity
  8
0
  6
Continuous
 62
     7
370
    15
100
AcDbLine
 10
-119.0000001732
 20
300.3993463884
 30
0.0
 11
-91.0000001732
 21
300.3993463884
 31
0.0
  0
LINE
  5
2EF
330
1F
100
AcDbEntity
  8
0
  6
Continuous
 62
     7
370
    15
100
AcDbLine
 10
-91.0000001732
 20
308.3993463884
 30
0.0
 11
-119.0000001732
 21
308.3993463884
 31
0.0
  0
LINE
  5
2F0
330
1F
100
AcDbEntity
  8
0
  6
Continuous
 62
     7
370
    15
100
AcDbLine
 10
-89.0000001732
 20
300.3993463884
 30
0.0
 11
-61.0000001732
 21
300.3993463884
 31
0.0
  0
LINE
  5
2F1
330
1F
100
AcDbEntity
  8
0
  6
Continuous
 62
     7
370
    15
100
AcDbLine
 10
-61.0000001732
 20
308.3993463884
 30
0.0
 11
-89.0000001732
 21
308.3993463884
 31
0.0
  0
LINE
  5
2F2
330
1F
100
AcDbEntity
  8
0
  6
Continuous
 62
     7
370
    15
100
AcDbLine
 10
-59.0000001732
 20
300.3993463884
 30
0.0
 11
-31.0000001732
 21
300.3993463884
 31
0.0
  0
LINE
  5
2F3
330
1F
100
AcDbEntity
  8
0
  6
Continuous
 62
     7
370
    15
100
AcDbLine
 10
-31.0000001732
 20
308.3993463884
 30
0.0
 11
-59.0000001732
 21
308.3993463884
 31
0.0
  0
LINE
  5
2F4
330
1F
100
AcDbEntity
  8
0
  6
Continuous
 62
     7
370
    15
100
AcDbLine
 10
-29.0000001732
 20
300.3993463884
 30
0.0
 11
-1.0000001732
 21
300.3993463884
 31
0.0
  0
LINE
  5
2F5
330
1F
100
AcDbEntity
  8
0
  6
Continuous
 62
     7
370
    15
100
AcDbLine
 10
-1.0000001732
 20
308.3993463884
 30
0.0
 11
-29.0000001732
 21
308.3993463884
 31
0.0
  0
LINE
  5
2F6
330
1F
100
AcDbEntity
  8
0
  6
Continuous
 62
     7
370
    15
100
AcDbLine
 10
0.9999998268
 20
300.3993463884
 30
0.0
 11
28.9999998268
 21
300.3993463884
 31
0.0
  0
LINE
  5
2F7
330
1F
100
AcDbEntity
  8
0
  6
Continuous
 62
     7
370
    15
100
AcDbLine
 10
28.9999998268
 20
308.3993463884
 30
0.0
 11
0.9999998268
 21
308.3993463884
 31
0.0
  0
LINE
  5
2F8
330
1F
100
AcDbEntity
  8
0
  6
Continuous
 62
     7
370
    15
100
AcDbLine
 10
30.9999998268
 20
300.3993463884
 30
0.0
 11
58.9999998268
 21
300.3993463884
 31
0.0
  0
LINE
  5
2F9
330
1F
100
AcDbEntity
  8
0
  6
Continuous
 62
     7
370
    15
100
AcDbLine
 10
58.9999998268
 20
308.3993463884
 30
0.0
 11
30.9999998268
 21
308.3993463884
 31
0.0
  0
LINE
  5
2FA
330
1F
100
AcDbEntity
  8
0
  6
Continuous
 62
     7
370
    15
100
AcDbLine
 10
60.9999998268
 20
300.3993463884
 30
0.0
 11
88.9999998268
 21
300.3993463884
 31
0.0
  0
LINE
  5
2FB
330
1F
100
AcDbEntity
  8
0
  6
Continuous
 62
     7
370
    15
100
AcDbLine
 10
88.9999998268
 20
308.3993463884
 30
0.0
 11
60.9999998268
 21
308.3993463884
 31
0.0
  0
LINE
  5
2FC
330
1F
100
AcDbEntity
  8
0
  6
Continuous
 62
     7
370
    15
100
AcDbLine
 10
90.9999998268
 20
300.3993463884
 30
0.0
 11
118.9999998268
 21
300.3993463884
 31
0.0
  0
LINE
  5
2FD
330
1F
100
AcDbEntity
  8
0
  6
Continuous
 62
     7
370
    15
100
AcDbLine
 10
118.9999998268
 20
308.3993463884
 30
0.0
 11
90.9999998268
 21
308.3993463884
 31
0.0
  0
LINE
  5
2FE
330
1F
100
AcDbEntity
  8
0
  6
Continuous
 62
     7
370
    15
100
AcDbLine
 10
120.9999998268
 20
300.3993463884
 30
0.0
 11
148.9999998268
 21
300.3993463884
 31
0.0
  0
LINE
  5
2FF
330
1F
100
AcDbEntity
  8
0
  6
Continuous
 62
     7
370
    15
100
AcDbLine
 10
148.9999998268
 20
308.3993463884
 30
0.0
 11
120.9999998268
 21
308.3993463884
 31
0.0
  0
LINE
  5
300
330
1F
100
AcDbEntity
  8
0
  6
Continuous
 62
     7
370
    15
100
AcDbLine
 10
150.9999998268
 20
300.3993463884
 30
0.0
 11
178.9999998268
 21
300.3993463884
 31
0.0
  0
LINE
  5
301
330
1F
100
AcDbEntity
  8
0
  6
Continuous
 62
     7
370
    15
100
AcDbLine
 10
178.9999998268
 20
308.3993463884
 30
0.0
 11
150.9999998268
 21
308.3993463884
 31
0.0
  0
LINE
  5
302
330
1F
100
AcDbEntity
  8
0
  6
Continuous
 62
     7
370
    15
100
AcDbLine
 10
180.9999998268
 20
300.3993463884
 30
0.0
 11
208.9999998268
 21
300.3993463884
 31
0.0
  0
LINE
  5
303
330
1F
100
AcDbEntity
  8
0
  6
Continuous
 62
     7
370
    15
100
AcDbLine
 10
208.9999998268
 20
308.3993463884
 30
0.0
 11
180.9999998268
 21
308.3993463884
 31
0.0
  0
LINE
  5
304
330
1F
100
AcDbEntity
  8
0
  6
Continuous
 62
     7
370
    15
100
AcDbLine
 10
210.9999998268
 20
300.3993463884
 30
0.0
 11
238.9999998268
 21
300.3993463884
 31
0.0
  0
LINE
  5
305
330
1F
100
AcDbEntity
  8
0
  6
Continuous
 62
     7
370
    15
100
AcDbLine
 10
238.9999998268
 20
308.3993463884
 30
0.0
 11
210.9999998268
 21
308.3993463884
 31
0.0
  0
LINE
  5
306
330
1F
100
AcDbEntity
  8
0
  6
Continuous
 62
     7
370
    15
100
AcDbLine
 10
240.9999998268
 20
300.3993463884
 30
0.0
 11
268.9999998268
 21
300.3993463884
 31
0.0
  0
LINE
  5
307
330
1F
100
AcDbEntity
  8
0
  6
Continuous
 62
     7
370
    15
100
AcDbLine
 10
268.9999998268
 20
308.3993463884
 30
0.0
 11
240.9999998268
 21
308.3993463884
 31
0.0
  0
LINE
  5
308
330
1F
100
AcDbEntity
  8
0
  6
Continuous
 62
     7
370
    15
100
AcDbLine
 10
-281.1000001732
 20
-107.1006536116
 30
0.0
 11
-271.6000001732
 21
-107.1006536116
 31
0.0
  0
LINE
  5
309
330
1F
100
AcDbEntity
  8
0
  6
Continuous
 62
     7
370
    15
100
AcDbLine
 10
-271.6000001732
 20
-102.1006536116
 30
0.0
 11
-281.1000001732
 21
-102.1006536116
 31
0.0
  0
LINE
  5
30A
330
1F
100
AcDbEntity
  8
0
  6
Continuous
 62
     7
370
    15
100
AcDbLine
 10
-281.1000001732
 20
-102.1006536117
 30
0.0
 11
-281.6000001732
 21
-102.6006536116
 31
0.0
  0
LINE
  5
30B
330
1F
100
AcDbEntity
  8
0
  6
Continuous
 62
     7
370
    15
100
AcDbLine
 10
-281.6000001732
 20
-106.6006536117
 30
0.0
 11
-281.1000001732
 21
-107.1006536116
 31
0.0
  0
LINE
  5
30C
330
1F
100
AcDbEntity
  8
0
  6
Continuous
 62
     7
370
    15
100
AcDbLine
 10
-281.1000001732
 20
301.8993463884
 30
0.0
 11
-271.6000001732
 21
301.8993463884
 31
0.0
  0
LINE
  5
30D
330
1F
100
AcDbEntity
  8
0
  6
Continuous
 62
     7
370
    15
100
AcDbLine
 10
-271.6000001732
 20
306.8993463884
 30
0.0
 11
-281.1000001732
 21
306.8993463884
 31
0.0
  0
LINE
  5
30E
330
1F
100
AcDbEntity
  8
0
  6
Continuous
 62
     7
370
    15
100
AcDbLine
 10
-281.1000001732
 20
306.8993463883
 30
0.0
 11
-281.6000001732
 21
306.3993463884
 31
0.0
  0
LINE
  5
30F
330
1F
100
AcDbEntity
  8
0
  6
Continuous
 62
     7
370
    15
100
AcDbLine
 10
-281.6000001732
 20
302.3993463883
 30
0.0
 11
-281.1000001732
 21
301.8993463884
 31
0.0
  0
LINE
  5
310
330
1F
100
AcDbEntity
  8
0
  6
Continuous
 62
     7
370
    15
100
AcDbLine
 10
271.5999998268
 20
-107.1006536116
 30
0.0
 11
277.8999998268
 21
-107.1006536116
 31
0.0
  0
LINE
  5
311
330
1F
100
AcDbEntity
  8
0
  6
Continuous
 62
     7
370
    15
100
AcDbLine
 10
277.8999998268
 20
-102.1006536116
 30
0.0
 11
271.5999998268
 21
-102.1006536116
 31
0.0
  0
LINE
  5
312
330
1F
100
AcDbEntity
  8
0
  6
Continuous
 62
     7
370
    15
100
AcDbLine
 10
277.8999998268
 20
-107.1006536117
 30
0.0
 11
278.3999998267
 21
-106.6006536117
 31
0.0
  0
LINE
  5
313
330
1F
100
AcDbEntity
  8
0
  6
Continuous
 62
     7
370
    15
100
AcDbLine
 10
278.3999998267
 20
-102.6006536116
 30
0.0
 11
277.8999998268
 21
-102.1006536116
 31
0.0
  0
LINE
  5
314
330
1F
100
AcDbEntity
  8
0
  6
Continuous
 62
     7
370
    15
100
AcDbLine
 10
271.5999998268
 20
301.8993463884
 30
0.0
 11
277.8999998268
 21
301.8993463884
 31
0.0
  0
LINE
  5
315
330
1F
100
AcDbEntity
  8
0
  6
Continuous
 62
     7
370
    15
100
AcDbLine
 10
277.8999998268
 20
306.8993463884
 30
0.0
 11
271.5999998268
 21
306.8993463884
 31
0.0
  0
LINE
  5
316
330
1F
100
AcDbEntity
  8
0
  6
Continuous
 62
     7
370
    15
100
AcDbLine
 10
277.8999998268
 20
301.8993463884
 30
0.0
 11
278.3999998268
 21
302.3993463884
 31
0.0
  0
LINE
  5
317
330
1F
100
AcDbEntity
  8
0
  6
Continuous
 62
     7
370
    15
100
AcDbLine
 10
278.3999998268
 20
306.3993463883
 30
0.0
 11
277.8999998268
 21
306.8993463883
 31
0.0
  0
LINE
  5
318
330
1F
100
AcDbEntity
  8
0
  6
Continuous
 62
     7
370
    15
100
AcDbLine
 10
308.6174303912
 20
-44.04818049
 30
0.0
 11
303.501
 21
-44.0268856507
 31
0.0
  0
LINE
  5
319
330
1F
100
AcDbEntity
  8
0
  6
Continuous
 62
     7
370
    15
100
AcDbLine
 10
-303.501
 20
-44.0268856507
 30
0.0
 11
-308.6174303912
 21
-44.04818049
 31
0.0
  0
LINE
  5
31A
330
1F
100
AcDbEntity
  8
0
  6
Continuous
 62
     7
370
    15
100
AcDbLine
 10
308.5578793125
 20
-59.6309839549
 30
0.0
 11
308.3222154412
 21
-59.6300031101
 31
0.0
  0
LINE
  5
31B
330
1F
100
AcDbEntity
  8
0
  6
Continuous
 62
     7
370
    15
100
AcDbLine
 10
-308.3222154412
 20
-59.6300031101
 30
0.0
 11
-308.5578793125
 21
-59.6309839549
 31
0.0
  0
LINE
  5
31C
330
1F
100
AcDbEntity
  8
0
  6
Continuous
 62
     7
370
    15
100
AcDbLine
 10
308.2410944801
 20
-278.3355214082
 30
0.0
 11
309.0108804609
 21
-235.8427452176
 31
0.0
  0
LINE
  5
31D
330
1F
100
AcDbEntity
  8
0
  6
Continuous
 62
     7
370
    15
100
AcDbLine
 10
-309.0108839121
 20
-235.8425547083
 30
0.0
 11
-308.2410910289
 21
-278.3357119175
 31
0.0
  0
LINE
  5
31E
330
1F
100
AcDbEntity
  8
0
  6
Continuous
 62
     7
370
    15
100
AcDbLine
 10
290.4989997988
 20
317.399346921
 30
0.0
 11
290.498999797
 21
318.8993469222
 31
0.0
  0
LINE
  5
31F
330
1F
100
AcDbEntity
  8
0
  6
Continuous
 62
     7
370
    15
100
AcDbLine
 10
288.4989997964
 20
319.3993469198
 30
0.0
 11
289.9989997964
 21
319.3993469216
 31
0.0
  0
LINE
  5
320
330
1F
100
AcDbEntity
  8
0
  6
Continuous
 62
     7
370
    15
100
AcDbLine
 10
270.9989997964
 20
317.8993468987
 30
0.0
 11
288.4989997985
 21
317.8993469092
 31
0.0
  0
LINE
  5
321
330
1F
100
AcDbEntity
  8
0
  6
Continuous
 62
     7
370
    15
100
AcDbLine
 10
270.9989997964
 20
319.399346735
 30
0.0
 11
270.9989997982
 21
317.8993468987
 31
0.0
  0
LINE
  5
322
330
1F
100
AcDbEntity
  8
0
  6
Continuous
 62
     7
370
    15
100
AcDbLine
 10
-272.0010002032
 20
319.3993462438
 30
0.0
 11
270.9989997964
 21
319.3993462438
 31
0.0
  0
LINE
  5
323
330
1F
100
AcDbEntity
  8
0
  6
Continuous
 62
     7
370
    15
100
AcDbLine
 10
-272.0010002018
 20
317.8993462438
 30
0.0
 11
-272.0010002036
 21
319.3993462438
 31
0.0
  0
LINE
  5
324
330
1F
100
AcDbEntity
  8
0
  6
Continuous
 62
     7
370
    15
100
AcDbLine
 10
-289.5010002015
 20
317.8993462227
 30
0.0
 11
-272.0010002018
 21
317.8993462227
 31
0.0
  0
LINE
  5
325
330
1F
100
AcDbEntity
  8
0
  6
Continuous
 62
     7
370
    15
100
AcDbLine
 10
-290.0009997589
 20
-111.6006537776
 30
0.0
 11
-290.0010001982
 21
317.3993462224
 31
0.0
  0
LINE
  5
326
330
1F
100
AcDbEntity
  8
0
  6
Continuous
 62
     7
370
    15
100
AcDbLine
 10
-291.5010001904
 20
312.3993462203
 30
0.0
 11
-290.0010001952
 21
312.3993462205
 31
0.0
  0
LINE
  5
327
330
1F
100
AcDbEntity
  8
0
  6
Continuous
 62
     7
370
    15
100
AcDbLine
 10
-291.5009997589
 20
-111.6006537785
 30
0.0
 11
-291.5010001904
 21
312.3993462203
 31
0.0
  0
LINE
  5
328
330
1F
100
AcDbEntity
  8
0
  6
Continuous
 62
     7
370
    15
100
AcDbLine
 10
-293.0010001904
 20
308.3993462185
 30
0.0
 11
-291.5010001904
 21
308.3993462203
 31
0.0
  0
LINE
  5
329
330
1F
100
AcDbEntity
  8
0
  6
Continuous
 62
     7
370
    15
100
AcDbLine
 10
-293.001000203
 20
318.8993462197
 30
0.0
 11
-293.001000203
 21
308.3993462185
 31
0.0
  0
LINE
  5
32A
330
1F
100
AcDbEntity
  8
0
  6
Continuous
 62
     7
370
    15
100
AcDbLine
 10
-291.0010002054
 20
320.8993462209
 30
0.0
 11
289.9989997946
 21
320.8993469216
 31
0.0
  0
LINE
  5
32B
330
1F
100
AcDbEntity
  8
0
  6
Continuous
 62
     7
370
    15
100
AcDbLine
 10
291.9989998096
 20
308.3993469222
 30
0.0
 11
291.9989998033
 21
318.8993469228
 31
0.0
  0
LINE
  5
32C
330
1F
100
AcDbEntity
  8
0
  6
Continuous
 62
     7
370
    15
100
AcDbLine
 10
290.4989998096
 20
308.3993469222
 30
0.0
 11
291.9989998096
 21
308.399346924
 31
0.0
  0
LINE
  5
32D
330
1F
100
AcDbEntity
  8
0
  6
Continuous
 62
     7
370
    15
100
AcDbLine
 10
290.4990003913
 20
-111.6006530778
 30
0.0
 11
290.4989998048
 21
312.3993469213
 31
0.0
  0
LINE
  5
32E
330
1F
100
AcDbEntity
  8
0
  6
Continuous
 62
     7
370
    15
100
AcDbLine
 10
288.9990004664
 20
312.3993469204
 30
0.0
 11
290.4989998048
 21
312.3993469206
 31
0.0
  0
LINE
  5
32F
330
1F
100
AcDbEntity
  8
0
  6
Continuous
 62
     7
370
    15
100
AcDbLine
 10
288.9990003913
 20
-111.6006530788
 30
0.0
 11
288.9989997988
 21
317.3993469201
 31
0.0
  0
LINE
  5
330
330
1F
100
AcDbEntity
  8
0
  6
Continuous
 62
     7
370
    15
100
AcDbLine
 10
-291.0010002036
 20
319.3993462209
 30
0.0
 11
-289.5010002036
 21
319.3993462227
 31
0.0
  0
LINE
  5
331
330
1F
100
AcDbEntity
  8
0
  6
Continuous
 62
     7
370
    15
100
AcDbLine
 10
-291.501000203
 20
318.8993462203
 30
0.0
 11
-291.5010002012
 21
317.3993462215
 31
0.0
  0
LINE
  5
332
330
1F
100
AcDbEntity
  8
0
  6
Continuous
 62
     7
370
    15
100
AcDbLine
 10
290.4990003913
 20
-111.6006530778
 30
0.0
 11
288.9990003913
 21
-111.6006530788
 31
0.0
  0
LINE
  5
333
330
1F
100
AcDbEntity
  8
0
  6
Continuous
 62
     7
370
    15
100
AcDbLine
 10
-290.0009997589
 20
-111.6006537776
 30
0.0
 11
-291.5009997589
 21
-111.6006537785
 31
0.0
  0
LINE
  5
334
330
1F
100
AcDbEntity
  8
0
  6
Continuous
 62
     7
370
    15
100
AcDbLine
 10
-270.9000001732
 20
-109.6006536116
 30
0.0
 11
-270.9000001672
 21
-99.6006536116
 31
0.0
  0
LINE
  5
335
330
1F
100
AcDbEntity
  8
0
  6
Continuous
 62
     7
370
    15
100
AcDbLine
 10
-269.1000001732
 20
-99.6006536116
 30
0.0
 11
-282.0000001732
 21
-99.6006536116
 31
0.0
  0
LINE
  5
336
330
1F
100
AcDbEntity
  8
0
  6
Continuous
 62
     7
370
    15
100
AcDbLine
 10
-269.1000001732
 20
-99.6006536138
 30
0.0
 11
-269.1000001853
 21
-109.6006536116
 31
0.0
  0
LINE
  5
337
330
1F
100
AcDbEntity
  8
0
  6
Continuous
 62
     7
370
    15
100
AcDbLine
 10
-282.0000001732
 20
-109.6006536116
 30
0.0
 11
-269.1000001732
 21
-109.6006536116
 31
0.0
  0
LINE
  5
338
330
1F
100
AcDbEntity
  8
0
  6
Continuous
 62
     7
370
    15
100
AcDbLine
 10
-270.9000001732
 20
299.3993463884
 30
0.0
 11
-270.9000001672
 21
309.3993463884
 31
0.0
  0
LINE
  5
339
330
1F
100
AcDbEntity
  8
0
  6
Continuous
 62
     7
370
    15
100
AcDbLine
 10
-269.1000001732
 20
309.3993463884
 30
0.0
 11
-282.0000001732
 21
309.3993463884
 31
0.0
  0
LINE
  5
33A
330
1F
100
AcDbEntity
  8
0
  6
Continuous
 62
     7
370
    15
100
AcDbLine
 10
-283.6000001925
 20
299.3993463884
 30
0.0
 11
-269.1000001732
 21
299.3993463884
 31
0.0
  0
LINE
  5
33B
330
1F
100
AcDbEntity
  8
0
  6
Continuous
 62
     7
370
    15
100
AcDbLine
 10
-269.1000001732
 20
309.3993463884
 30
0.0
 11
-269.1000001853
 21
299.3993463884
 31
0.0
  0
LINE
  5
33C
330
1F
100
AcDbEntity
  8
0
  6
Continuous
 62
     7
370
    15
100
AcDbLine
 10
270.8999998268
 20
-99.6006536116
 30
0.0
 11
270.8999998207
 21
-109.6006536116
 31
0.0
  0
LINE
  5
33D
330
1F
100
AcDbEntity
  8
0
  6
Continuous
 62
     7
370
    15
100
AcDbLine
 10
269.0999998268
 20
-109.6006536116
 30
0.0
 11
281.9999998268
 21
-109.6006536116
 31
0.0
  0
LINE
  5
33E
330
1F
100
AcDbEntity
  8
0
  6
Continuous
 62
     7
370
    15
100
AcDbLine
 10
269.0999998268
 20
-109.6006536095
 30
0.0
 11
269.0999998388
 21
-99.6006536116
 31
0.0
  0
LINE
  5
33F
330
1F
100
AcDbEntity
  8
0
  6
Continuous
 62
     7
370
    15
100
AcDbLine
 10
281.9999998268
 20
-99.6006536116
 30
0.0
 11
269.0999998268
 21
-99.6006536116
 31
0.0
  0
LINE
  5
340
330
1F
100
AcDbEntity
  8
0
  6
Continuous
 62
     7
370
    15
100
AcDbLine
 10
270.8999998268
 20
309.3993463884
 30
0.0
 11
270.8999998207
 21
299.3993463884
 31
0.0
  0
LINE
  5
341
330
1F
100
AcDbEntity
  8
0
  6
Continuous
 62
     7
370
    15
100
AcDbLine
 10
269.0999998268
 20
299.3993463884
 30
0.0
 11
283.6019998268
 21
299.3993463864
 31
0.0
  0
LINE
  5
342
330
1F
100
AcDbEntity
  8
0
  6
Continuous
 62
     7
370
    15
100
AcDbLine
 10
269.0999998268
 20
299.3993463905
 30
0.0
 11
269.0999998388
 21
309.3993463884
 31
0.0
  0
LINE
  5
343
330
1F
100
AcDbEntity
  8
0
  6
Continuous
 62
     7
370
    15
100
AcDbLine
 10
281.9999998268
 20
309.3993463884
 30
0.0
 11
269.0999998268
 21
309.3993463884
 31
0.0
  0
LINE
  5
344
330
1F
100
AcDbEntity
  8
0
  6
Continuous
 62
     7
370
    15
100
AcDbLine
 10
-271.6000001732
 20
-109.6006536116
 30
0.0
 11
-271.6000001732
 21
-99.6006536116
 31
0.0
  0
LINE
  5
345
330
1F
100
AcDbEntity
  8
0
  6
Continuous
 62
     7
370
    15
100
AcDbLine
 10
-271.6000001732
 20
299.3993463884
 30
0.0
 11
-271.6000001732
 21
309.3993463884
 31
0.0
  0
LINE
  5
346
330
1F
100
AcDbEntity
  8
0
  6
Continuous
 62
     7
370
    15
100
AcDbLine
 10
271.5999998268
 20
-99.6006536116
 30
0.0
 11
271.5999998268
 21
-109.6006536116
 31
0.0
  0
LINE
  5
347
330
1F
100
AcDbEntity
  8
0
  6
Continuous
 62
     7
370
    15
100
AcDbLine
 10
271.5999998268
 20
309.3993463884
 30
0.0
 11
271.5999998268
 21
299.3993463884
 31
0.0
  0
LINE
  5
348
330
1F
100
AcDbEntity
  8
0
  6
Continuous
 62
     7
370
    15
100
AcDbLine
 10
288.4990003186
 20
-113.6006531553
 30
0.0
 11
288.4990003168
 21
-112.1006531553
 31
0.0
  0
LINE
  5
349
330
1F
100
AcDbEntity
  8
0
  6
Continuous
 62
     7
370
    15
100
AcDbLine
 10
-289.5009996814
 20
-113.6006538524
 30
0.0
 11
-289.5009996824
 21
-112.1006538524
 31
0.0
  0
LINE
  5
34A
330
1F
100
AcDbEntity
  8
0
  6
Continuous
 62
     7
370
    15
100
AcDbLine
 10
-272.0009996832
 20
-112.1006537773
 30
0.0
 11
-272.000999683
 21
-113.6006537562
 31
0.0
  0
LINE
  5
34B
330
1F
100
AcDbEntity
  8
0
  6
Continuous
 62
     7
370
    15
100
AcDbLine
 10
-272.0009996832
 20
-112.1006537562
 30
0.0
 11
-289.5009996824
 21
-112.1006538524
 31
0.0
  0
LINE
  5
34C
330
1F
100
AcDbEntity
  8
0
  6
Continuous
 62
     7
370
    15
100
AcDbLine
 10
-272.0009996814
 20
-113.6006537562
 30
0.0
 11
-289.5009996814
 21
-113.6006538524
 31
0.0
  0
LINE
  5
34D
330
1F
100
AcDbEntity
  8
0
  6
Continuous
 62
     7
370
    15
100
AcDbLine
 10
270.9999998268
 20
-112.1006531013
 30
0.0
 11
288.4990003168
 21
-112.1006531553
 31
0.0
  0
LINE
  5
34E
330
1F
100
AcDbEntity
  8
0
  6
Continuous
 62
     7
370
    15
100
AcDbLine
 10
268.9999998268
 20
-113.6006536092
 30
0.0
 11
288.4990003186
 21
-113.6006531553
 31
0.0
  0
LINE
  5
34F
330
1F
100
AcDbEntity
  8
0
  6
Continuous
 62
     7
370
    15
100
AcDbLine
 10
-269.0000001732
 20
313.3993463872
 30
0.0
 11
-269.0000006882
 21
-113.6006536116
 31
0.0
  0
LINE
  5
350
330
1F
100
AcDbEntity
  8
0
  6
Continuous
 62
     7
370
    15
100
AcDbLine
 10
-269.0000006882
 20
-113.6006536116
 30
0.0
 11
-271.0000001732
 21
-113.6006536092
 31
0.0
  0
LINE
  5
351
330
1F
100
AcDbEntity
  8
0
  6
Continuous
 62
     7
370
    15
100
AcDbLine
 10
-271.0000001732
 20
-113.6006536116
 30
0.0
 11
-271.0000001732
 21
-109.6006536116
 31
0.0
  0
LINE
  5
352
330
1F
100
AcDbEntity
  8
0
  6
Continuous
 62
     7
370
    15
100
AcDbLine
 10
-271.0000001732
 20
-99.6006536116
 30
0.0
 11
-271.0000001732
 21
299.3993463884
 31
0.0
  0
LINE
  5
353
330
1F
100
AcDbEntity
  8
0
  6
Continuous
 62
     7
370
    15
100
AcDbLine
 10
-271.0000001732
 20
309.3993463884
 30
0.0
 11
-271.0000001732
 21
313.3993463884
 31
0.0
  0
LINE
  5
354
330
1F
100
AcDbEntity
  8
0
  6
Continuous
 62
     7
370
    15
100
AcDbLine
 10
-269.0000001732
 20
313.3993463872
 30
0.0
 11
-271.0000001708
 21
313.3993463884
 31
0.0
  0
LINE
  5
355
330
1F
100
AcDbEntity
  8
0
  6
Continuous
 62
     7
370
    15
100
AcDbLine
 10
270.9999998268
 20
-113.6006536116
 30
0.0
 11
270.9999998268
 21
-109.6006536116
 31
0.0
  0
LINE
  5
356
330
1F
100
AcDbEntity
  8
0
  6
Continuous
 62
     7
370
    15
100
AcDbLine
 10
270.9999998268
 20
309.3993463884
 30
0.0
 11
270.9999998268
 21
313.3993463884
 31
0.0
  0
LINE
  5
357
330
1F
100
AcDbEntity
  8
0
  6
Continuous
 62
     7
370
    15
100
AcDbLine
 10
270.9999998268
 20
-99.6006536116
 30
0.0
 11
270.9999998268
 21
299.3993463884
 31
0.0
  0
LINE
  5
358
330
1F
100
AcDbEntity
  8
0
  6
Continuous
 62
     7
370
    15
100
AcDbLine
 10
269.0000003418
 20
313.3993463884
 30
0.0
 11
270.9999998268
 21
313.399346386
 31
0.0
  0
LINE
  5
359
330
1F
100
AcDbEntity
  8
0
  6
Continuous
 62
     7
370
    15
100
AcDbLine
 10
268.9999998268
 20
-113.6006536092
 30
0.0
 11
269.0000003418
 21
313.3993463884
 31
0.0
  0
LINE
  5
35A
330
1F
100
AcDbEntity
  8
0
  6
Continuous
 62
     7
370
    15
100
AcDbLine
 10
-239.0000001732
 20
313.3993463872
 30
0.0
 11
-239.0000004307
 21
-113.6006536116
 31
0.0
  0
LINE
  5
35B
330
1F
100
AcDbEntity
  8
0
  6
Continuous
 62
     7
370
    15
100
AcDbLine
 10
-241.0000001732
 20
-113.6006536104
 30
0.0
 11
-240.9999999157
 21
313.3993463884
 31
0.0
  0
LINE
  5
35C
330
1F
100
AcDbEntity
  8
0
  6
Continuous
 62
     7
370
    15
100
AcDbLine
 10
-239.0000001732
 20
313.3993463872
 30
0.0
 11
-240.9999999157
 21
313.3993463884
 31
0.0
  0
LINE
  5
35D
330
1F
100
AcDbEntity
  8
0
  6
Continuous
 62
     7
370
    15
100
AcDbLine
 10
-241.0000001732
 20
-113.6006536104
 30
0.0
 11
-239.0000004307
 21
-113.6006536116
 31
0.0
  0
LINE
  5
35E
330
1F
100
AcDbEntity
  8
0
  6
Continuous
 62
     7
370
    15
100
AcDbLine
 10
-209.0000001732
 20
313.3993463872
 30
0.0
 11
-209.0000004307
 21
-113.6006536116
 31
0.0
  0
LINE
  5
35F
330
1F
100
AcDbEntity
  8
0
  6
Continuous
 62
     7
370
    15
100
AcDbLine
 10
-211.0000001732
 20
-113.6006536104
 30
0.0
 11
-209.0000004307
 21
-113.6006536116
 31
0.0
  0
LINE
  5
360
330
1F
100
AcDbEntity
  8
0
  6
Continuous
 62
     7
370
    15
100
AcDbLine
 10
-211.0000001732
 20
-113.6006536104
 30
0.0
 11
-210.9999999157
 21
313.3993463884
 31
0.0
  0
LINE
  5
361
330
1F
100
AcDbEntity
  8
0
  6
Continuous
 62
     7
370
    15
100
AcDbLine
 10
-209.0000001732
 20
313.3993463872
 30
0.0
 11
-210.9999999157
 21
313.3993463884
 31
0.0
  0
LINE
  5
362
330
1F
100
AcDbEntity
  8
0
  6
Continuous
 62
     7
370
    15
100
AcDbLine
 10
-181.0000001732
 20
-113.6006536104
 30
0.0
 11
-180.9999999157
 21
313.3993463884
 31
0.0
  0
LINE
  5
363
330
1F
100
AcDbEntity
  8
0
  6
Continuous
 62
     7
370
    15
100
AcDbLine
 10
-179.0000001732
 20
313.3993463872
 30
0.0
 11
-180.9999999157
 21
313.3993463884
 31
0.0
  0
LINE
  5
364
330
1F
100
AcDbEntity
  8
0
  6
Continuous
 62
     7
370
    15
100
AcDbLine
 10
-179.0000001732
 20
313.3993463872
 30
0.0
 11
-179.0000004307
 21
-113.6006536116
 31
0.0
  0
LINE
  5
365
330
1F
100
AcDbEntity
  8
0
  6
Continuous
 62
     7
370
    15
100
AcDbLine
 10
-181.0000001732
 20
-113.6006536104
 30
0.0
 11
-179.0000004307
 21
-113.6006536116
 31
0.0
  0
LINE
  5
366
330
1F
100
AcDbEntity
  8
0
  6
Continuous
 62
     7
370
    15
100
AcDbLine
 10
-149.0000001732
 20
313.3993463872
 30
0.0
 11
-149.0000004307
 21
-113.6006536116
 31
0.0
  0
LINE
  5
367
330
1F
100
AcDbEntity
  8
0
  6
Continuous
 62
     7
370
    15
100
AcDbLine
 10
-151.0000001732
 20
-113.6006536104
 30
0.0
 11
-150.9999999157
 21
313.3993463884
 31
0.0
  0
LINE
  5
368
330
1F
100
AcDbEntity
  8
0
  6
Continuous
 62
     7
370
    15
100
AcDbLine
 10
-149.0000001732
 20
313.3993463872
 30
0.0
 11
-150.9999999157
 21
313.3993463884
 31
0.0
  0
LINE
  5
369
330
1F
100
AcDbEntity
  8
0
  6
Continuous
 62
     7
370
    15
100
AcDbLine
 10
-151.0000001732
 20
-113.6006536104
 30
0.0
 11
-149.0000004307
 21
-113.6006536116
 31
0.0
  0
LINE
  5
36A
330
1F
100
AcDbEntity
  8
0
  6
Continuous
 62
     7
370
    15
100
AcDbLine
 10
-121.0000001732
 20
-113.6006536104
 30
0.0
 11
-120.9999999157
 21
313.3993463884
 31
0.0
  0
LINE
  5
36B
330
1F
100
AcDbEntity
  8
0
  6
Continuous
 62
     7
370
    15
100
AcDbLine
 10
-119.0000001732
 20
313.3993463872
 30
0.0
 11
-120.9999999157
 21
313.3993463884
 31
0.0
  0
LINE
  5
36C
330
1F
100
AcDbEntity
  8
0
  6
Continuous
 62
     7
370
    15
100
AcDbLine
 10
-121.0000001732
 20
-113.6006536104
 30
0.0
 11
-119.0000004307
 21
-113.6006536116
 31
0.0
  0
LINE
  5
36D
330
1F
100
AcDbEntity
  8
0
  6
Continuous
 62
     7
370
    15
100
AcDbLine
 10
-119.0000001732
 20
313.3993463872
 30
0.0
 11
-119.0000004307
 21
-113.6006536116
 31
0.0
  0
LINE
  5
36E
330
1F
100
AcDbEntity
  8
0
  6
Continuous
 62
     7
370
    15
100
AcDbLine
 10
-89.0000001732
 20
313.3993463872
 30
0.0
 11
-90.9999999157
 21
313.3993463884
 31
0.0
  0
LINE
  5
36F
330
1F
100
AcDbEntity
  8
0
  6
Continuous
 62
     7
370
    15
100
AcDbLine
 10
-89.0000001732
 20
313.3993463872
 30
0.0
 11
-89.0000004307
 21
-113.6006536116
 31
0.0
  0
LINE
  5
370
330
1F
100
AcDbEntity
  8
0
  6
Continuous
 62
     7
370
    15
100
AcDbLine
 10
-91.0000001732
 20
-113.6006536104
 30
0.0
 11
-90.9999999157
 21
313.3993463884
 31
0.0
  0
LINE
  5
371
330
1F
100
AcDbEntity
  8
0
  6
Continuous
 62
     7
370
    15
100
AcDbLine
 10
-91.0000001732
 20
-113.6006536104
 30
0.0
 11
-89.0000004307
 21
-113.6006536116
 31
0.0
  0
LINE
  5
372
330
1F
100
AcDbEntity
  8
0
  6
Continuous
 62
     7
370
    15
100
AcDbLine
 10
-59.0000001732
 20
313.3993463872
 30
0.0
 11
-60.9999999157
 21
313.3993463884
 31
0.0
  0
LINE
  5
373
330
1F
100
AcDbEntity
  8
0
  6
Continuous
 62
     7
370
    15
100
AcDbLine
 10
-61.0000001732
 20
-113.6006536104
 30
0.0
 11
-59.0000004307
 21
-113.6006536116
 31
0.0
  0
LINE
  5
374
330
1F
100
AcDbEntity
  8
0
  6
Continuous
 62
     7
370
    15
100
AcDbLine
 10
-59.0000001732
 20
313.3993463872
 30
0.0
 11
-59.0000004307
 21
-113.6006536116
 31
0.0
  0
LINE
  5
375
330
1F
100
AcDbEntity
  8
0
  6
Continuous
 62
     7
370
    15
100
AcDbLine
 10
-61.0000001732
 20
-113.6006536104
 30
0.0
 11
-60.9999999157
 21
313.3993463884
 31
0.0
  0
LINE
  5
376
330
1F
100
AcDbEntity
  8
0
  6
Continuous
 62
     7
370
    15
100
AcDbLine
 10
-31.0000001732
 20
-113.6006536104
 30
0.0
 11
-29.0000004307
 21
-113.6006536116
 31
0.0
  0
LINE
  5
377
330
1F
100
AcDbEntity
  8
0
  6
Continuous
 62
     7
370
    15
100
AcDbLine
 10
-31.0000001732
 20
-113.6006536104
 30
0.0
 11
-30.9999999157
 21
313.3993463884
 31
0.0
  0
LINE
  5
378
330
1F
100
AcDbEntity
  8
0
  6
Continuous
 62
     7
370
    15
100
AcDbLine
 10
-29.0000001732
 20
313.3993463872
 30
0.0
 11
-30.9999999157
 21
313.3993463884
 31
0.0
  0
LINE
  5
379
330
1F
100
AcDbEntity
  8
0
  6
Continuous
 62
     7
370
    15
100
AcDbLine
 10
-29.0000001732
 20
313.3993463872
 30
0.0
 11
-29.0000004307
 21
-113.6006536116
 31
0.0
  0
LINE
  5
37A
330
1F
100
AcDbEntity
  8
0
  6
Continuous
 62
     7
370
    15
100
AcDbLine
 10
-1.0000001732
 20
-113.6006536104
 30
0.0
 11
0.999999698
 21
-113.6006536116
 31
0.0
  0
LINE
  5
37B
330
1F
100
AcDbEntity
  8
0
  6
Continuous
 62
     7
370
    15
100
AcDbLine
 10
0.9999998268
 20
313.3993463878
 30
0.0
 11
-0.9999999157
 21
313.3993463884
 31
0.0
  0
LINE
  5
37C
330
1F
100
AcDbEntity
  8
0
  6
Continuous
 62
     7
370
    15
100
AcDbLine
 10
-1.0000001732
 20
-113.6006536104
 30
0.0
 11
-0.9999999157
 21
313.3993463884
 31
0.0
  0
LINE
  5
37D
330
1F
100
AcDbEntity
  8
0
  6
Continuous
 62
     7
370
    15
100
AcDbLine
 10
0.999999698
 20
-113.6006536116
 30
0.0
 11
0.9999998268
 21
313.3993463878
 31
0.0
  0
LINE
  5
37E
330
1F
100
AcDbEntity
  8
0
  6
Continuous
 62
     7
370
    15
100
AcDbLine
 10
28.9999998268
 20
-113.600653611
 30
0.0
 11
28.9999999555
 21
313.3993463884
 31
0.0
  0
LINE
  5
37F
330
1F
100
AcDbEntity
  8
0
  6
Continuous
 62
     7
370
    15
100
AcDbLine
 10
28.9999999555
 20
313.3993463884
 30
0.0
 11
30.9999998268
 21
313.3993463878
 31
0.0
  0
LINE
  5
380
330
1F
100
AcDbEntity
  8
0
  6
Continuous
 62
     7
370
    15
100
AcDbLine
 10
30.999999698
 20
-113.6006536116
 30
0.0
 11
30.9999998268
 21
313.3993463878
 31
0.0
  0
LINE
  5
381
330
1F
100
AcDbEntity
  8
0
  6
Continuous
 62
     7
370
    15
100
AcDbLine
 10
30.999999698
 20
-113.6006536116
 30
0.0
 11
28.9999998268
 21
-113.600653611
 31
0.0
  0
LINE
  5
382
330
1F
100
AcDbEntity
  8
0
  6
Continuous
 62
     7
370
    15
100
AcDbLine
 10
60.999999698
 20
-113.6006536116
 30
0.0
 11
58.9999998268
 21
-113.600653611
 31
0.0
  0
LINE
  5
383
330
1F
100
AcDbEntity
  8
0
  6
Continuous
 62
     7
370
    15
100
AcDbLine
 10
58.9999998268
 20
-113.600653611
 30
0.0
 11
58.9999999555
 21
313.3993463884
 31
0.0
  0
LINE
  5
384
330
1F
100
AcDbEntity
  8
0
  6
Continuous
 62
     7
370
    15
100
AcDbLine
 10
58.9999999555
 20
313.3993463884
 30
0.0
 11
60.9999998268
 21
313.3993463878
 31
0.0
  0
LINE
  5
385
330
1F
100
AcDbEntity
  8
0
  6
Continuous
 62
     7
370
    15
100
AcDbLine
 10
60.999999698
 20
-113.6006536116
 30
0.0
 11
60.9999998268
 21
313.3993463878
 31
0.0
  0
LINE
  5
386
330
1F
100
AcDbEntity
  8
0
  6
Continuous
 62
     7
370
    15
100
AcDbLine
 10
90.999999698
 20
-113.6006536116
 30
0.0
 11
90.9999998268
 21
313.3993463878
 31
0.0
  0
LINE
  5
387
330
1F
100
AcDbEntity
  8
0
  6
Continuous
 62
     7
370
    15
100
AcDbLine
 10
90.999999698
 20
-113.6006536116
 30
0.0
 11
88.9999998268
 21
-113.600653611
 31
0.0
  0
LINE
  5
388
330
1F
100
AcDbEntity
  8
0
  6
Continuous
 62
     7
370
    15
100
AcDbLine
 10
88.9999998268
 20
-113.600653611
 30
0.0
 11
88.9999999555
 21
313.3993463884
 31
0.0
  0
LINE
  5
389
330
1F
100
AcDbEntity
  8
0
  6
Continuous
 62
     7
370
    15
100
AcDbLine
 10
88.9999999555
 20
313.3993463884
 30
0.0
 11
90.9999998268
 21
313.3993463878
 31
0.0
  0
LINE
  5
38A
330
1F
100
AcDbEntity
  8
0
  6
Continuous
 62
     7
370
    15
100
AcDbLine
 10
120.999999698
 20
-113.6006536116
 30
0.0
 11
120.9999998268
 21
313.3993463878
 31
0.0
  0
LINE
  5
38B
330
1F
100
AcDbEntity
  8
0
  6
Continuous
 62
     7
370
    15
100
AcDbLine
 10
120.999999698
 20
-113.6006536116
 30
0.0
 11
118.9999998268
 21
-113.600653611
 31
0.0
  0
LINE
  5
38C
330
1F
100
AcDbEntity
  8
0
  6
Continuous
 62
     7
370
    15
100
AcDbLine
 10
118.9999999555
 20
313.3993463884
 30
0.0
 11
120.9999998268
 21
313.3993463878
 31
0.0
  0
LINE
  5
38D
330
1F
100
AcDbEntity
  8
0
  6
Continuous
 62
     7
370
    15
100
AcDbLine
 10
118.9999998268
 20
-113.600653611
 30
0.0
 11
118.9999999555
 21
313.3993463884
 31
0.0
  0
LINE
  5
38E
330
1F
100
AcDbEntity
  8
0
  6
Continuous
 62
     7
370
    15
100
AcDbLine
 10
150.999999698
 20
-113.6006536116
 30
0.0
 11
150.9999998268
 21
313.3993463878
 31
0.0
  0
LINE
  5
38F
330
1F
100
AcDbEntity
  8
0
  6
Continuous
 62
     7
370
    15
100
AcDbLine
 10
150.999999698
 20
-113.6006536116
 30
0.0
 11
148.9999998268
 21
-113.600653611
 31
0.0
  0
LINE
  5
390
330
1F
100
AcDbEntity
  8
0
  6
Continuous
 62
     7
370
    15
100
AcDbLine
 10
148.9999998268
 20
-113.600653611
 30
0.0
 11
148.9999999555
 21
313.3993463884
 31
0.0
  0
LINE
  5
391
330
1F
100
AcDbEntity
  8
0
  6
Continuous
 62
     7
370
    15
100
AcDbLine
 10
148.9999999555
 20
313.3993463884
 30
0.0
 11
150.9999998268
 21
313.3993463878
 31
0.0
  0
LINE
  5
392
330
1F
100
AcDbEntity
  8
0
  6
Continuous
 62
     7
370
    15
100
AcDbLine
 10
178.9999999555
 20
313.3993463884
 30
0.0
 11
180.9999998268
 21
313.3993463878
 31
0.0
  0
LINE
  5
393
330
1F
100
AcDbEntity
  8
0
  6
Continuous
 62
     7
370
    15
100
AcDbLine
 10
180.999999698
 20
-113.6006536116
 30
0.0
 11
178.9999998268
 21
-113.600653611
 31
0.0
  0
LINE
  5
394
330
1F
100
AcDbEntity
  8
0
  6
Continuous
 62
     7
370
    15
100
AcDbLine
 10
178.9999998268
 20
-113.600653611
 30
0.0
 11
178.9999999555
 21
313.3993463884
 31
0.0
  0
LINE
  5
395
330
1F
100
AcDbEntity
  8
0
  6
Continuous
 62
     7
370
    15
100
AcDbLine
 10
180.999999698
 20
-113.6006536116
 30
0.0
 11
180.9999998268
 21
313.3993463878
 31
0.0
  0
LINE
  5
396
330
1F
100
AcDbEntity
  8
0
  6
Continuous
 62
     7
370
    15
100
AcDbLine
 10
210.999999698
 20
-113.6006536116
 30
0.0
 11
210.9999998268
 21
313.3993463878
 31
0.0
  0
LINE
  5
397
330
1F
100
AcDbEntity
  8
0
  6
Continuous
 62
     7
370
    15
100
AcDbLine
 10
210.999999698
 20
-113.6006536116
 30
0.0
 11
208.9999998268
 21
-113.600653611
 31
0.0
  0
LINE
  5
398
330
1F
100
AcDbEntity
  8
0
  6
Continuous
 62
     7
370
    15
100
AcDbLine
 10
208.9999998268
 20
-113.600653611
 30
0.0
 11
208.9999999555
 21
313.3993463884
 31
0.0
  0
LINE
  5
399
330
1F
100
AcDbEntity
  8
0
  6
Continuous
 62
     7
370
    15
100
AcDbLine
 10
208.9999999555
 20
313.3993463884
 30
0.0
 11
210.9999998268
 21
313.3993463878
 31
0.0
  0
LINE
  5
39A
330
1F
100
AcDbEntity
  8
0
  6
Continuous
 62
     7
370
    15
100
AcDbLine
 10
238.9999999555
 20
313.3993463884
 30
0.0
 11
240.9999998268
 21
313.3993463878
 31
0.0
  0
LINE
  5
39B
330
1F
100
AcDbEntity
  8
0
  6
Continuous
 62
     7
370
    15
100
AcDbLine
 10
238.9999998268
 20
-113.600653611
 30
0.0
 11
238.9999999555
 21
313.3993463884
 31
0.0
  0
LINE
  5
39C
330
1F
100
AcDbEntity
  8
0
  6
Continuous
 62
     7
370
    15
100
AcDbLine
 10
240.999999698
 20
-113.6006536116
 30
0.0
 11
240.9999998268
 21
313.3993463878
 31
0.0
  0
LINE
  5
39D
330
1F
100
AcDbEntity
  8
0
  6
Continuous
 62
     7
370
    15
100
AcDbLine
 10
240.999999698
 20
-113.6006536116
 30
0.0
 11
238.9999998268
 21
-113.600653611
 31
0.0
  0
LINE
  5
39E
330
1F
100
AcDbEntity
  8
0
  6
Continuous
 62
     7
370
    15
100
AcDbLine
 10
-281.1000001732
 20
-102.1006536116
 30
0.0
 11
-281.1000001732
 21
-107.1006536116
 31
0.0
  0
LINE
  5
39F
330
1F
100
AcDbEntity
  8
0
  6
Continuous
 62
     7
370
    15
100
AcDbLine
 10
-281.6000001732
 20
-102.6006536116
 30
0.0
 11
-281.6000001732
 21
-106.6006536117
 31
0.0
  0
LINE
  5
3A0
330
1F
100
AcDbEntity
  8
0
  6
Continuous
 62
     7
370
    15
100
AcDbLine
 10
-281.1000001732
 20
306.8993463884
 30
0.0
 11
-281.1000001732
 21
301.8993463884
 31
0.0
  0
LINE
  5
3A1
330
1F
100
AcDbEntity
  8
0
  6
Continuous
 62
     7
370
    15
100
AcDbLine
 10
-281.6000001732
 20
306.3993463884
 30
0.0
 11
-281.6000001732
 21
302.3993463883
 31
0.0
  0
LINE
  5
3A2
330
1F
100
AcDbEntity
  8
0
  6
Continuous
 62
     7
370
    15
100
AcDbLine
 10
277.8999998268
 20
-107.1006536116
 30
0.0
 11
277.8999998268
 21
-102.1006536116
 31
0.0
  0
LINE
  5
3A3
330
1F
100
AcDbEntity
  8
0
  6
Continuous
 62
     7
370
    15
100
AcDbLine
 10
278.3999998267
 20
-106.6006536117
 30
0.0
 11
278.3999998267
 21
-102.6006536116
 31
0.0
  0
LINE
  5
3A4
330
1F
100
AcDbEntity
  8
0
  6
Continuous
 62
     7
370
    15
100
AcDbLine
 10
277.8999998268
 20
301.8993463884
 30
0.0
 11
277.8999998268
 21
306.8993463884
 31
0.0
  0
LINE
  5
3A5
330
1F
100
AcDbEntity
  8
0
  6
Continuous
 62
     7
370
    15
100
AcDbLine
 10
278.3999998268
 20
302.3993463884
 30
0.0
 11
278.3999998268
 21
306.3993463883
 31
0.0
  0
LINE
  5
3A6
330
1F
100
AcDbEntity
  8
0
  6
Continuous
 62
     7
370
    15
100
AcDbLine
 10
287.499000321
 20
-114.6006530814
 30
0.0
 11
280.4990003198
 21
-114.6006530899
 31
0.0
  0
LINE
  5
3A7
330
1F
100
AcDbEntity
  8
0
  6
Continuous
 62
     7
370
    15
100
AcDbLine
 10
287.4990003222
 20
-116.6006530835
 30
0.0
 11
287.4990003186
 21
-113.6006530814
 31
0.0
  0
LINE
  5
3A8
330
1F
100
AcDbEntity
  8
0
  6
Continuous
 62
     7
370
    15
100
AcDbLine
 10
280.4990003186
 20
-113.6006530899
 30
0.0
 11
280.4990003198
 21
-116.6006530899
 31
0.0
  0
LINE
  5
3A9
330
1F
100
AcDbEntity
  8
0
  6
Continuous
 62
     7
370
    15
100
AcDbLine
 10
-281.4000001732
 20
-114.1006536212
 30
0.0
 11
-289.3000001759
 21
-114.1006536116
 31
0.0
  0
LINE
  5
3AA
330
1F
100
AcDbEntity
  8
0
  6
Continuous
 62
     7
370
    15
100
AcDbLine
 10
-288.5009996814
 20
-113.6006537761
 30
0.0
 11
-288.5009996808
 21
-116.6006537761
 31
0.0
  0
LINE
  5
3AB
330
1F
100
AcDbEntity
  8
0
  6
Continuous
 62
     7
370
    15
100
AcDbLine
 10
-281.5009996778
 20
-116.6006537698
 30
0.0
 11
-281.5009996814
 21
-113.6006537677
 31
0.0
  0
LINE
  5
3AC
330
1F
100
AcDbEntity
  8
0
  6
Continuous
 62
     7
370
    15
100
AcDbLine
 10
-264.5010002075
 20
321.3993462528
 30
0.0
 11
-244.501000206
 21
321.399346277
 31
0.0
  0
LINE
  5
3AD
330
1F
100
AcDbEntity
  8
0
  6
Continuous
 62
     7
370
    15
100
AcDbLine
 10
-244.5010002054
 20
320.899346277
 30
0.0
 11
-244.501000206
 21
323.899346277
 31
0.0
  0
LINE
  5
3AE
330
1F
100
AcDbEntity
  8
0
  6
Continuous
 62
     7
370
    15
100
AcDbLine
 10
-264.501000209
 20
323.8993462589
 30
0.0
 11
-264.5010002054
 21
320.8993462528
 31
0.0
  0
LINE
  5
3AF
330
1F
100
AcDbEntity
  8
0
  6
Continuous
 62
     7
370
    15
100
AcDbLine
 10
243.4989997925
 20
321.3993468655
 30
0.0
 11
263.498999794
 21
321.3993468896
 31
0.0
  0
LINE
  5
3B0
330
1F
100
AcDbEntity
  8
0
  6
Continuous
 62
     7
370
    15
100
AcDbLine
 10
263.4989997946
 20
320.8993468896
 30
0.0
 11
263.498999794
 21
323.8993468896
 31
0.0
  0
LINE
  5
3B1
330
1F
100
AcDbEntity
  8
0
  6
Continuous
 62
     7
370
    15
100
AcDbLine
 10
243.498999791
 20
323.8993468716
 30
0.0
 11
243.4989997946
 21
320.8993468655
 31
0.0
  0
LINE
  5
3B2
330
1F
100
AcDbEntity
  8
0
  6
Continuous
 62
     7
370
    15
100
AcDbLine
 10
263.498999794
 20
323.8993468896
 30
0.0
 11
243.498999791
 21
323.8993468896
 31
0.0
  0
LINE
  5
3B3
330
1F
100
AcDbEntity
  8
0
  6
Continuous
 62
     7
370
    15
100
AcDbLine
 10
-244.501000206
 20
323.899346277
 30
0.0
 11
-264.501000209
 21
323.899346277
 31
0.0
  0
LINE
  5
3B4
330
1F
100
AcDbEntity
  8
0
  6
Continuous
 62
     7
370
    15
100
AcDbLine
 10
280.4990003198
 20
-116.6006530899
 30
0.0
 11
287.4990003222
 21
-116.6006530899
 31
0.0
  0
LINE
  5
3B5
330
1F
100
AcDbEntity
  8
0
  6
Continuous
 62
     7
370
    15
100
AcDbLine
 10
-288.5009996808
 20
-116.6006537761
 30
0.0
 11
-281.5009996778
 21
-116.6006537761
 31
0.0
  0
LINE
  5
3B6
330
1F
100
AcDbEntity
  8
0
  6
Continuous
 62
     7
370
    15
100
AcDbLine
 10
-282.0000001732
 20
-99.6006536116
 30
0.0
 11
-282.0000001732
 21
-109.6006536116
 31
0.0
  0
LINE
  5
3B7
330
1F
100
AcDbEntity
  8
0
  6
Continuous
 62
     7
370
    15
100
AcDbLine
 10
-282.0000001732
 20
309.3993463884
 30
0.0
 11
-282.0000001732
 21
299.3993463884
 31
0.0
  0
LINE
  5
3B8
330
1F
100
AcDbEntity
  8
0
  6
Continuous
 62
     7
370
    15
100
AcDbLine
 10
281.2999998268
 20
-99.6006536116
 30
0.0
 11
281.2999998207
 21
-109.6006536116
 31
0.0
  0
LINE
  5
3B9
330
1F
100
AcDbEntity
  8
0
  6
Continuous
 62
     7
370
    15
100
AcDbLine
 10
281.9999998268
 20
-109.6006536116
 30
0.0
 11
281.9999998268
 21
-99.6006536116
 31
0.0
  0
LINE
  5
3BA
330
1F
100
AcDbEntity
  8
0
  6
Continuous
 62
     7
370
    15
100
AcDbLine
 10
281.2999998268
 20
309.3993463884
 30
0.0
 11
281.2999998207
 21
299.3993463884
 31
0.0
  0
LINE
  5
3BB
330
1F
100
AcDbEntity
  8
0
  6
Continuous
 62
     7
370
    15
100
AcDbLine
 10
281.9999998268
 20
299.3993463884
 30
0.0
 11
281.9999998268
 21
309.3993463884
 31
0.0
  0
LINE
  5
3BC
330
1F
100
AcDbEntity
  8
0
  6
Continuous
 62
     7
370
    15
100
AcDbLine
 10
281.4019998268
 20
-109.6006536226
 30
0.0
 11
281.4019998237
 21
-112.1006531334
 31
0.0
  0
LINE
  5
3BD
330
1F
100
AcDbEntity
  8
0
  6
Continuous
 62
     7
370
    15
100
AcDbLine
 10
287.4990003192
 20
-114.100653619
 30
0.0
 11
289.3019998268
 21
-114.1006536212
 31
0.0
  0
LINE
  5
3BE
330
1F
100
AcDbEntity
  8
0
  6
Continuous
 62
     7
370
    15
100
AcDbLine
 10
289.3019998268
 20
-114.1006536212
 30
0.0
 11
289.3019998276
 21
-113.4232669923
 31
0.0
  0
LINE
  5
3BF
330
1F
100
AcDbEntity
  8
0
  6
Continuous
 62
     7
370
    15
100
AcDbLine
 10
288.8883367608
 20
-111.9006536111
 30
0.0
 11
283.6019998268
 21
-111.9006536048
 31
0.0
  0
LINE
  5
3C0
330
1F
100
AcDbEntity
  8
0
  6
Continuous
 62
     7
370
    15
100
AcDbLine
 10
283.6019998268
 20
-111.9006536048
 30
0.0
 11
283.60199985
 21
-92.6006536116
 31
0.0
  0
LINE
  5
3C1
330
1F
100
AcDbEntity
  8
0
  6
Continuous
 62
     7
370
    15
100
AcDbLine
 10
283.60199985
 20
-92.6006536116
 30
0.0
 11
281.4019998268
 21
-92.600653609
 31
0.0
  0
LINE
  5
3C2
330
1F
100
AcDbEntity
  8
0
  6
Continuous
 62
     7
370
    15
100
AcDbLine
 10
281.4019998268
 20
-92.600653609
 30
0.0
 11
281.4019998183
 21
-99.6006536116
 31
0.0
  0
LINE
  5
3C3
330
1F
100
AcDbEntity
  8
0
  6
Continuous
 62
     7
370
    15
100
AcDbLine
 10
-281.4000001732
 20
-99.6006536007
 30
0.0
 11
-281.4000001648
 21
-92.6006536116
 31
0.0
  0
LINE
  5
3C4
330
1F
100
AcDbEntity
  8
0
  6
Continuous
 62
     7
370
    15
100
AcDbLine
 10
-281.4000001648
 20
-92.6006536116
 30
0.0
 11
-283.6000001732
 21
-92.600653609
 31
0.0
  0
LINE
  5
3C5
330
1F
100
AcDbEntity
  8
0
  6
Continuous
 62
     7
370
    15
100
AcDbLine
 10
-283.6000001732
 20
-92.600653609
 30
0.0
 11
-283.6000001965
 21
-111.9006536116
 31
0.0
  0
LINE
  5
3C6
330
1F
100
AcDbEntity
  8
0
  6
Continuous
 62
     7
370
    15
100
AcDbLine
 10
-283.6000001965
 20
-111.9006536116
 30
0.0
 11
-289.3000001732
 21
-111.9006536048
 31
0.0
  0
LINE
  5
3C7
330
1F
100
AcDbEntity
  8
0
  6
Continuous
 62
     7
370
    15
100
AcDbLine
 10
-289.3000001732
 20
-111.9006536048
 30
0.0
 11
-289.3000001735
 21
-112.1006538513
 31
0.0
  0
LINE
  5
3C8
330
1F
100
AcDbEntity
  8
0
  6
Continuous
 62
     7
370
    15
100
AcDbLine
 10
-289.3000001753
 20
-113.6006538513
 30
0.0
 11
-289.3000001759
 21
-114.1006536116
 31
0.0
  0
LINE
  5
3C9
330
1F
100
AcDbEntity
  8
0
  6
Continuous
 62
     7
370
    15
100
AcDbLine
 10
-281.4000001732
 20
-114.1006536212
 30
0.0
 11
-281.4000001726
 21
-113.6006538079
 31
0.0
  0
LINE
  5
3CA
330
1F
100
AcDbEntity
  8
0
  6
Continuous
 62
     7
370
    15
100
AcDbLine
 10
-281.4000001708
 20
-112.1006538079
 30
0.0
 11
-281.4000001678
 21
-109.6006536116
 31
0.0
  0
LINE
  5
3CB
330
1F
100
AcDbEntity
  8
0
  6
Continuous
 62
     7
370
    15
100
AcDbLine
 10
247.0009998268
 20
-76.1006537606
 30
0.0
 11
247.000999935
 21
282.8993463884
 31
0.0
  0
LINE
  5
3CC
330
1F
100
AcDbEntity
  8
0
  6
Continuous
 62
     7
370
    15
100
AcDbLine
 10
247.000999935
 20
282.8993463884
 30
0.0
 11
240.9999998176
 21
282.8993463902
 31
0.0
  0
LINE
  5
3CD
330
1F
100
AcDbEntity
  8
0
  6
Continuous
 62
     7
370
    15
100
AcDbLine
 10
238.9999999463
 20
282.8993463908
 30
0.0
 11
210.9999998176
 21
282.8993463992
 31
0.0
  0
LINE
  5
3CE
330
1F
100
AcDbEntity
  8
0
  6
Continuous
 62
     7
370
    15
100
AcDbLine
 10
208.9999999463
 20
282.8993463998
 30
0.0
 11
180.9999998176
 21
282.8993464083
 31
0.0
  0
LINE
  5
3CF
330
1F
100
AcDbEntity
  8
0
  6
Continuous
 62
     7
370
    15
100
AcDbLine
 10
178.9999999463
 20
282.8993464089
 30
0.0
 11
150.9999998176
 21
282.8993464173
 31
0.0
  0
LINE
  5
3D0
330
1F
100
AcDbEntity
  8
0
  6
Continuous
 62
     7
370
    15
100
AcDbLine
 10
148.9999999463
 20
282.8993464179
 30
0.0
 11
120.9999998176
 21
282.8993464264
 31
0.0
  0
LINE
  5
3D1
330
1F
100
AcDbEntity
  8
0
  6
Continuous
 62
     7
370
    15
100
AcDbLine
 10
118.9999999463
 20
282.899346427
 30
0.0
 11
90.9999998176
 21
282.8993464354
 31
0.0
  0
LINE
  5
3D2
330
1F
100
AcDbEntity
  8
0
  6
Continuous
 62
     7
370
    15
100
AcDbLine
 10
88.9999999463
 20
282.899346436
 30
0.0
 11
60.9999998176
 21
282.8993464445
 31
0.0
  0
LINE
  5
3D3
330
1F
100
AcDbEntity
  8
0
  6
Continuous
 62
     7
370
    15
100
AcDbLine
 10
58.9999999463
 20
282.8993464451
 30
0.0
 11
30.9999998176
 21
282.8993464535
 31
0.0
  0
LINE
  5
3D4
330
1F
100
AcDbEntity
  8
0
  6
Continuous
 62
     7
370
    15
100
AcDbLine
 10
28.9999999463
 20
282.8993464541
 30
0.0
 11
0.9999998176
 21
282.8993464625
 31
0.0
  0
LINE
  5
3D5
330
1F
100
AcDbEntity
  8
0
  6
Continuous
 62
     7
370
    15
100
AcDbLine
 10
-0.9999999341
 20
282.8993464631
 30
0.0
 11
-29.0000001916
 21
282.8993464716
 31
0.0
  0
LINE
  5
3D6
330
1F
100
AcDbEntity
  8
0
  6
Continuous
 62
     7
370
    15
100
AcDbLine
 10
-30.9999999341
 20
282.8993464722
 30
0.0
 11
-59.0000001916
 21
282.8993464806
 31
0.0
  0
LINE
  5
3D7
330
1F
100
AcDbEntity
  8
0
  6
Continuous
 62
     7
370
    15
100
AcDbLine
 10
-60.9999999341
 20
282.8993464812
 30
0.0
 11
-89.0000001916
 21
282.8993464897
 31
0.0
  0
LINE
  5
3D8
330
1F
100
AcDbEntity
  8
0
  6
Continuous
 62
     7
370
    15
100
AcDbLine
 10
-90.9999999341
 20
282.8993464903
 30
0.0
 11
-119.0000001916
 21
282.8993464987
 31
0.0
  0
LINE
  5
3D9
330
1F
100
AcDbEntity
  8
0
  6
Continuous
 62
     7
370
    15
100
AcDbLine
 10
-120.9999999341
 20
282.8993464993
 30
0.0
 11
-149.0000001916
 21
282.8993465078
 31
0.0
  0
LINE
  5
3DA
330
1F
100
AcDbEntity
  8
0
  6
Continuous
 62
     7
370
    15
100
AcDbLine
 10
-150.9999999341
 20
282.8993465084
 30
0.0
 11
-179.0000001916
 21
282.8993465168
 31
0.0
  0
LINE
  5
3DB
330
1F
100
AcDbEntity
  8
0
  6
Continuous
 62
     7
370
    15
100
AcDbLine
 10
-180.9999999341
 20
282.8993465174
 30
0.0
 11
-209.0000001916
 21
282.8993465259
 31
0.0
  0
LINE
  5
3DC
330
1F
100
AcDbEntity
  8
0
  6
Continuous
 62
     7
370
    15
100
AcDbLine
 10
-210.9999999341
 20
282.8993465265
 30
0.0
 11
-239.0000001916
 21
282.8993465349
 31
0.0
  0
LINE
  5
3DD
330
1F
100
AcDbEntity
  8
0
  6
Continuous
 62
     7
370
    15
100
AcDbLine
 10
-240.9999999341
 20
282.8993465355
 30
0.0
 11
-246.9990001732
 21
282.8993465373
 31
0.0
  0
LINE
  5
3DE
330
1F
100
AcDbEntity
  8
0
  6
Continuous
 62
     7
370
    15
100
AcDbLine
 10
-246.9990001732
 20
282.8993465373
 30
0.0
 11
-246.9990002815
 21
-76.1006536116
 31
0.0
  0
LINE
  5
3DF
330
1F
100
AcDbEntity
  8
0
  6
Continuous
 62
     7
370
    15
100
AcDbLine
 10
-246.9990002815
 20
-76.1006536116
 30
0.0
 11
-241.0000001506
 21
-76.1006536134
 31
0.0
  0
LINE
  5
3E0
330
1F
100
AcDbEntity
  8
0
  6
Continuous
 62
     7
370
    15
100
AcDbLine
 10
-239.0000004081
 20
-76.100653614
 30
0.0
 11
-211.0000001506
 21
-76.1006536225
 31
0.0
  0
LINE
  5
3E1
330
1F
100
AcDbEntity
  8
0
  6
Continuous
 62
     7
370
    15
100
AcDbLine
 10
-209.0000004081
 20
-76.1006536231
 30
0.0
 11
-181.0000001506
 21
-76.1006536315
 31
0.0
  0
LINE
  5
3E2
330
1F
100
AcDbEntity
  8
0
  6
Continuous
 62
     7
370
    15
100
AcDbLine
 10
-179.0000004081
 20
-76.1006536321
 30
0.0
 11
-151.0000001506
 21
-76.1006536406
 31
0.0
  0
LINE
  5
3E3
330
1F
100
AcDbEntity
  8
0
  6
Continuous
 62
     7
370
    15
100
AcDbLine
 10
-149.0000004081
 20
-76.1006536412
 30
0.0
 11
-121.0000001506
 21
-76.1006536496
 31
0.0
  0
LINE
  5
3E4
330
1F
100
AcDbEntity
  8
0
  6
Continuous
 62
     7
370
    15
100
AcDbLine
 10
-119.0000004081
 20
-76.1006536502
 30
0.0
 11
-91.0000001506
 21
-76.1006536587
 31
0.0
  0
LINE
  5
3E5
330
1F
100
AcDbEntity
  8
0
  6
Continuous
 62
     7
370
    15
100
AcDbLine
 10
-89.0000004081
 20
-76.1006536593
 30
0.0
 11
-61.0000001506
 21
-76.1006536677
 31
0.0
  0
LINE
  5
3E6
330
1F
100
AcDbEntity
  8
0
  6
Continuous
 62
     7
370
    15
100
AcDbLine
 10
-59.0000004081
 20
-76.1006536683
 30
0.0
 11
-31.0000001506
 21
-76.1006536768
 31
0.0
  0
LINE
  5
3E7
330
1F
100
AcDbEntity
  8
0
  6
Continuous
 62
     7
370
    15
100
AcDbLine
 10
-29.0000004081
 20
-76.1006536774
 30
0.0
 11
-1.0000001506
 21
-76.1006536858
 31
0.0
  0
LINE
  5
3E8
330
1F
100
AcDbEntity
  8
0
  6
Continuous
 62
     7
370
    15
100
AcDbLine
 10
0.9999997093
 20
-76.1006536864
 30
0.0
 11
28.9999998381
 21
-76.1006536949
 31
0.0
  0
LINE
  5
3E9
330
1F
100
AcDbEntity
  8
0
  6
Continuous
 62
     7
370
    15
100
AcDbLine
 10
30.9999997093
 20
-76.1006536955
 30
0.0
 11
58.9999998381
 21
-76.1006537039
 31
0.0
  0
LINE
  5
3EA
330
1F
100
AcDbEntity
  8
0
  6
Continuous
 62
     7
370
    15
100
AcDbLine
 10
60.9999997093
 20
-76.1006537045
 30
0.0
 11
88.9999998381
 21
-76.1006537129
 31
0.0
  0
LINE
  5
3EB
330
1F
100
AcDbEntity
  8
0
  6
Continuous
 62
     7
370
    15
100
AcDbLine
 10
90.9999997093
 20
-76.1006537135
 30
0.0
 11
118.9999998381
 21
-76.100653722
 31
0.0
  0
LINE
  5
3EC
330
1F
100
AcDbEntity
  8
0
  6
Continuous
 62
     7
370
    15
100
AcDbLine
 10
120.9999997093
 20
-76.1006537226
 30
0.0
 11
148.9999998381
 21
-76.100653731
 31
0.0
  0
LINE
  5
3ED
330
1F
100
AcDbEntity
  8
0
  6
Continuous
 62
     7
370
    15
100
AcDbLine
 10
150.9999997093
 20
-76.1006537316
 30
0.0
 11
178.9999998381
 21
-76.1006537401
 31
0.0
  0
LINE
  5
3EE
330
1F
100
AcDbEntity
  8
0
  6
Continuous
 62
     7
370
    15
100
AcDbLine
 10
180.9999997093
 20
-76.1006537407
 30
0.0
 11
208.9999998381
 21
-76.1006537491
 31
0.0
  0
LINE
  5
3EF
330
1F
100
AcDbEntity
  8
0
  6
Continuous
 62
     7
370
    15
100
AcDbLine
 10
210.9999997093
 20
-76.1006537497
 30
0.0
 11
238.9999998381
 21
-76.1006537582
 31
0.0
  0
LINE
  5
3F0
330
1F
100
AcDbEntity
  8
0
  6
Continuous
 62
     7
370
    15
100
AcDbLine
 10
240.9999997093
 20
-76.1006537588
 30
0.0
 11
247.0009998268
 21
-76.1006537606
 31
0.0
  0
LINE
  5
3F1
330
1F
100
AcDbEntity
  8
0
  6
Continuous
 62
     7
370
    15
100
AcDbLine
 10
-243.4990001728
 20
320.8993462782
 30
0.0
 11
-243.4990001726
 21
321.5993463884
 31
0.0
  0
LINE
  5
3F2
330
1F
100
AcDbEntity
  8
0
  6
Continuous
 62
     7
370
    15
100
AcDbLine
 10
-243.4990001726
 20
321.5993463884
 30
0.0
 11
-244.501000206
 21
321.5993463887
 31
0.0
  0
LINE
  5
3F3
330
1F
100
AcDbEntity
  8
0
  6
Continuous
 62
     7
370
    15
100
AcDbLine
 10
-264.5010002077
 20
321.5993463947
 30
0.0
 11
-265.4990001732
 21
321.599346395
 31
0.0
  0
LINE
  5
3F4
330
1F
100
AcDbEntity
  8
0
  6
Continuous
 62
     7
370
    15
100
AcDbLine
 10
-265.4990001732
 20
321.599346395
 30
0.0
 11
-265.4990001734
 21
320.8993462516
 31
0.0
  0
LINE
  5
3F5
330
1F
100
AcDbEntity
  8
0
  6
Continuous
 62
     7
370
    15
100
AcDbLine
 10
290.5019994933
 20
-227.6006536116
 30
0.0
 11
-290.5000001732
 21
-227.6006532613
 31
0.0
  0
LINE
  5
3F6
330
1F
100
AcDbEntity
  8
0
  6
Continuous
 62
     7
370
    15
100
AcDbLine
 10
-290.4999998398
 20
325.3993463884
 30
0.0
 11
290.5019998268
 21
325.399346038
 31
0.0
  0
LINE
  5
3F7
330
1F
100
AcDbEntity
  8
0
  6
Continuous
 62
     7
370
    15
100
AcDbLine
 10
265.5009998272
 20
320.8993468921
 30
0.0
 11
265.5009998274
 21
321.5993463884
 31
0.0
  0
LINE
  5
3F8
330
1F
100
AcDbEntity
  8
0
  6
Continuous
 62
     7
370
    15
100
AcDbLine
 10
265.5009998274
 20
321.5993463884
 30
0.0
 11
263.498999794
 21
321.599346389
 31
0.0
  0
LINE
  5
3F9
330
1F
100
AcDbEntity
  8
0
  6
Continuous
 62
     7
370
    15
100
AcDbLine
 10
283.6019998268
 20
299.3993463864
 30
0.0
 11
283.6019998461
 21
315.3993463884
 31
0.0
  0
LINE
  5
3FA
330
1F
100
AcDbEntity
  8
0
  6
Continuous
 62
     7
370
    15
100
AcDbLine
 10
283.6019998461
 20
315.3993463884
 30
0.0
 11
281.4019998268
 21
315.399346391
 31
0.0
  0
LINE
  5
3FB
330
1F
100
AcDbEntity
  8
0
  6
Continuous
 62
     7
370
    15
100
AcDbLine
 10
281.4019998268
 20
315.399346391
 30
0.0
 11
281.4019998195
 21
309.3993463884
 31
0.0
  0
LINE
  5
3FC
330
1F
100
AcDbEntity
  8
0
  6
Continuous
 62
     7
370
    15
100
AcDbLine
 10
-281.4000001732
 20
309.3993463993
 30
0.0
 11
-281.400000166
 21
315.3993463884
 31
0.0
  0
LINE
  5
3FD
330
1F
100
AcDbEntity
  8
0
  6
Continuous
 62
     7
370
    15
100
AcDbLine
 10
-281.400000166
 20
315.3993463884
 30
0.0
 11
-283.6000001732
 21
315.399346391
 31
0.0
  0
LINE
  5
3FE
330
1F
100
AcDbEntity
  8
0
  6
Continuous
 62
     7
370
    15
100
AcDbLine
 10
-283.6000001732
 20
315.399346391
 30
0.0
 11
-283.6000001925
 21
299.3993463884
 31
0.0
  0
LINE
  5
3FF
330
1F
100
AcDbEntity
  8
0
  6
Continuous
 62
     7
370
    15
100
AcDbLine
 10
292.0009998268
 20
328.3993463884
 30
0.0
 11
-291.9990001732
 21
328.3993463884
 31
0.0
  0
LINE
  5
400
330
1F
100
AcDbEntity
  8
0
  6
Continuous
 62
     7
370
    15
100
AcDbLine
 10
290.5019998268
 20
328.3993463884
 30
0.0
 11
290.5019998213
 21
320.835061512
 31
0.0
  0
LINE
  5
401
330
1F
100
AcDbEntity
  8
0
  6
Continuous
 62
     7
370
    15
100
AcDbLine
 10
-291.9990001732
 20
-230.6006536116
 30
0.0
 11
292.0009998268
 21
-230.6006536116
 31
0.0
  0
LINE
  5
402
330
1F
100
AcDbEntity
  8
0
  6
Continuous
 62
     7
370
    15
100
AcDbLine
 10
-290.5000001732
 20
-230.6006536116
 30
0.0
 11
-290.5000000354
 21
-113.2923040682
 31
0.0
  0
LINE
  5
403
330
1F
100
AcDbEntity
  8
0
  6
Continuous
 62
     7
370
    15
100
AcDbLine
 10
293.5019998268
 20
328.3993463884
 30
0.0
 11
292.0019998268
 21
328.3993463884
 31
0.0
  0
LINE
  5
404
330
1F
100
AcDbEntity
  8
0
  6
Continuous
 62
     7
370
    15
100
AcDbLine
 10
293.5019998268
 20
-230.6006536116
 30
0.0
 11
293.5019998268
 21
328.3993463884
 31
0.0
  0
LINE
  5
405
330
1F
100
AcDbEntity
  8
0
  6
Continuous
 62
     7
370
    15
100
AcDbLine
 10
292.0019998268
 20
-230.6006536116
 30
0.0
 11
293.5019998268
 21
-230.6006536116
 31
0.0
  0
LINE
  5
406
330
1F
100
AcDbEntity
  8
0
  6
Continuous
 62
     7
370
    15
100
AcDbLine
 10
-293.5000001732
 20
328.3993463884
 30
0.0
 11
-292.0000001732
 21
328.3993463884
 31
0.0
  0
LINE
  5
407
330
1F
100
AcDbEntity
  8
0
  6
Continuous
 62
     7
370
    15
100
AcDbLine
 10
-293.5000001732
 20
-230.6006536116
 30
0.0
 11
-292.0000001732
 21
-230.6006536116
 31
0.0
  0
LINE
  5
408
330
1F
100
AcDbEntity
  8
0
  6
Continuous
 62
     7
370
    15
100
AcDbLine
 10
-293.5000001732
 20
328.3993463884
 30
0.0
 11
-293.5000001732
 21
-230.6006536116
 31
0.0
  0
LINE
  5
409
330
1F
100
AcDbEntity
  8
0
  6
Continuous
 62
     7
370
    15
100
AcDbLine
 10
290.5019998268
 20
326.8993463884
 30
0.0
 11
291.524586337
 21
326.8993463871
 31
0.0
  0
LINE
  5
40A
330
1F
100
AcDbEntity
  8
0
  6
Continuous
 62
     7
370
    15
100
AcDbLine
 10
-291.522586684
 20
326.8993463878
 30
0.0
 11
-290.5000001732
 21
326.8993463875
 31
0.0
  0
LINE
  5
40B
330
1F
100
AcDbEntity
  8
0
  6
Continuous
 62
     7
370
    15
100
AcDbLine
 10
291.5227076109
 20
-229.1006536111
 30
0.0
 11
290.5019998268
 21
-229.1006536107
 31
0.0
  0
LINE
  5
40C
330
1F
100
AcDbEntity
  8
0
  6
Continuous
 62
     7
370
    15
100
AcDbLine
 10
-290.5000001732
 20
-229.1006536116
 30
0.0
 11
-291.5207079566
 21
-229.1006536104
 31
0.0
  0
LINE
  5
40D
330
1F
100
AcDbEntity
  8
0
  6
Continuous
 62
     7
370
    15
100
AcDbLine
 10
308.1001279748
 20
-85.0539298624
 30
0.0
 11
302.1006427761
 21
-85.0289597048
 31
0.0
  0
LINE
  5
40E
330
1F
100
AcDbEntity
  8
0
  6
Continuous
 62
     7
370
    15
100
AcDbLine
 10
308.8850119684
 20
-63.0419114445
 30
0.0
 11
309.0122407246
 21
-235.6713411417
 31
0.0
  0
LINE
  5
40F
330
1F
100
AcDbEntity
  8
0
  6
Continuous
 62
     7
370
    15
100
AcDbLine
 10
308.2424512927
 20
-278.1643078417
 30
0.0
 11
309.0122407246
 21
-235.6713411417
 31
0.0
  0
LINE
  5
410
330
1F
100
AcDbEntity
  8
0
  6
Continuous
 62
     7
370
    15
100
AcDbLine
 10
308.2424512927
 20
-278.1643078417
 30
0.0
 11
308.1001279748
 21
-85.0539298624
 31
0.0
  0
LINE
  5
411
330
1F
100
AcDbEntity
  8
0
  6
Continuous
 62
     7
370
    15
100
AcDbLine
 10
-308.1001279748
 20
-85.0539298624
 30
0.0
 11
-302.1006427761
 21
-85.0289597048
 31
0.0
  0
LINE
  5
412
330
1F
100
AcDbEntity
  8
0
  6
Continuous
 62
     7
370
    15
100
AcDbLine
 10
-309.0122407246
 20
-235.6713411417
 30
0.0
 11
-308.8850119684
 21
-63.0419114445
 31
0.0
  0
LINE
  5
413
330
1F
100
AcDbEntity
  8
0
  6
Continuous
 62
     7
370
    15
100
AcDbLine
 10
-308.1001279748
 20
-85.0539298624
 30
0.0
 11
-308.2424512927
 21
-278.1643078417
 31
0.0
  0
LINE
  5
414
330
1F
100
AcDbEntity
  8
0
  6
Continuous
 62
     7
370
    15
100
AcDbLine
 10
-309.0122407246
 20
-235.6713411417
 30
0.0
 11
-308.2424512927
 21
-278.1643078417
 31
0.0
  0
LINE
  5
415
330
1F
100
AcDbEntity
  8
0
  6
Continuous
 62
     7
370
    15
100
AcDbLine
 10
302.242966094
 20
-278.1393376841
 30
0.0
 11
308.2424512927
 21
-278.1643078417
 31
0.0
  0
LINE
  5
416
330
1F
100
AcDbEntity
  8
0
  6
Continuous
 62
     7
370
    15
100
AcDbLine
 10
302.1097559209
 20
-97.3940652171
 30
0.0
 11
302.242966094
 21
-278.1393376841
 31
0.0
  0
LINE
  5
417
330
1F
100
AcDbEntity
  8
0
  6
Continuous
 62
     7
370
    15
100
AcDbLine
 10
302.1084945084
 20
-95.6825265809
 30
0.0
 11
302.1086373862
 21
-95.8763893704
 31
0.0
  0
LINE
  5
418
330
1F
100
AcDbEntity
  8
0
  6
Continuous
 62
     7
370
    15
100
AcDbLine
 10
302.1006427761
 20
-85.0289597048
 30
0.0
 11
302.1047052772
 21
-90.5411353317
 31
0.0
  0
LINE
  5
419
330
1F
100
AcDbEntity
  8
0
  6
Continuous
 62
     7
370
    15
100
AcDbLine
 10
-302.242966094
 20
-278.1393376841
 30
0.0
 11
-302.1097559209
 21
-97.3940652171
 31
0.0
  0
LINE
  5
41A
330
1F
100
AcDbEntity
  8
0
  6
Continuous
 62
     7
370
    15
100
AcDbLine
 10
-308.2424512927
 20
-278.1643078417
 30
0.0
 11
-302.242966094
 21
-278.1393376841
 31
0.0
  0
LINE
  5
41B
330
1F
100
AcDbEntity
  8
0
  6
Continuous
 62
     7
370
    15
100
AcDbLine
 10
-302.1086373862
 20
-95.8763893704
 30
0.0
 11
-302.1084997317
 21
-95.6896137518
 31
0.0
  0
LINE
  5
41C
330
1F
100
AcDbEntity
  8
0
  6
Continuous
 62
     7
370
    15
100
AcDbLine
 10
-302.1047052772
 20
-90.5411353317
 30
0.0
 11
-302.1006427761
 21
-85.0289597048
 31
0.0
  0
LINE
  5
41D
330
1F
100
AcDbEntity
  8
0
  6
Continuous
 62
     7
370
    15
100
AcDbLine
 10
293.5019998268
 20
-96.4506535994
 30
0.0
 11
300.001
 21
-96.4506535994
 31
0.0
  0
LINE
  5
41E
330
1F
100
AcDbEntity
  8
0
  6
Continuous
 62
     7
370
    15
100
AcDbLine
 10
300.001
 20
-29.7506535994
 30
0.0
 11
293.5019998268
 21
-29.7506535994
 31
0.0
  0
LINE
  5
41F
330
1F
100
AcDbEntity
  8
0
  6
Continuous
 62
     7
370
    15
100
AcDbLine
 10
300.001
 20
-29.7506535994
 30
0.0
 11
300.001
 21
-96.4506535994
 31
0.0
  0
LINE
  5
420
330
1F
100
AcDbEntity
  8
0
  6
Continuous
 62
     7
370
    15
100
AcDbLine
 10
-293.5000001732
 20
-29.7506535994
 30
0.0
 11
-300.001
 21
-29.7506535994
 31
0.0
  0
LINE
  5
421
330
1F
100
AcDbEntity
  8
0
  6
Continuous
 62
     7
370
    15
100
AcDbLine
 10
-300.001
 20
-96.4506535994
 30
0.0
 11
-293.5000001732
 21
-96.4506535994
 31
0.0
  0
LINE
  5
422
330
1F
100
AcDbEntity
  8
0
  6
Continuous
 62
     7
370
    15
100
AcDbLine
 10
-300.001
 20
-96.4506535994
 30
0.0
 11
-300.001
 21
-29.7506535994
 31
0.0
  0
LINE
  5
423
330
1F
100
AcDbEntity
  8
0
  6
Continuous
 62
     7
370
    15
100
AcDbLine
 10
303.501
 20
-31.6006535994
 30
0.0
 11
303.501
 21
-54.6716427257
 31
0.0
  0
LINE
  5
424
330
1F
100
AcDbEntity
  8
0
  6
Continuous
 62
     7
370
    15
100
AcDbLine
 10
-303.501
 20
-54.6716427257
 30
0.0
 11
-303.501
 21
-31.6006535994
 31
0.0
  0
LINE
  5
425
330
1F
100
AcDbEntity
  8
0
  6
Continuous
 62
     7
370
    15
100
AcDbLine
 10
-300.001
 20
-96.6006535994
 30
0.0
 11
-300.001
 21
-98.1006535994
 31
0.0
  0
LINE
  5
426
330
1F
100
AcDbEntity
  8
0
  6
Continuous
 62
     7
370
    15
100
AcDbLine
 10
300.001
 20
-29.6006535994
 30
0.0
 11
300.001
 21
-28.1006535994
 31
0.0
  0
LINE
  5
427
330
1F
100
AcDbEntity
  8
0
  6
Continuous
 62
     7
370
    15
100
AcDbLine
 10
300.001
 20
-98.1006535994
 30
0.0
 11
300.001
 21
-96.6006535994
 31
0.0
  0
LINE
  5
428
330
1F
100
AcDbEntity
  8
0
  6
Continuous
 62
     7
370
    15
100
AcDbLine
 10
-300.001
 20
-28.1006535994
 30
0.0
 11
-300.001
 21
-29.6006535994
 31
0.0
  0
LINE
  5
429
330
1F
100
AcDbEntity
  8
0
  6
Continuous
 62
     7
370
    15
100
AcDbLine
 10
300.001
 20
-28.1006535994
 30
0.0
 11
293.5019998268
 21
-28.1006535994
 31
0.0
  0
LINE
  5
42A
330
1F
100
AcDbEntity
  8
0
  6
Continuous
 62
     7
370
    15
100
AcDbLine
 10
293.5019998268
 20
-29.6006535994
 30
0.0
 11
300.001
 21
-29.6006535994
 31
0.0
  0
LINE
  5
42B
330
1F
100
AcDbEntity
  8
0
  6
Continuous
 62
     7
370
    15
100
AcDbLine
 10
300.001
 20
-96.6006535994
 30
0.0
 11
293.5019998268
 21
-96.6006535994
 31
0.0
  0
LINE
  5
42C
330
1F
100
AcDbEntity
  8
0
  6
Continuous
 62
     7
370
    15
100
AcDbLine
 10
293.5019998268
 20
-98.1006535994
 30
0.0
 11
300.001
 21
-98.1006535994
 31
0.0
  0
LINE
  5
42D
330
1F
100
AcDbEntity
  8
0
  6
Continuous
 62
     7
370
    15
100
AcDbLine
 10
-300.001
 20
-98.1006535994
 30
0.0
 11
-293.5000001732
 21
-98.1006535994
 31
0.0
  0
LINE
  5
42E
330
1F
100
AcDbEntity
  8
0
  6
Continuous
 62
     7
370
    15
100
AcDbLine
 10
-293.5000001732
 20
-96.6006535994
 30
0.0
 11
-300.001
 21
-96.6006535994
 31
0.0
  0
LINE
  5
42F
330
1F
100
AcDbEntity
  8
0
  6
Continuous
 62
     7
370
    15
100
AcDbLine
 10
-300.001
 20
-29.6006535994
 30
0.0
 11
-293.5000001732
 21
-29.6006535994
 31
0.0
  0
LINE
  5
430
330
1F
100
AcDbEntity
  8
0
  6
Continuous
 62
     7
370
    15
100
AcDbLine
 10
-293.5000001732
 20
-28.1006535994
 30
0.0
 11
-300.001
 21
-28.1006535994
 31
0.0
  0
LINE
  5
431
330
1F
100
AcDbEntity
  8
0
  6
Continuous
 62
     7
370
    15
100
AcDbLine
 10
309.0051946981
 20
-235.8425524424
 30
0.0
 11
309.0122407246
 21
-235.6713411417
 31
0.0
  0
LINE
  5
432
330
1F
100
AcDbEntity
  8
0
  6
Continuous
 62
     7
370
    15
100
AcDbLine
 10
305.7207930996
 20
-284.3656021516
 30
0.0
 11
301.2207930996
 21
-281.3656021516
 31
0.0
  0
LINE
  5
433
330
1F
100
AcDbEntity
  8
0
  6
Continuous
 62
     7
370
    15
100
AcDbLine
 10
-301.2207930996
 20
-281.3656021516
 30
0.0
 11
-305.7207930996
 21
-284.3656021516
 31
0.0
  0
LINE
  5
434
330
1F
100
AcDbEntity
  8
0
  6
Continuous
 62
     7
370
    15
100
AcDbLine
 10
-309.0122407246
 20
-235.6713411417
 30
0.0
 11
-308.9849885313
 21
-235.8395274754
 31
0.0
  0
LINE
  5
435
330
1F
100
AcDbEntity
  8
0
  6
Continuous
 62
     7
370
    15
100
AcDbLine
 10
301.9905825316
 20
-238.8726354516
 30
0.0
 11
302.2137367155
 21
-238.4796640821
 31
0.0
  0
LINE
  5
436
330
1F
100
AcDbEntity
  8
0
  6
Continuous
 62
     7
370
    15
100
AcDbLine
 10
301.2207930996
 20
-281.3656021516
 30
0.0
 11
301.9905825316
 21
-238.8726354516
 31
0.0
  0
LINE
  5
437
330
1F
100
AcDbEntity
  8
0
  6
Continuous
 62
     7
370
    15
100
AcDbLine
 10
-302.2137057913
 20
-238.4377047251
 30
0.0
 11
-301.9905825316
 21
-238.8726354516
 31
0.0
  0
LINE
  5
438
330
1F
100
AcDbEntity
  8
0
  6
Continuous
 62
     7
370
    15
100
AcDbLine
 10
-301.9905825316
 20
-238.8726354516
 30
0.0
 11
-301.2207930996
 21
-281.3656021516
 31
0.0
  0
LINE
  5
439
330
1F
100
AcDbEntity
  8
0
  6
Continuous
 62
     7
370
    15
100
AcDbLine
 10
295.4088176348
 20
-290.2006535994
 30
0.0
 11
295.4088176348
 21
-284.2006535994
 31
0.0
  0
LINE
  5
43A
330
1F
100
AcDbEntity
  8
0
  6
Continuous
 62
     7
370
    15
100
AcDbLine
 10
300.5249168931
 20
-282.2006535994
 30
0.0
 11
305.0249168931
 21
-285.2006535994
 31
0.0
  0
LINE
  5
43B
330
1F
100
AcDbEntity
  8
0
  6
Continuous
 62
     7
370
    15
100
AcDbLine
 10
300.5249168931
 20
-282.2006535994
 30
0.0
 11
265.8839007417
 21
-282.2006535994
 31
0.0
  0
LINE
  5
43C
330
1F
100
AcDbEntity
  8
0
  6
Continuous
 62
     7
370
    15
100
AcDbLine
 10
-265.8839007417
 20
-282.2006535994
 30
0.0
 11
-300.5249168931
 21
-282.2006535994
 31
0.0
  0
LINE
  5
43D
330
1F
100
AcDbEntity
  8
0
  6
Continuous
 62
     7
370
    15
100
AcDbLine
 10
-305.0249168931
 20
-285.2006535994
 30
0.0
 11
-300.5249168931
 21
-282.2006535994
 31
0.0
  0
LINE
  5
43E
330
1F
100
AcDbEntity
  8
0
  6
Continuous
 62
     7
370
    15
100
AcDbLine
 10
-295.4088176348
 20
-284.2006535994
 30
0.0
 11
-295.4088176348
 21
-290.2006535994
 31
0.0
  0
LINE
  5
43F
330
1F
100
AcDbEntity
  8
0
  6
Continuous
 62
     7
370
    15
100
AcDbLine
 10
301.2207930996
 20
-281.3656021516
 30
0.0
 11
300.5249168931
 21
-282.2006535994
 31
0.0
  0
LINE
  5
440
330
1F
100
AcDbEntity
  8
0
  6
Continuous
 62
     7
370
    15
100
AcDbLine
 10
305.0249168931
 20
-285.2006535994
 30
0.0
 11
305.7207930996
 21
-284.3656021516
 31
0.0
  0
LINE
  5
441
330
1F
100
AcDbEntity
  8
0
  6
Continuous
 62
     7
370
    15
100
AcDbLine
 10
265.8839007417
 20
-282.2006535994
 30
0.0
 11
301.9905825316
 21
-238.8726354516
 31
0.0
  0
LINE
  5
442
330
1F
100
AcDbEntity
  8
0
  6
Continuous
 62
     7
370
    15
100
AcDbLine
 10
-301.9905825316
 20
-238.8726354516
 30
0.0
 11
-265.8839007417
 21
-282.2006535994
 31
0.0
  0
LINE
  5
443
330
1F
100
AcDbEntity
  8
0
  6
Continuous
 62
     7
370
    15
100
AcDbLine
 10
-300.5249168931
 20
-282.2006535994
 30
0.0
 11
-301.2207930996
 21
-281.3656021516
 31
0.0
  0
LINE
  5
444
330
1F
100
AcDbEntity
  8
0
  6
Continuous
 62
     7
370
    15
100
AcDbLine
 10
-305.7207930996
 20
-284.3656021516
 30
0.0
 11
-305.0249168931
 21
-285.2006535994
 31
0.0
  0
LINE
  5
445
330
1F
100
AcDbEntity
  8
0
  6
Continuous
 62
     7
370
    15
100
AcDbLine
 10
295.4088176348
 20
-284.2006535994
 30
0.0
 11
-295.4088176348
 21
-284.2006535994
 31
0.0
  0
LINE
  5
446
330
1F
100
AcDbEntity
  8
0
  6
Continuous
 62
     7
370
    15
100
AcDbLine
 10
-295.4088176348
 20
-290.2006535994
 30
0.0
 11
295.4088176348
 21
-290.2006535994
 31
0.0
  0
LINE
  5
447
330
1F
100
AcDbEntity
  8
0
  6
Continuous
 62
     8
370
    15
100
AcDbLine
 10
-272.3000001732
 20
-99.6006536116
 30
0.0
 11
-272.3000001747
 21
-102.1006536116
 31
0.0
  0
LINE
  5
448
330
1F
100
AcDbEntity
  8
0
  6
Continuous
 62
     8
370
    15
100
AcDbLine
 10
-272.3000001778
 20
-107.1006536116
 30
0.0
 11
-272.3000001793
 21
-109.6006536116
 31
0.0
  0
LINE
  5
449
330
1F
100
AcDbEntity
  8
0
  6
Continuous
 62
     8
370
    15
100
AcDbLine
 10
-272.3000001732
 20
309.3993463884
 30
0.0
 11
-272.3000001747
 21
306.8993463884
 31
0.0
  0
LINE
  5
44A
330
1F
100
AcDbEntity
  8
0
  6
Continuous
 62
     8
370
    15
100
AcDbLine
 10
-272.3000001778
 20
301.8993463884
 30
0.0
 11
-272.3000001793
 21
299.3993463884
 31
0.0
  0
LINE
  5
44B
330
1F
100
AcDbEntity
  8
0
  6
Continuous
 62
     8
370
    15
100
AcDbLine
 10
272.2999998268
 20
-109.6006536116
 30
0.0
 11
272.2999998283
 21
-107.1006536116
 31
0.0
  0
LINE
  5
44C
330
1F
100
AcDbEntity
  8
0
  6
Continuous
 62
     8
370
    15
100
AcDbLine
 10
272.2999998313
 20
-102.1006536116
 30
0.0
 11
272.2999998328
 21
-99.6006536116
 31
0.0
  0
LINE
  5
44D
330
1F
100
AcDbEntity
  8
0
  6
Continuous
 62
     8
370
    15
100
AcDbLine
 10
272.2999998268
 20
299.3993463884
 30
0.0
 11
272.2999998283
 21
301.8993463884
 31
0.0
  0
LINE
  5
44E
330
1F
100
AcDbEntity
  8
0
  6
Continuous
 62
     8
370
    15
100
AcDbLine
 10
272.2999998313
 20
306.8993463884
 30
0.0
 11
272.2999998328
 21
309.3993463884
 31
0.0
  0
LINE
  5
44F
330
1F
100
AcDbEntity
  8
0
  6
Continuous
 62
     8
370
    15
100
AcDbLine
 10
-281.3000001732
 20
-109.6006536116
 30
0.0
 11
-281.3000001716
 21
-106.9006536132
 31
0.0
  0
LINE
  5
450
330
1F
100
AcDbEntity
  8
0
  6
Continuous
 62
     8
370
    15
100
AcDbLine
 10
-281.3000001688
 20
-102.3006536073
 30
0.0
 11
-281.3000001672
 21
-99.6006536116
 31
0.0
  0
LINE
  5
451
330
1F
100
AcDbEntity
  8
0
  6
Continuous
 62
     8
370
    15
100
AcDbLine
 10
-281.3000001732
 20
299.3993463884
 30
0.0
 11
-281.3000001716
 21
302.0993463868
 31
0.0
  0
LINE
  5
452
330
1F
100
AcDbEntity
  8
0
  6
Continuous
 62
     8
370
    15
100
AcDbLine
 10
-281.3000001688
 20
306.6993463927
 30
0.0
 11
-281.3000001672
 21
309.3993463884
 31
0.0
  0
LINE
  5
453
330
1F
100
AcDbEntity
  8
0
  6
Continuous
 62
     8
370
    15
100
AcDbLine
 10
-290.4999995138
 20
319.1319743921
 30
0.0
 11
-290.4999998434
 21
319.3993462215
 31
0.0
  0
LINE
  5
454
330
1F
100
AcDbEntity
  8
0
  6
Continuous
 62
     8
370
    15
100
AcDbLine
 10
-290.4999998425
 20
320.8993462215
 30
0.0
 11
-290.4999998398
 21
325.3993463884
 31
0.0
  0
LINE
  5
455
330
1F
100
AcDbEntity
  8
0
  6
Continuous
 62
     8
370
    15
100
AcDbLine
 10
290.5019998165
 20
308.3993469222
 30
0.0
 11
290.5019994933
 21
-227.6006536116
 31
0.0
  0
LINE
  5
456
330
1F
100
AcDbEntity
  8
0
  6
Continuous
 62
     8
370
    15
100
AcDbLine
 10
288.001
 20
-111.9006536101
 30
0.0
 11
288.001
 21
-112.1006531537
 31
0.0
  0
LINE
  5
457
330
1F
100
AcDbEntity
  8
0
  6
Continuous
 62
     8
370
    15
100
AcDbLine
 10
288.001
 20
-113.6006531537
 30
0.0
 11
288.001
 21
-114.1006536196
 31
0.0
  0
LINE
  5
458
330
1F
100
AcDbEntity
  8
0
  6
Continuous
 62
     8
370
    15
100
AcDbLine
 10
-288.001
 20
-112.1006538442
 30
0.0
 11
-288.001
 21
-111.9006536063
 31
0.0
  0
LINE
  5
459
330
1F
100
AcDbEntity
  8
0
  6
Continuous
 62
     8
370
    15
100
AcDbLine
 10
-246.9990002004
 20
192.889328734
 30
0.0
 11
-240.9999999884
 21
192.889328734
 31
0.0
  0
LINE
  5
45A
330
1F
100
AcDbEntity
  8
0
  6
Continuous
 62
     8
370
    15
100
AcDbLine
 10
-239.0000002459
 20
192.889328734
 30
0.0
 11
-210.9999999884
 21
192.889328734
 31
0.0
  0
LINE
  5
45B
330
1F
100
AcDbEntity
  8
0
  6
Continuous
 62
     8
370
    15
100
AcDbLine
 10
-209.0000002459
 20
192.889328734
 30
0.0
 11
-180.9999999884
 21
192.889328734
 31
0.0
  0
LINE
  5
45C
330
1F
100
AcDbEntity
  8
0
  6
Continuous
 62
     8
370
    15
100
AcDbLine
 10
-179.0000002459
 20
192.889328734
 30
0.0
 11
-150.9999999884
 21
192.889328734
 31
0.0
  0
LINE
  5
45D
330
1F
100
AcDbEntity
  8
0
  6
Continuous
 62
     8
370
    15
100
AcDbLine
 10
-149.0000002459
 20
192.889328734
 30
0.0
 11
-120.9999999884
 21
192.889328734
 31
0.0
  0
LINE
  5
45E
330
1F
100
AcDbEntity
  8
0
  6
Continuous
 62
     8
370
    15
100
AcDbLine
 10
-119.0000002459
 20
192.889328734
 30
0.0
 11
-90.9999999884
 21
192.889328734
 31
0.0
  0
LINE
  5
45F
330
1F
100
AcDbEntity
  8
0
  6
Continuous
 62
     8
370
    15
100
AcDbLine
 10
-89.0000002459
 20
192.889328734
 30
0.0
 11
-60.9999999884
 21
192.889328734
 31
0.0
  0
LINE
  5
460
330
1F
100
AcDbEntity
  8
0
  6
Continuous
 62
     8
370
    15
100
AcDbLine
 10
-59.0000002459
 20
192.889328734
 30
0.0
 11
-30.9999999884
 21
192.889328734
 31
0.0
  0
LINE
  5
461
330
1F
100
AcDbEntity
  8
0
  6
Continuous
 62
     8
370
    15
100
AcDbLine
 10
-29.0000002459
 20
192.889328734
 30
0.0
 11
-0.9999999884
 21
192.889328734
 31
0.0
  0
LINE
  5
462
330
1F
100
AcDbEntity
  8
0
  6
Continuous
 62
     8
370
    15
100
AcDbLine
 10
0.9999997904
 20
192.889328734
 30
0.0
 11
28.9999999192
 21
192.889328734
 31
0.0
  0
LINE
  5
463
330
1F
100
AcDbEntity
  8
0
  6
Continuous
 62
     8
370
    15
100
AcDbLine
 10
30.9999997904
 20
192.889328734
 30
0.0
 11
58.9999999192
 21
192.889328734
 31
0.0
  0
LINE
  5
464
330
1F
100
AcDbEntity
  8
0
  6
Continuous
 62
     8
370
    15
100
AcDbLine
 10
60.9999997904
 20
192.889328734
 30
0.0
 11
88.9999999192
 21
192.889328734
 31
0.0
  0
LINE
  5
465
330
1F
100
AcDbEntity
  8
0
  6
Continuous
 62
     8
370
    15
100
AcDbLine
 10
90.9999997904
 20
192.889328734
 30
0.0
 11
118.9999999192
 21
192.889328734
 31
0.0
  0
LINE
  5
466
330
1F
100
AcDbEntity
  8
0
  6
Continuous
 62
     8
370
    15
100
AcDbLine
 10
120.9999997904
 20
192.889328734
 30
0.0
 11
148.9999999192
 21
192.889328734
 31
0.0
  0
LINE
  5
467
330
1F
100
AcDbEntity
  8
0
  6
Continuous
 62
     8
370
    15
100
AcDbLine
 10
150.9999997904
 20
192.889328734
 30
0.0
 11
178.9999999192
 21
192.889328734
 31
0.0
  0
LINE
  5
468
330
1F
100
AcDbEntity
  8
0
  6
Continuous
 62
     8
370
    15
100
AcDbLine
 10
180.9999997904
 20
192.889328734
 30
0.0
 11
208.9999999192
 21
192.889328734
 31
0.0
  0
LINE
  5
469
330
1F
100
AcDbEntity
  8
0
  6
Continuous
 62
     8
370
    15
100
AcDbLine
 10
210.9999997904
 20
192.889328734
 30
0.0
 11
238.9999999192
 21
192.889328734
 31
0.0
  0
LINE
  5
46A
330
1F
100
AcDbEntity
  8
0
  6
Continuous
 62
     8
370
    15
100
AcDbLine
 10
240.9999997904
 20
192.889328734
 30
0.0
 11
247.0009999079
 21
192.889328734
 31
0.0
  0
LINE
  5
46B
330
1F
100
AcDbEntity
  8
0
  6
Continuous
 62
     8
370
    15
100
AcDbLine
 10
308.6856396545
 20
-75.1909521468
 30
0.0
 11
308.7974245164
 21
-75.191417401
 31
0.0
  0
LINE
  5
46C
330
1F
100
AcDbEntity
  8
0
  6
Continuous
 62
     8
370
    15
100
AcDbLine
 10
-308.6856396545
 20
-75.1909521468
 30
0.0
 11
-308.7974245164
 21
-75.191417401
 31
0.0
  0
LINE
  5
46D
330
1F
100
AcDbEntity
  8
0
  6
Continuous
 62
     8
370
    15
100
AcDbLine
 10
-308.3010058704
 20
-75.0925313685
 30
0.0
 11
-308.1892210085
 21
-75.0920661143
 31
0.0
  0
LINE
  5
46E
330
1F
100
AcDbEntity
  8
0
  6
Continuous
 62
     8
370
    15
100
AcDbLine
 10
308.1892210085
 20
-75.0920661143
 30
0.0
 11
308.3010058704
 21
-75.0925313685
 31
0.0
  0
LINE
  5
46F
330
1F
100
AcDbEntity
  8
0
  6
Continuous
 62
     8
370
    15
100
AcDbLine
 10
-138.9990001783
 20
-217.3506535994
 30
0.0
 11
-144.9990001681
 21
-217.3506535994
 31
0.0
  0
LINE
  5
470
330
1F
100
AcDbEntity
  8
0
  6
Continuous
 62
     8
370
    15
100
AcDbLine
 10
-138.7946645261
 20
-218.0577603806
 30
0.0
 11
-145.2033358204
 21
-218.0577603806
 31
0.0
  0
LINE
  5
471
330
1F
100
AcDbEntity
  8
0
  6
Continuous
 62
     8
370
    15
100
AcDbLine
 10
-141.4727244163
 20
-221.8077603806
 30
0.0
 11
-142.5252759302
 21
-221.8077603806
 31
0.0
  0
LINE
  5
472
330
1F
100
AcDbEntity
  8
0
  6
Continuous
 62
     8
370
    15
100
AcDbLine
 10
-246.9990002006
 20
192.0233033302
 30
0.0
 11
-240.9999999889
 21
192.0233033302
 31
0.0
  0
LINE
  5
473
330
1F
100
AcDbEntity
  8
0
  6
Continuous
 62
     8
370
    15
100
AcDbLine
 10
-239.0000002464
 20
192.0233033302
 30
0.0
 11
-210.9999999889
 21
192.0233033302
 31
0.0
  0
LINE
  5
474
330
1F
100
AcDbEntity
  8
0
  6
Continuous
 62
     8
370
    15
100
AcDbLine
 10
-209.0000002464
 20
192.0233033302
 30
0.0
 11
-180.9999999889
 21
192.0233033302
 31
0.0
  0
LINE
  5
475
330
1F
100
AcDbEntity
  8
0
  6
Continuous
 62
     8
370
    15
100
AcDbLine
 10
-179.0000002464
 20
192.0233033302
 30
0.0
 11
-150.9999999889
 21
192.0233033302
 31
0.0
  0
LINE
  5
476
330
1F
100
AcDbEntity
  8
0
  6
Continuous
 62
     8
370
    15
100
AcDbLine
 10
-149.0000002464
 20
192.0233033302
 30
0.0
 11
-120.9999999889
 21
192.0233033302
 31
0.0
  0
LINE
  5
477
330
1F
100
AcDbEntity
  8
0
  6
Continuous
 62
     8
370
    15
100
AcDbLine
 10
-119.0000002464
 20
192.0233033302
 30
0.0
 11
-90.9999999889
 21
192.0233033302
 31
0.0
  0
LINE
  5
478
330
1F
100
AcDbEntity
  8
0
  6
Continuous
 62
     8
370
    15
100
AcDbLine
 10
-89.0000002464
 20
192.0233033302
 30
0.0
 11
-60.9999999889
 21
192.0233033302
 31
0.0
  0
LINE
  5
479
330
1F
100
AcDbEntity
  8
0
  6
Continuous
 62
     8
370
    15
100
AcDbLine
 10
-59.0000002464
 20
192.0233033302
 30
0.0
 11
-30.9999999889
 21
192.0233033302
 31
0.0
  0
LINE
  5
47A
330
1F
100
AcDbEntity
  8
0
  6
Continuous
 62
     8
370
    15
100
AcDbLine
 10
-29.0000002464
 20
192.0233033302
 30
0.0
 11
-0.9999999889
 21
192.0233033302
 31
0.0
  0
LINE
  5
47B
330
1F
100
AcDbEntity
  8
0
  6
Continuous
 62
     8
370
    15
100
AcDbLine
 10
0.9999997902
 20
192.0233033302
 30
0.0
 11
28.9999999189
 21
192.0233033302
 31
0.0
  0
LINE
  5
47C
330
1F
100
AcDbEntity
  8
0
  6
Continuous
 62
     8
370
    15
100
AcDbLine
 10
30.9999997902
 20
192.0233033302
 30
0.0
 11
58.9999999189
 21
192.0233033302
 31
0.0
  0
LINE
  5
47D
330
1F
100
AcDbEntity
  8
0
  6
Continuous
 62
     8
370
    15
100
AcDbLine
 10
60.9999997902
 20
192.0233033302
 30
0.0
 11
88.9999999189
 21
192.0233033302
 31
0.0
  0
LINE
  5
47E
330
1F
100
AcDbEntity
  8
0
  6
Continuous
 62
     8
370
    15
100
AcDbLine
 10
90.9999997902
 20
192.0233033302
 30
0.0
 11
118.9999999189
 21
192.0233033302
 31
0.0
  0
LINE
  5
47F
330
1F
100
AcDbEntity
  8
0
  6
Continuous
 62
     8
370
    15
100
AcDbLine
 10
120.9999997902
 20
192.0233033302
 30
0.0
 11
148.9999999189
 21
192.0233033302
 31
0.0
  0
LINE
  5
480
330
1F
100
AcDbEntity
  8
0
  6
Continuous
 62
     8
370
    15
100
AcDbLine
 10
150.9999997902
 20
192.0233033302
 30
0.0
 11
178.9999999189
 21
192.0233033302
 31
0.0
  0
LINE
  5
481
330
1F
100
AcDbEntity
  8
0
  6
Continuous
 62
     8
370
    15
100
AcDbLine
 10
180.9999997902
 20
192.0233033302
 30
0.0
 11
208.9999999189
 21
192.0233033302
 31
0.0
  0
LINE
  5
482
330
1F
100
AcDbEntity
  8
0
  6
Continuous
 62
     8
370
    15
100
AcDbLine
 10
210.9999997902
 20
192.0233033302
 30
0.0
 11
238.9999999189
 21
192.0233033302
 31
0.0
  0
LINE
  5
483
330
1F
100
AcDbEntity
  8
0
  6
Continuous
 62
     8
370
    15
100
AcDbLine
 10
240.9999997902
 20
192.0233033302
 30
0.0
 11
247.0009999076
 21
192.0233033302
 31
0.0
  0
ARC
  5
484
330
1F
100
AcDbEntity
  8
0
  6
Continuous
 62
     7
370
    15
100
AcDbCircle
 10
288.4989997988
 20
317.3993469198
 30
0.0
 40
2.000000000000625
100
AcDbArc
 50
0.0000000346
 51
90.0000000691
  0
ARC
  5
485
330
1F
100
AcDbEntity
  8
0
  6
Continuous
 62
     7
370
    15
100
AcDbCircle
 10
289.998999797
 20
318.8993469216
 30
0.0
 40
0.5000000000002842
100
AcDbArc
 50
0.0000000691
 51
90.0000000691
  0
ARC
  5
486
330
1F
100
AcDbEntity
  8
0
  6
Continuous
 62
     7
370
    15
100
AcDbCircle
 10
-289.5010001952
 20
317.3993462197
 30
0.0
 40
0.5000000029842226
100
AcDbArc
 50
90.000000722
 51
179.9999996926
  0
ARC
  5
487
330
1F
100
AcDbEntity
  8
0
  6
Continuous
 62
     7
370
    15
100
AcDbCircle
 10
-291.001000203
 20
318.8993462209
 30
0.0
 40
1.999999999999943
100
AcDbArc
 50
90.0000000691
 51
180.0000000346
  0
ARC
  5
488
330
1F
100
AcDbEntity
  8
0
  6
Continuous
 62
     7
370
    15
100
AcDbCircle
 10
289.9989997907
 20
318.899346909
 30
0.0
 40
2.000000012598946
100
AcDbArc
 50
0.0000003955
 51
89.9999998896
  0
ARC
  5
489
330
1F
100
AcDbEntity
  8
0
  6
Continuous
 62
     7
370
    15
100
AcDbCircle
 10
288.4989997883
 20
317.3993468988
 30
0.0
 40
0.5000000104444102
100
AcDbArc
 50
0.0000024407
 51
89.9999988378
  0
ARC
  5
48A
330
1F
100
AcDbEntity
  8
0
  6
Continuous
 62
     7
370
    15
100
AcDbCircle
 10
-289.5010002012
 20
317.3993462227
 30
0.0
 40
1.999999999999091
100
AcDbArc
 50
90.0000000691
 51
180.0000000346
  0
ARC
  5
48B
330
1F
100
AcDbEntity
  8
0
  6
Continuous
 62
     7
370
    15
100
AcDbCircle
 10
-291.001000203
 20
318.8993462209
 30
0.0
 40
0.5
100
AcDbArc
 50
90.0000000691
 51
180.0000000691
  0
ARC
  5
48C
330
1F
100
AcDbEntity
  8
0
  6
Continuous
 62
     7
370
    15
100
AcDbCircle
 10
2544.412257052
 20
-83.446819189
 30
0.0
 40
2242.312172442782
100
AcDbArc
 50
179.3606128903
 51
180.0404270123
  0
ARC
  5
48D
330
1F
100
AcDbEntity
  8
0
  6
Continuous
 62
     7
370
    15
100
AcDbCircle
 10
-2544.4122570435
 20
-83.446819189
 30
0.0
 40
2242.312172434271
100
AcDbArc
 50
359.9595729877
 51
0.6393871097
  0
ARC
  5
48E
330
1F
100
AcDbEntity
  8
0
  6
Continuous
 62
     7
370
    15
100
AcDbCircle
 10
289.7235060202
 20
-96.3629573588
 30
0.0
 40
13.68165584854904
100
AcDbArc
 50
5.8591739418
 51
25.18359988
  0
ARC
  5
48F
330
1F
100
AcDbEntity
  8
0
  6
Continuous
 62
     7
370
    15
100
AcDbCircle
 10
-289.7235061506
 20
-96.3629573142
 30
0.0
 40
13.68165571156824
100
AcDbArc
 50
154.8164000564
 51
174.1408256985
  0
ARC
  5
490
330
1F
100
AcDbEntity
  8
0
  6
Continuous
 62
     7
370
    15
100
AcDbCircle
 10
0.0
 20
58.4
 30
0.0
 40
1.489999999999946
100
AcDbArc
 50
132.1551932369
 51
227.8448067631
  0
ARC
  5
491
330
1F
100
AcDbEntity
  8
0
  6
Continuous
 62
     7
370
    15
100
AcDbCircle
 10
0.0
 20
58.4
 30
0.0
 40
1.489999999999993
100
AcDbArc
 50
312.1551752648
 51
47.8448247352
  0
ARC
  5
492
330
1F
100
AcDbEntity
  8
0
  6
Continuous
 62
     7
370
    15
100
AcDbCircle
 10
0.0
 20
83.4
 30
0.0
 40
1.490000000000059
100
AcDbArc
 50
132.1551932369
 51
227.8448067631
  0
ARC
  5
493
330
1F
100
AcDbEntity
  8
0
  6
Continuous
 62
     7
370
    15
100
AcDbCircle
 10
0.0
 20
83.4
 30
0.0
 40
1.490000000000054
100
AcDbArc
 50
312.1551752648
 51
47.8448247352
  0
ENDSEC
  0
SECTION
  2
OBJECTS
  0
DICTIONARY
  5
C
330
0
100
AcDbDictionary
281
     1
  3
ACAD_GROUP
350
D
  3
ACAD_LAYOUT
350
1A
  3
ACAD_MLINESTYLE
350
17
  3
ACAD_PLOTSETTINGS
350
19
  3
ACAD_PLOTSTYLENAME
350
E
  3
ACAD_SCALELIST
350
47
  0
DICTIONARY
  5
D
102
{ACAD_REACTORS
330
C
102
}
330
C
100
AcDbDictionary
281
     1
  0
DICTIONARY
  5
1A
102
{ACAD_REACTORS
330
C
102
}
330
C
100
AcDbDictionary
281
     1
  3
Layout1
350
1E
  3
Layout2
350
26
  3
Model
350
22
  0
DICTIONARY
  5
17
102
{ACAD_REACTORS
330
C
102
}
330
C
100
AcDbDictionary
281
     1
  3
Standard
350
18
  0
DICTIONARY
  5
19
102
{ACAD_REACTORS
330
C
102
}
330
C
100
AcDbDictionary
281
     1
  0
ACDBDICTIONARYWDFLT
  5
E
102
{ACAD_REACTORS
330
C
102
}
330
C
100
AcDbDictionary
281
     1
  3
Normal
350
F
100
AcDbDictionaryWithDefault
340
F
  0
DICTIONARY
  5
47
102
{ACAD_REACTORS
330
C
102
}
330
C
100
AcDbDictionary
281
     1
  3
A0
350
48
  3
A1
350
49
  3
A2
350
4A
  3
A3
350
4B
  3
A4
350
4C
  3
A5
350
4D
  3
A6
350
4E
  3
A7
350
4F
  3
A8
350
50
  3
A9
350
51
  3
B0
350
52
  3
B1
350
53
  3
B2
350
54
  3
B3
350
55
  3
B4
350
56
  3
B5
350
57
  3
B6
350
58
  3
B7
350
59
  3
B8
350
5A
  3
B9
350
5B
  3
C0
350
5C
  3
C1
350
5D
  3
C2
350
5E
  3
C3
350
5F
  3
C4
350
60
  3
C5
350
61
  3
C6
350
62
  3
C7
350
63
  3
C8
350
64
  3
C9
350
65
  3
D0
350
66
  3
D1
350
67
  3
D2
350
68
  0
LAYOUT
  5
1E
102
{ACAD_REACTORS
330
1A
102
}
330
1A
100
AcDbPlotSettings
  1

  2
none_device
  4

  6

 40
0.0
 41
0.0
 42
0.0
 43
0.0
 44
0.0
 45
0.0
 46
0.0
 47
0.0
 48
0.0
 49
0.0
140
0.0
141
0.0
142
1.0
143
1.0
 70
   688
 72
     1
 73
     0
 74
     5
  7

 75
    16
147
1.0
148
0.0
149
0.0
100
AcDbLayout
  1
Layout1
 70
     1
 71
     1
 10
0.0
 20
0.0
 11
420.0
 21
297.0
 12
0.0
 22
0.0
 32
0.0
 14
1.0000000000E+20
 24
1.0000000000E+20
 34
1.0000000000E+20
 15
-1.0000000000E+20
 25
-1.0000000000E+20
 35
-1.0000000000E+20
146
0.0
 13
0.0
 23
0.0
 33
0.0
 16
1.0
 26
0.0
 36
0.0
 17
0.0
 27
1.0
 37
0.0
 76
     0
330
1B
  0
LAYOUT
  5
26
102
{ACAD_REACTORS
330
1A
102
}
330
1A
100
AcDbPlotSettings
  1

  2
none_device
  4

  6

 40
0.0
 41
0.0
 42
0.0
 43
0.0
 44
0.0
 45
0.0
 46
0.0
 47
0.0
 48
0.0
 49
0.0
140
0.0
141
0.0
142
1.0
143
1.0
 70
   688
 72
     1
 73
     0
 74
     5
  7

 75
    16
147
1.0
148
0.0
149
0.0
100
AcDbLayout
  1
Layout2
 70
     1
 71
     2
 10
0.0
 20
0.0
 11
0.0
 21
0.0
 12
0.0
 22
0.0
 32
0.0
 14
0.0
 24
0.0
 34
0.0
 15
0.0
 25
0.0
 35
0.0
146
0.0
 13
0.0
 23
0.0
 33
0.0
 16
1.0
 26
0.0
 36
0.0
 17
0.0
 27
1.0
 37
0.0
 76
     0
330
23
  0
LAYOUT
  5
22
102
{ACAD_REACTORS
330
1A
102
}
330
1A
100
AcDbPlotSettings
  1

  2
none_device
  4
ANSI_A_(11.00_x_8.50_Inches)
  6

 40
6.35
 41
19.05
 42
6.35000508
 43
19.05000254
 44
279.4
 45
215.9
 46
133.34999746
 47
82.3007206864
 48
0.0
 49
0.0
140
0.0
141
0.0
142
0.0136032978
143
1.0
 70
  1696
 72
     0
 73
     0
 74
     0
  7

 75
     0
147
0.0179189148
148
-1300.4909072572
149
0.0
100
AcDbLayout
  1
Model
 70
     1
 71
     0
 10
0.0
 20
0.0
 11
420.0
 21
297.0
 12
0.0
 22
0.0
 32
0.0
 14
-309.0122407246
 24
-290.2006535994
 34
0.0
 15
309.0122407246
 25
328.3993463884
 35
0.0
146
0.0
 13
0.0
 23
0.0
 33
0.0
 16
1.0
 26
0.0
 36
0.0
 17
0.0
 27
1.0
 37
0.0
 76
     0
330
1F
331
29
  0
MLINESTYLE
  5
18
102
{ACAD_REACTORS
330
17
102
}
330
17
100
AcDbMlineStyle
  2
Standard
 70
     0
  3

 62
   256
 51
90.0
 52
90.0
 71
     2
 49
0.5
 62
   256
  6
BYLAYER
 49
-0.5
 62
   256
  6
BYLAYER
  0
ACDBPLACEHOLDER
  5
F
102
{ACAD_REACTORS
330
E
102
}
330
E
  0
SCALE
  5
48
102
{ACAD_REACTORS
330
47
102
}
330
47
100
AcDbScale
 70
     0
300
1:1
140
1.0
141
1.0
290
     1
  0
SCALE
  5
49
102
{ACAD_REACTORS
330
47
102
}
330
47
100
AcDbScale
 70
     0
300
1:2
140
1.0
141
2.0
290
     0
  0
SCALE
  5
4A
102
{ACAD_REACTORS
330
47
102
}
330
47
100
AcDbScale
 70
     0
300
1:4
140
1.0
141
4.0
290
     0
  0
SCALE
  5
4B
102
{ACAD_REACTORS
330
47
102
}
330
47
100
AcDbScale
 70
     0
300
1:5
140
1.0
141
5.0
290
     0
  0
SCALE
  5
4C
102
{ACAD_REACTORS
330
47
102
}
330
47
100
AcDbScale
 70
     0
300
1:8
140
1.0
141
8.0
290
     0
  0
SCALE
  5
4D
102
{ACAD_REACTORS
330
47
102
}
330
47
100
AcDbScale
 70
     0
300
1:10
140
1.0
141
10.0
290
     0
  0
SCALE
  5
4E
102
{ACAD_REACTORS
330
47
102
}
330
47
100
AcDbScale
 70
     0
300
1:16
140
1.0
141
16.0
290
     0
  0
SCALE
  5
4F
102
{ACAD_REACTORS
330
47
102
}
330
47
100
AcDbScale
 70
     0
300
1:20
140
1.0
141
20.0
290
     0
  0
SCALE
  5
50
102
{ACAD_REACTORS
330
47
102
}
330
47
100
AcDbScale
 70
     0
300
1:30
140
1.0
141
30.0
290
     0
  0
SCALE
  5
51
102
{ACAD_REACTORS
330
47
102
}
330
47
100
AcDbScale
 70
     0
300
1:40
140
1.0
141
40.0
290
     0
  0
SCALE
  5
52
102
{ACAD_REACTORS
330
47
102
}
330
47
100
AcDbScale
 70
     0
300
1:50
140
1.0
141
50.0
290
     0
  0
SCALE
  5
53
102
{ACAD_REACTORS
330
47
102
}
330
47
100
AcDbScale
 70
     0
300
1:100
140
1.0
141
100.0
290
     0
  0
SCALE
  5
54
102
{ACAD_REACTORS
330
47
102
}
330
47
100
AcDbScale
 70
     0
300
2:1
140
2.0
141
1.0
290
     0
  0
SCALE
  5
55
102
{ACAD_REACTORS
330
47
102
}
330
47
100
AcDbScale
 70
     0
300
4:1
140
4.0
141
1.0
290
     0
  0
SCALE
  5
56
102
{ACAD_REACTORS
330
47
102
}
330
47
100
AcDbScale
 70
     0
300
8:1
140
8.0
141
1.0
290
     0
  0
SCALE
  5
57
102
{ACAD_REACTORS
330
47
102
}
330
47
100
AcDbScale
 70
     0
300
10:1
140
10.0
141
1.0
290
     0
  0
SCALE
  5
58
102
{ACAD_REACTORS
330
47
102
}
330
47
100
AcDbScale
 70
     0
300
100:1
140
100.0
141
1.0
290
     0
  0
SCALE
  5
59
102
{ACAD_REACTORS
330
47
102
}
330
47
100
AcDbScale
 70
     0
300
1/128" = 1'-0"
140
0.0078125
141
12.0
290
     0
  0
SCALE
  5
5A
102
{ACAD_REACTORS
330
47
102
}
330
47
100
AcDbScale
 70
     0
300
1/64" = 1'-0"
140
0.015625
141
12.0
290
     0
  0
SCALE
  5
5B
102
{ACAD_REACTORS
330
47
102
}
330
47
100
AcDbScale
 70
     0
300
1/32" = 1'-0"
140
0.03125
141
12.0
290
     0
  0
SCALE
  5
5C
102
{ACAD_REACTORS
330
47
102
}
330
47
100
AcDbScale
 70
     0
300
1/16" = 1'-0"
140
0.0625
141
12.0
290
     0
  0
SCALE
  5
5D
102
{ACAD_REACTORS
330
47
102
}
330
47
100
AcDbScale
 70
     0
300
3/32" = 1'-0"
140
0.09375
141
12.0
290
     0
  0
SCALE
  5
5E
102
{ACAD_REACTORS
330
47
102
}
330
47
100
AcDbScale
 70
     0
300
1/8" = 1'-0"
140
0.125
141
12.0
290
     0
  0
SCALE
  5
5F
102
{ACAD_REACTORS
330
47
102
}
330
47
100
AcDbScale
 70
     0
300
3/16" = 1'-0"
140
0.1875
141
12.0
290
     0
  0
SCALE
  5
60
102
{ACAD_REACTORS
330
47
102
}
330
47
100
AcDbScale
 70
     0
300
1/4" = 1'-0"
140
0.25
141
12.0
290
     0
  0
SCALE
  5
61
102
{ACAD_REACTORS
330
47
102
}
330
47
100
AcDbScale
 70
     0
300
3/8" = 1'-0"
140
0.375
141
12.0
290
     0
  0
SCALE
  5
62
102
{ACAD_REACTORS
330
47
102
}
330
47
100
AcDbScale
 70
     0
300
1/2" = 1'-0"
140
0.5
141
12.0
290
     0
  0
SCALE
  5
63
102
{ACAD_REACTORS
330
47
102
}
330
47
100
AcDbScale
 70
     0
300
3/4" = 1'-0"
140
0.75
141
12.0
290
     0
  0
SCALE
  5
64
102
{ACAD_REACTORS
330
47
102
}
330
47
100
AcDbScale
 70
     0
300
1" = 1'-0"
140
1.0
141
12.0
290
     0
  0
SCALE
  5
65
102
{ACAD_REACTORS
330
47
102
}
330
47
100
AcDbScale
 70
     0
300
1-1/2" = 1'-0"
140
1.5
141
12.0
290
     0
  0
SCALE
  5
66
102
{ACAD_REACTORS
330
47
102
}
330
47
100
AcDbScale
 70
     0
300
3" = 1'-0"
140
3.0
141
12.0
290
     0
  0
SCALE
  5
67
102
{ACAD_REACTORS
330
47
102
}
330
47
100
AcDbScale
 70
     0
300
6" = 1'-0"
140
6.0
141
12.0
290
     0
  0
SCALE
  5
68
102
{ACAD_REACTORS
330
47
102
}
330
47
100
AcDbScale
 70
     0
300
1'-0" = 1'-0"
140
12.0
141
12.0
290
     0
  0
ENDSEC
  0
EOF
