  0
SECTION
  2
HEADER
  9
$ACADVER
  1
AC1015
  9
$ACADMAINTVER
 70
     6
  9
$DWGCODEPAGE
  3
ANSI_1252
  9
$INSBASE
 10
0.0
 20
0.0
 30
0.0
  9
$EXTMIN
 10
-866.0
 20
0.0
 30
0.0
  9
$EXTMAX
 10
866.0
 20
127.0
 30
0.0
  9
$LIMMIN
 10
0.0
 20
0.0
  9
$LIMMAX
 10
420.0
 20
297.0
  9
$ORTHOMODE
 70
     0
  9
$REGENMODE
 70
     1
  9
$FILLMODE
 70
     1
  9
$QTEXTMODE
 70
     0
  9
$MIRRTEXT
 70
     1
  9
$LTSCALE
 40
1.0
  9
$ATTMODE
 70
     1
  9
$TEXTSIZE
 40
3.5
  9
$TRACEWID
 40
1.0
  9
$TEXTSTYLE
  7
Standard
  9
$CLAYER
  8
0
  9
$CELTYPE
  6
ByLayer
  9
$CECOLOR
 62
   256
  9
$CELTSCALE
 40
1.0
  9
$DISPSILH
 70
     0
  9
$DIMSCALE
 40
1.0
  9
$DIMASZ
 40
3.556
  9
$DIMEXO
 40
1.0
  9
$DIMDLI
 40
3.75
  9
$DIMRND
 40
0.0
  9
$DIMDLE
 40
0.0
  9
$DIMEXE
 40
1.0
  9
$DIMTP
 40
0.0
  9
$DIMTM
 40
0.0
  9
$DIMTXT
 40
3.5
  9
$DIMCEN
 40
2.5
  9
$DIMTSZ
 40
0.0
  9
$DIMTOL
 70
     0
  9
$DIMLIM
 70
     0
  9
$DIMTIH
 70
     1
  9
$DIMTOH
 70
     1
  9
$DIMSE1
 70
     0
  9
$DIMSE2
 70
     0
  9
$DIMTAD
 70
     1
  9
$DIMZIN
 70
     0
  9
$DIMBLK
  1

  9
$DIMASO
 70
     1
  9
$DIMSHO
 70
     1
  9
$DIMPOST
  1

  9
$DIMAPOST
  1

  9
$DIMALT
 70
     0
  9
$DIMALTD
 70
     3
  9
$DIMALTF
 40
0.0393700787
  9
$DIMLFAC
 40
1.0
  9
$DIMTOFL
 70
     1
  9
$DIMTVP
 40
0.0
  9
$DIMTIX
 70
     0
  9
$DIMSOXD
 70
     0
  9
$DIMSAH
 70
     0
  9
$DIMBLK1
  1

  9
$DIMBLK2
  1

  9
$DIMSTYLE
  2
ISO-25
  9
$DIMCLRD
 70
     0
  9
$DIMCLRE
 70
     0
  9
$DIMCLRT
 70
     0
  9
$DIMTFAC
 40
1.0
  9
$DIMGAP
 40
1.524
  9
$DIMJUST
 70
     0
  9
$DIMSD1
 70
     0
  9
$DIMSD2
 70
     0
  9
$DIMTOLJ
 70
     0
  9
$DIMTZIN
 70
     0
  9
$DIMALTZ
 70
     0
  9
$DIMALTTZ
 70
     0
  9
$DIMUPT
 70
     0
  9
$DIMDEC
 70
     2
  9
$DIMTDEC
 70
     2
  9
$DIMALTU
 70
     2
  9
$DIMALTTD
 70
     3
  9
$DIMTXSTY
  7
Standard
  9
$DIMAUNIT
 70
     0
  9
$DIMADEC
 70
     2
  9
$DIMALTRND
 40
0.0
  9
$DIMAZIN
 70
     0
  9
$DIMDSEP
 70
    44
  9
$DIMATFIT
 70
     3
  9
$DIMFRAC
 70
     0
  9
$DIMLDRBLK
  1

  9
$DIMLUNIT
 70
     2
  9
$DIMLWD
 70
    -2
  9
$DIMLWE
 70
    -2
  9
$DIMTMOVE
 70
     0
  9
$LUNITS
 70
     2
  9
$LUPREC
 70
     2
  9
$SKETCHINC
 40
1.0
  9
$FILLETRAD
 40
10.0
  9
$AUNITS
 70
     0
  9
$AUPREC
 70
     2
  9
$MENU
  1
.
  9
$ELEVATION
 40
0.0
  9
$PELEVATION
 40
0.0
  9
$THICKNESS
 40
0.0
  9
$LIMCHECK
 70
     0
  9
$CHAMFERA
 40
0.0
  9
$CHAMFERB
 40
0.0
  9
$CHAMFERC
 40
0.0
  9
$CHAMFERD
 40
0.0
  9
$SKPOLY
 70
     0
  9
$TDCREATE
 40
2457294.310130266
  9
$TDUCREATE
 40
2457294.226796933
  9
$TDUPDATE
 40
2457294.310156377
  9
$TDUUPDATE
 40
2457294.226823044
  9
$TDINDWG
 40
0.0000000116
  9
$TDUSRTIMER
 40
0.0000000116
  9
$USRTIMER
 70
     1
  9
$ANGBASE
 50
0.0
  9
$ANGDIR
 70
     0
  9
$PDMODE
 70
     0
  9
$PDSIZE
 40
-1.0
  9
$PLINEWID
 40
0.0
  9
$SPLFRAME
 70
     0
  9
$SPLINETYPE
 70
     6
  9
$SPLINESEGS
 70
     8
  9
$HANDSEED
  5
153
  9
$SURFTAB1
 70
     6
  9
$SURFTAB2
 70
     6
  9
$SURFTYPE
 70
     6
  9
$SURFU
 70
     6
  9
$SURFV
 70
     6
  9
$UCSBASE
  2

  9
$UCSNAME
  2

  9
$UCSORG
 10
0.0
 20
0.0
 30
0.0
  9
$UCSXDIR
 10
1.0
 20
0.0
 30
0.0
  9
$UCSYDIR
 10
0.0
 20
1.0
 30
0.0
  9
$UCSORTHOREF
  2

  9
$UCSORTHOVIEW
 70
     0
  9
$UCSORGTOP
 10
0.0
 20
0.0
 30
0.0
  9
$UCSORGBOTTOM
 10
0.0
 20
0.0
 30
0.0
  9
$UCSORGLEFT
 10
0.0
 20
0.0
 30
0.0
  9
$UCSORGRIGHT
 10
0.0
 20
0.0
 30
0.0
  9
$UCSORGFRONT
 10
0.0
 20
0.0
 30
0.0
  9
$UCSORGBACK
 10
0.0
 20
0.0
 30
0.0
  9
$PUCSBASE
  2

  9
$PUCSNAME
  2

  9
$PUCSORG
 10
0.0
 20
0.0
 30
0.0
  9
$PUCSXDIR
 10
1.0
 20
0.0
 30
0.0
  9
$PUCSYDIR
 10
0.0
 20
1.0
 30
0.0
  9
$PUCSORTHOREF
  2

  9
$PUCSORTHOVIEW
 70
     0
  9
$PUCSORGTOP
 10
0.0
 20
0.0
 30
0.0
  9
$PUCSORGBOTTOM
 10
0.0
 20
0.0
 30
0.0
  9
$PUCSORGLEFT
 10
0.0
 20
0.0
 30
0.0
  9
$PUCSORGRIGHT
 10
0.0
 20
0.0
 30
0.0
  9
$PUCSORGFRONT
 10
0.0
 20
0.0
 30
0.0
  9
$PUCSORGBACK
 10
0.0
 20
0.0
 30
0.0
  9
$USERI1
 70
     0
  9
$USERI2
 70
     0
  9
$USERI3
 70
     0
  9
$USERI4
 70
     0
  9
$USERI5
 70
     0
  9
$USERR1
 40
0.0
  9
$USERR2
 40
0.0
  9
$USERR3
 40
0.0
  9
$USERR4
 40
0.0
  9
$USERR5
 40
0.0
  9
$WORLDVIEW
 70
     1
  9
$SHADEDGE
 70
     3
  9
$SHADEDIF
 70
    70
  9
$TILEMODE
 70
     1
  9
$MAXACTVP
 70
    64
  9
$PINSBASE
 10
0.0
 20
0.0
 30
0.0
  9
$PLIMCHECK
 70
     0
  9
$PEXTMIN
 10
1.0000000000E+20
 20
1.0000000000E+20
 30
1.0000000000E+20
  9
$PEXTMAX
 10
-1.0000000000E+20
 20
-1.0000000000E+20
 30
-1.0000000000E+20
  9
$PLIMMIN
 10
0.0
 20
0.0
  9
$PLIMMAX
 10
420.0
 20
297.0
  9
$UNITMODE
 70
     0
  9
$VISRETAIN
 70
     1
  9
$PLINEGEN
 70
     0
  9
$PSLTSCALE
 70
     1
  9
$TREEDEPTH
 70
  3020
  9
$CMLSTYLE
  2
Standard
  9
$CMLJUST
 70
     0
  9
$CMLSCALE
 40
20.0
  9
$PROXYGRAPHICS
 70
     1
  9
$MEASUREMENT
 70
     1
  9
$CELWEIGHT
370
    -1
  9
$ENDCAPS
280
     0
  9
$JOINSTYLE
280
     0
  9
$LWDISPLAY
290
     1
  9
$INSUNITS
 70
     4
  9
$HYPERLINKBASE
  1

  9
$STYLESHEET
  1

  9
$XEDIT
290
     1
  9
$CEPSNTYPE
380
     0
  9
$PSTYLEMODE
290
     1
  9
$FINGERPRINTGUID
  2
{AA364418-C99B-4B5A-AA8E-5AEE1AEE34F1}
  9
$VERSIONGUID
  2
{FAEB1C32-E019-11D5-929B-00C0DF256EC4}
  9
$EXTNAMES
290
     1
  9
$PSVPSCALE
 40
0.0
  9
$OLESTARTUP
290
     0
  0
ENDSEC
  0
SECTION
  2
CLASSES
  0
CLASS
  1
ACDBDICTIONARYWDFLT
  2
AcDbDictionaryWithDefault
  3
ObjectDBX Classes
 90
        0
280
     0
281
     0
  0
CLASS
  1
VISUALSTYLE
  2
AcDbVisualStyle
  3
ObjectDBX Classes
 90
     4095
280
     0
281
     0
  0
CLASS
  1
MATERIAL
  2
AcDbMaterial
  3
ObjectDBX Classes
 90
     1153
280
     0
281
     0
  0
CLASS
  1
SCALE
  2
AcDbScale
  3
ObjectDBX Classes
 90
     1153
280
     0
281
     0
  0
CLASS
  1
TABLESTYLE
  2
AcDbTableStyle
  3
ObjectDBX Classes
 90
     4095
280
     0
281
     0
  0
CLASS
  1
MLEADERSTYLE
  2
AcDbMLeaderStyle
  3
ACDB_MLEADERSTYLE_CLASS
 90
     4095
280
     0
281
     0
  0
CLASS
  1
SUN
  2
AcDbSun
  3
SCENEOE
 90
     1153
280
     0
281
     0
  0
CLASS
  1
ACDBPLACEHOLDER
  2
AcDbPlaceHolder
  3
ObjectDBX Classes
 90
        0
280
     0
281
     0
  0
CLASS
  1
LAYOUT
  2
AcDbLayout
  3
ObjectDBX Classes
 90
        0
280
     0
281
     0
  0
ENDSEC
  0
SECTION
  2
TABLES
  0
TABLE
  2
VPORT
  5
8
330
0
100
AcDbSymbolTable
 70
     1
  0
VPORT
  5
29
330
8
100
AcDbSymbolTableRecord
100
AcDbViewportTableRecord
  2
*Active
 70
     0
 10
0.0
 20
0.0
 11
1.0
 21
1.0
 12
0.0
 22
63.5
 13
0.0
 23
0.0
 14
10.0
 24
10.0
 15
10.0
 25
10.0
 16
0.0
 26
0.0
 36
1.0
 17
0.0
 27
0.0
 37
0.0
 40
129.54
 41
13.6377952756
 42
50.0
 43
0.0
 44
0.0
 50
0.0
 51
0.0
 71
     0
 72
   100
 73
     1
 74
     3
 75
     0
 76
     0
 77
     0
 78
     0
281
     0
 65
     1
110
0.0
120
0.0
130
0.0
111
1.0
121
0.0
131
0.0
112
0.0
122
1.0
132
0.0
 79
     0
146
0.0
  0
ENDTAB
  0
TABLE
  2
LTYPE
  5
5
330
0
100
AcDbSymbolTable
 70
     6
  0
LTYPE
  5
14
330
5
100
AcDbSymbolTableRecord
100
AcDbLinetypeTableRecord
  2
ByBlock
 70
     0
  3

 72
    65
 73
     0
 40
0.0
  0
LTYPE
  5
15
330
5
100
AcDbSymbolTableRecord
100
AcDbLinetypeTableRecord
  2
ByLayer
 70
     0
  3

 72
    65
 73
     0
 40
0.0
  0
LTYPE
  5
16
330
5
100
AcDbSymbolTableRecord
100
AcDbLinetypeTableRecord
  2
Continuous
 70
     0
  3
Solid line
 72
    65
 73
     0
 40
0.0
  0
LTYPE
  5
6E
330
5
100
AcDbSymbolTableRecord
100
AcDbLinetypeTableRecord
  2
HIDDEN
 70
     0
  3
Hidden __ __ __ __ __ __ __ __ __ __ __ __ __ __
 72
    65
 73
     2
 40
1.905
 49
1.27
 74
     0
 49
-0.635
 74
     0
  0
LTYPE
  5
6F
330
5
100
AcDbSymbolTableRecord
100
AcDbLinetypeTableRecord
  2
PHANTOM
 70
     0
  3
Phantom ______  __  __  ______  __  __  ______
 72
    65
 73
     6
 40
12.7
 49
6.35
 74
     0
 49
-1.27
 74
     0
 49
1.27
 74
     0
 49
-1.27
 74
     0
 49
1.27
 74
     0
 49
-1.27
 74
     0
  0
LTYPE
  5
70
330
5
100
AcDbSymbolTableRecord
100
AcDbLinetypeTableRecord
  2
CENTER
 70
     0
  3
Center ____ _ ____ _ ____ _ ____ _ ____ _ ____
 72
    65
 73
     4
 40
10.16
 49
6.35
 74
     0
 49
-1.27
 74
     0
 49
1.27
 74
     0
 49
-1.27
 74
     0
  0
LTYPE
  5
71
330
5
100
AcDbSymbolTableRecord
100
AcDbLinetypeTableRecord
  2
CENTERX2
 70
     0
  3
Center (2x) ________  __  ________  __  _____
 72
    65
 73
     4
 40
20.32
 49
12.7
 74
     0
 49
-2.54
 74
     0
 49
2.54
 74
     0
 49
-2.54
 74
     0
  0
LTYPE
  5
72
330
5
100
AcDbSymbolTableRecord
100
AcDbLinetypeTableRecord
  2
DOT2
 70
     0
  3
Dot (.5x) ........................................
 72
    65
 73
     2
 40
0.635
 49
0.0
 74
     0
 49
-0.635
 74
     0
  0
ENDTAB
  0
TABLE
  2
LAYER
  5
2
330
0
100
AcDbSymbolTable
 70
     1
  0
LAYER
  5
10
330
2
100
AcDbSymbolTableRecord
100
AcDbLayerTableRecord
  2
0
 70
     0
 62
     7
  6
Continuous
370
    -3
390
F
  0
ENDTAB
  0
TABLE
  2
STYLE
  5
3
330
0
100
AcDbSymbolTable
 70
     1
  0
STYLE
  5
11
330
3
100
AcDbSymbolTableRecord
100
AcDbTextStyleTableRecord
  2
Standard
 70
     0
 40
0.0
 41
1.0
 50
0.0
 71
     0
 42
3.5
  3
txt
  4

  0
ENDTAB
  0
TABLE
  2
VIEW
  5
6
330
0
100
AcDbSymbolTable
 70
     0
  0
ENDTAB
  0
TABLE
  2
UCS
  5
7
330
0
100
AcDbSymbolTable
 70
     0
  0
ENDTAB
  0
TABLE
  2
APPID
  5
9
330
0
100
AcDbSymbolTable
 70
     1
  0
APPID
  5
12
330
9
100
AcDbSymbolTableRecord
100
AcDbRegAppTableRecord
  2
ACAD
 70
     0
  0
ENDTAB
  0
TABLE
  2
DIMSTYLE
  5
A
330
0
100
AcDbSymbolTable
 70
     1
100
AcDbDimStyleTable
  0
DIMSTYLE
105
27
330
A
100
AcDbSymbolTableRecord
100
AcDbDimStyleTableRecord
  2
ISO-25
 70
     0
 41
2.5
 42
0.625
 43
3.75
 44
1.25
 73
     0
 74
     0
 77
     1
 78
     8
140
2.5
141
2.5
143
0.0393700787
147
0.625
171
     3
172
     1
178
     0
271
     2
272
     2
274
     3
278
    44
283
     0
284
     8
340
11
  0
ENDTAB
  0
TABLE
  2
BLOCK_RECORD
  5
1
330
0
100
AcDbSymbolTable
 70
     1
  0
BLOCK_RECORD
  5
1F
330
1
100
AcDbSymbolTableRecord
100
AcDbBlockTableRecord
  2
*Model_Space
340
22
  0
BLOCK_RECORD
  5
1B
330
1
100
AcDbSymbolTableRecord
100
AcDbBlockTableRecord
  2
*Paper_Space
340
1E
  0
BLOCK_RECORD
  5
23
330
1
100
AcDbSymbolTableRecord
100
AcDbBlockTableRecord
  2
*Paper_Space0
340
26
  0
ENDTAB
  0
ENDSEC
  0
SECTION
  2
BLOCKS
  0
BLOCK
  5
20
330
1F
100
AcDbEntity
  8
0
100
AcDbBlockBegin
  2
*Model_Space
 70
     0
 10
0.0
 20
0.0
 30
0.0
  3
*Model_Space
  1

  0
ENDBLK
  5
21
330
1F
100
AcDbEntity
  8
0
100
AcDbBlockEnd
  0
BLOCK
  5
1C
330
1B
100
AcDbEntity
 67
     1
  8
0
100
AcDbBlockBegin
  2
*Paper_Space
 70
     0
 10
0.0
 20
0.0
 30
0.0
  3
*Paper_Space
  1

  0
ENDBLK
  5
1D
330
1B
100
AcDbEntity
 67
     1
  8
0
100
AcDbBlockEnd
  0
BLOCK
  5
24
330
23
100
AcDbEntity
  8
0
100
AcDbBlockBegin
  2
*Paper_Space0
 70
     0
 10
0.0
 20
0.0
 30
0.0
  3
*Paper_Space0
  1

  0
ENDBLK
  5
25
330
23
100
AcDbEntity
  8
0
100
AcDbBlockEnd
  0
ENDSEC
  0
SECTION
  2
ENTITIES
  0
SPLINE
  5
AC
330
1F
100
AcDbEntity
  8
0
  6
Continuous
 62
     7
370
    15
100
AcDbSpline
210
0.0
220
0.0
230
1.0
 70
     8
 71
     3
 72
    10
 73
     6
 74
     0
 42
0.000000001
 43
0.00000001
 40
0.0
 40
0.0
 40
0.0
 40
0.0
 40
0.5
 40
0.5
 40
1.0
 40
1.0
 40
1.0
 40
1.0
 10
854.9574031022721
 20
50.0
 30
0.0
 10
854.957403102272
 20
46.72179793424812
 30
0.0
 10
854.9466809991396
 20
43.44377124931478
 30
0.0
 10
854.8645044647221
 20
36.88871127461445
 30
0.0
 10
854.7924207148092
 20
33.61168827857571
 30
0.0
 10
854.6357609920568
 20
30.33604868681539
 30
0.0
  0
LWPOLYLINE
  5
AD
330
1F
100
AcDbEntity
  8
0
  6
Continuous
 62
     7
370
    15
100
AcDbPolyline
 90
       14
 70
   128
 43
0.0
 10
854.6357609921
 20
30.3360486868
 10
853.954201839
 20
29.3655219457
 10
852.9300389364
 20
28.4232500248
 10
851.5753908033
 20
27.5203824594
 10
849.9062864615
 20
26.6676025283
 10
847.9424757701
 20
25.8750008432
 10
845.7071957331
 20
25.1519559497
 10
843.2268955453
 20
24.5070233554
 10
840.530923629
 20
23.9478342956
 10
837.6511803658
 20
23.4810054357
 10
834.6217406318
 20
23.1120605792
 10
831.4784506029
 20
22.8453653062
 10
828.258503601
 20
22.6840753177
 10
825.0
 20
22.630099095
  0
LWPOLYLINE
  5
AE
330
1F
100
AcDbEntity
  8
0
  6
Continuous
 62
     7
370
    15
100
AcDbPolyline
 90
       14
 70
   128
 43
0.0
 10
-825.0
 20
22.630099095
 10
-828.258503601
 20
22.6840753177
 10
-831.4784506029
 20
22.8453653062
 10
-834.6217406318
 20
23.1120605792
 10
-837.6511803658
 20
23.4810054357
 10
-840.530923629
 20
23.9478342956
 10
-843.2268955453
 20
24.5070233554
 10
-845.7071957331
 20
25.1519559497
 10
-847.9424757701
 20
25.8750008432
 10
-849.9062864615
 20
26.6676025283
 10
-851.5753908033
 20
27.5203824594
 10
-852.9300389364
 20
28.4232500248
 10
-853.954201839
 20
29.3655219457
 10
-854.6357609921
 20
30.3360486868
  0
SPLINE
  5
AF
330
1F
100
AcDbEntity
  8
0
  6
Continuous
 62
     7
370
    15
100
AcDbSpline
210
0.0
220
0.0
230
1.0
 70
     8
 71
     3
 72
    10
 73
     6
 74
     0
 42
0.000000001
 43
0.00000001
 40
0.0
 40
0.0
 40
0.0
 40
0.0
 40
0.5
 40
0.5
 40
1.0
 40
1.0
 40
1.0
 40
1.0
 10
-854.6357609920568
 20
30.33604868681543
 30
0.0
 10
-854.7924207148089
 20
33.61168827857574
 30
0.0
 10
-854.864504464722
 20
36.88871127461448
 30
0.0
 10
-854.9466809991396
 20
43.44377124931479
 30
0.0
 10
-854.9574031022722
 20
46.7217979342481
 30
0.0
 10
-854.9574031022721
 20
49.99999999999999
 30
0.0
  0
SPLINE
  5
B5
330
1F
100
AcDbEntity
  8
0
  6
Continuous
 62
     7
370
    15
100
AcDbSpline
210
0.0
220
0.0
230
1.0
 70
     8
 71
     3
 72
    14
 73
    10
 74
     0
 42
0.000000001
 43
0.00000001
 40
0.0
 40
0.0
 40
0.0
 40
0.0
 40
0.5000000000000185
 40
0.5000000000000185
 40
0.6250000000000159
 40
0.6250000000000159
 40
0.7500000000000131
 40
0.7500000000000131
 40
1.0
 40
1.0
 40
1.0
 40
1.0
 10
-848.9604683567555
 20
13.76815842528886
 30
0.0
 10
-850.1446914735335
 20
15.42125828376721
 30
0.0
 10
-851.1507258933872
 20
17.22485546630909
 30
0.0
 10
-852.2080802263928
 20
19.68047550753658
 30
0.0
 10
-852.4099302101689
 20
20.18340536992223
 30
0.0
 10
-852.790039244653
 20
21.20273210366103
 30
0.0
 10
-852.9678434704123
 20
21.71763651576483
 30
0.0
 10
-853.4654253940907
 20
23.2779558348724
 30
0.0
 10
-853.7496014218372
 20
24.33888461393484
 30
0.0
 10
-853.9860477222797
 20
25.42123941330872
 30
0.0
  0
SPLINE
  5
BA
330
1F
100
AcDbEntity
  8
0
  6
Continuous
 62
     7
370
    15
100
AcDbSpline
210
0.0
220
0.0
230
1.0
 70
     8
 71
     3
 72
    16
 73
    12
 74
     0
 42
0.000000001
 43
0.00000001
 40
0.0
 40
0.0
 40
0.0
 40
0.0
 40
0.2499999999999999
 40
0.2499999999999999
 40
0.4999999999999999
 40
0.4999999999999999
 40
0.6249999999999999
 40
0.6249999999999999
 40
0.7499999999999998
 40
0.7499999999999998
 40
1.0
 40
1.0
 40
1.0
 40
1.0
 10
853.9860477222797
 20
25.4212394133087
 30
0.0
 10
853.7494101564125
 20
24.3380090787695
 30
0.0
 10
853.466045887419
 20
23.28112377073424
 30
0.0
 10
852.8084948244866
 20
21.21674140469511
 30
0.0
 10
852.4342725804712
 20
20.20927353084418
 30
0.0
 10
851.801718530767
 20
18.73508796707396
 30
0.0
 10
851.5782430047957
 20
18.2484800118048
 30
0.0
 10
851.1098756206039
 20
17.29495484409521
 30
0.0
 10
850.8656377286726
 20
16.82915288595382
 30
0.0
 10
850.1024169444638
 20
15.46353385604628
 30
0.0
 10
849.5530729159818
 20
14.59539655221921
 30
0.0
 10
848.9604683567555
 20
13.76815842528883
 30
0.0
  0
SPLINE
  5
C5
330
1F
100
AcDbEntity
  8
0
  6
Continuous
 62
     7
370
    15
100
AcDbSpline
210
0.0
220
0.0
230
1.0
 70
    24
 71
     3
 72
     8
 73
     4
 74
     0
 42
0.000000001
 43
0.00000001
 40
0.0
 40
0.0
 40
0.0
 40
0.0
 40
1.0
 40
1.0
 40
1.0
 40
1.0
 10
851.0000000000001
 20
70.00000000000003
 30
0.0
 10
851.0000000000001
 20
77.71796255051397
 30
0.0
 10
851.0000000000001
 20
85.45417196591764
 30
0.0
 10
851.0000000000001
 20
92.9539004330554
 30
0.0
  0
LWPOLYLINE
  5
C7
330
1F
100
AcDbEntity
  8
0
  6
Continuous
 62
     7
370
    15
100
AcDbPolyline
 90
       16
 70
   128
 43
0.0
 10
851.0
 20
92.9539004331
 10
850.8247006518
 20
93.7620463227
 10
850.3007232235
 20
94.5613379968
 10
849.4338085214
 20
95.3430182486
 10
848.2334546446
 20
96.0985228257
 10
846.7128129211
 20
96.8195742618
 10
844.88854382
 20
97.4982725664
 10
842.7806344153
 20
98.1271817791
 10
840.4121794035
 20
98.6994114387
 10
837.8091280734
 20
99.2086920773
 10
835.0
 20
99.6494439099
 10
832.0155725784
 20
100.016837967
 10
828.88854382
 20
100.3068490024
 10
825.6531741062
 20
100.5162995946
 10
822.3449108246
 20
100.6428949591
 10
819.0
 20
100.6852480905
  0
SPLINE
  5
C9
330
1F
100
AcDbEntity
  8
0
  6
Continuous
 62
     7
370
    15
100
AcDbSpline
210
0.0
220
0.0
230
1.0
 70
    24
 71
     3
 72
     8
 73
     4
 74
     0
 42
0.000000001
 43
0.00000001
 40
0.0
 40
0.0
 40
0.0
 40
0.0
 40
1.0
 40
1.0
 40
1.0
 40
1.0
 10
-851.0000000000001
 20
92.95390043305548
 30
0.0
 10
-851.0000000000001
 20
85.45417196591772
 30
0.0
 10
-851.0000000000001
 20
77.71796255051403
 30
0.0
 10
-851.0000000000001
 20
70.00000000000006
 30
0.0
  0
LWPOLYLINE
  5
CA
330
1F
100
AcDbEntity
  8
0
  6
Continuous
 62
     7
370
    15
100
AcDbPolyline
 90
       16
 70
   128
 43
0.0
 10
-819.0
 20
100.6852480905
 10
-822.3449108246
 20
100.6428949591
 10
-825.6531741062
 20
100.5162995946
 10
-828.88854382
 20
100.3068490024
 10
-832.0155725784
 20
100.016837967
 10
-835.0
 20
99.6494439099
 10
-837.8091280734
 20
99.2086920773
 10
-840.4121794035
 20
98.6994114387
 10
-842.7806344153
 20
98.1271817791
 10
-844.88854382
 20
97.4982725664
 10
-846.7128129211
 20
96.8195742618
 10
-848.2334546446
 20
96.0985228257
 10
-849.4338085214
 20
95.3430182486
 10
-850.3007232235
 20
94.5613379968
 10
-850.8247006518
 20
93.7620463227
 10
-851.0
 20
92.9539004331
  0
SPLINE
  5
D5
330
1F
100
AcDbEntity
  8
0
  6
Continuous
 62
     7
370
    15
100
AcDbSpline
210
0.0
220
0.0
230
1.0
 70
     8
 71
     3
 72
    33
 73
    29
 74
     0
 42
0.000000001
 43
0.00000001
 40
0.0
 40
0.0
 40
0.0
 40
0.0
 40
0.0202196653478123
 40
0.0391314596967608
 40
0.0567353804910981
 40
0.0730314256544049
 40
0.0880195936719634
 40
0.1016998837124879
 40
0.114072295814202
 40
0.1251368311808866
 40
0.1908218749430282
 40
0.2493812605581114
 40
0.3138785666414384
 40
0.3736265096095526
 40
0.4379289375549349
 40
0.4988239844850865
 40
0.5658038689991239
 40
0.6297837245978973
 40
0.6907832955787078
 40
0.7488253725958899
 40
0.7826115282526983
 40
0.8157002441301892
 40
0.8480983169816928
 40
0.8798129876225369
 40
0.910851975171844
 40
0.9412235139660563
 40
0.9709363932832933
 40
1.0
 40
1.0
 40
1.0
 40
1.0
 10
-825.0000000000002
 20
0.4434099087459731
 30
0.0
 10
-825.1747100197566
 20
0.4512223401033633
 30
0.0
 10
-825.5128292704521
 20
0.4663418703990535
 30
0.0
 10
-826.0029373352082
 20
0.4993965903999364
 30
0.0
 10
-826.4590527299279
 20
0.537153025329487
 30
0.0
 10
-826.8811683473645
 20
0.5787468267406531
 30
0.0
 10
-827.2692867348088
 20
0.622488069198901
 30
0.0
 10
-827.6234055561243
 20
0.6670372448478179
 30
0.0
 10
-827.9435323743486
 20
0.7111230426799925
 30
0.0
 10
-828.7117206463647
 20
0.8252030853303227
 30
0.0
 10
-829.875921976601
 20
1.039350529369591
 30
0.0
 10
-831.4929950379092
 20
1.430740275345364
 30
0.0
 10
-833.0500335890696
 20
1.899559588625227
 30
0.0
 10
-834.6440358400905
 20
2.477329852694873
 30
0.0
 10
-836.1926617117072
 20
3.137727548517745
 30
0.0
 10
-837.7832997278108
 20
3.923370472499569
 30
0.0
 10
-839.3483357291112
 20
4.81101665205718
 30
0.0
 10
-840.8863562957778
 20
5.806874607759235
 30
0.0
 10
-842.3232526472956
 20
6.856028244046575
 30
0.0
 10
-843.4954950577893
 20
7.813005981479715
 30
0.0
 10
-844.4329011393412
 20
8.647234212486927
 30
0.0
 10
-845.1650703448277
 20
9.3405679452786
 30
0.0
 10
-845.8687195678988
 20
10.04869342597345
 30
0.0
 10
-846.5438240088312
 20
10.77011821673891
 30
0.0
 10
-847.1905038139665
 20
11.50316009595709
 30
0.0
 10
-847.8083187911566
 20
12.24696759026092
 30
0.0
 10
-848.3988620597585
 20
12.99786196427294
 30
0.0
 10
-848.7746499675166
 20
13.51329082784912
 30
0.0
 10
-848.9604683567555
 20
13.76815842528878
 30
0.0
  0
SPLINE
  5
D9
330
1F
100
AcDbEntity
  8
0
  6
Continuous
 62
     7
370
    15
100
AcDbSpline
210
0.0
220
0.0
230
1.0
 70
     8
 71
     3
 72
    33
 73
    29
 74
     0
 42
0.000000001
 43
0.00000001
 40
0.0
 40
0.0
 40
0.0
 40
0.0
 40
0.0202212354244351
 40
0.0391342357643363
 40
0.0567389022188986
 40
0.0730351873071516
 40
0.0880230854604199
 40
0.1017026243521932
 40
0.1140738570016967
 40
0.1251368547060038
 40
0.1908331166778582
 40
0.2493813072006872
 40
0.313986274089249
 40
0.3736266114461613
 40
0.4379001848891953
 40
0.4988241582787526
 40
0.5659383232591323
 40
0.6299577752051915
 40
0.6909095886292276
 40
0.7488254682953567
 40
0.782749098035813
 40
0.81593099293222
 40
0.8483802934275366
 40
0.880106721483982
 40
0.9111206059523745
 40
0.9414329106875551
 40
0.9710552655003826
 40
1.0
 40
1.0
 40
1.0
 40
1.0
 10
825.0000000000001
 20
0.4434099087460286
 30
0.0
 10
825.1747407531026
 20
0.4512222346068628
 30
0.0
 10
825.5129172139385
 20
0.4663414593074761
 30
0.0
 10
826.0032055275343
 20
0.4993918525432045
 30
0.0
 10
826.4594423181459
 20
0.5371455974346323
 30
0.0
 10
826.881592667824
 20
0.5787393954928971
 30
0.0
 10
827.2696501710813
 20
0.6224835198292977
 30
0.0
 10
827.6236422636789
 20
0.6670368001140264
 30
0.0
 10
827.9436125404843
 20
0.7111259588400004
 30
0.0
 10
828.711746466481
 20
0.8252246902088894
 30
0.0
 10
829.8762410917992
 20
1.039356430924836
 30
0.0
 10
831.4939407965594
 20
1.430998544944634
 30
0.0
 10
833.0510014654494
 20
1.899850740234327
 30
0.0
 10
834.644313743577
 20
2.477628412521256
 30
0.0
 10
836.1924015443105
 20
3.13760584263309
 30
0.0
 10
837.7840949990959
 20
3.923796929507929
 30
0.0
 10
839.3512176782265
 20
4.812441889860166
 30
0.0
 10
840.8905825418716
 20
5.80916453028324
 30
0.0
 10
842.3259686670195
 20
6.857826357457735
 30
0.0
 10
843.4973961605797
 20
7.814721992840536
 30
0.0
 10
844.4357581063098
 20
8.649700120586752
 30
0.0
 10
845.1701818412301
 20
9.34513482529674
 30
0.0
 10
845.8750601489285
 20
10.05459671348422
 30
0.0
 10
846.5503803328133
 20
10.77654907656012
 30
0.0
 10
847.1963415160169
 20
11.50927359487028
 30
0.0
 10
847.8126524566479
 20
12.25188502516814
 30
0.0
 10
848.4010652805723
 20
13.00069938239103
 30
0.0
 10
848.7754445186835
 20
13.51431960364895
 30
0.0
 10
848.9604683567558
 20
13.76815842528878
 30
0.0
  0
SPLINE
  5
DD
330
1F
100
AcDbEntity
  8
0
  6
Continuous
 62
     7
370
    15
100
AcDbSpline
210
0.0
220
0.0
230
1.0
 70
     8
 71
     3
 72
    18
 73
    14
 74
     0
 42
0.000000001
 43
0.00000001
 40
0.0
 40
0.0
 40
0.0
 40
0.0
 40
0.0458089823894359
 40
0.0937131288847507
 40
0.1437136281724975
 40
0.1958115254113021
 40
0.2500077443822001
 40
0.3690325114257726
 40
0.5000052408384456
 40
0.6178427012366192
 40
0.7499926623721973
 40
0.852183866189111
 40
1.0
 40
1.0
 40
1.0
 40
1.0
 10
-383.0
 20
0.9980039920159944
 30
0.0
 10
-383.0008136606832
 20
0.967922365976176
 30
0.0
 10
-383.0024781964248
 20
0.9063832714342468
 30
0.0
 10
-383.0152507068682
 20
0.8176646520671599
 30
0.0
 10
-383.0354238296281
 20
0.7296172278180857
 30
0.0
 10
-383.0638379292845
 20
0.6432851771523002
 30
0.0
 10
-383.1143076245671
 20
0.5267664029672825
 30
0.0
 10
-383.2012389548494
 20
0.3870099466272703
 30
0.0
 10
-383.3306118171982
 20
0.2486700780440637
 30
0.0
 10
-383.4835825036507
 20
0.136773708549906
 30
0.0
 10
-383.6368960047843
 20
0.0632251111341992
 30
0.0
 10
-383.8129617478768
 20
0.0110103863196626
 30
0.0
 10
-383.9305036698725
 20
0.0040910425210677
 30
0.0
 10
-384.0000000000001
 20
0.0
 30
0.0
  0
SPLINE
  5
E1
330
1F
100
AcDbEntity
  8
0
  6
Continuous
 62
     7
370
    15
100
AcDbSpline
210
0.0
220
0.0
230
1.0
 70
     8
 71
     3
 72
    19
 73
    15
 74
     0
 42
0.000000001
 43
0.00000001
 40
0.0
 40
0.0
 40
0.0
 40
0.0
 40
0.0645957984105034
 40
0.1218940820442574
 40
0.1718948524028428
 40
0.2145981137014501
 40
0.2500038747871309
 40
0.3821479036487982
 40
0.4999952090589747
 40
0.6309588612789552
 40
0.7499927706996371
 40
0.839150602292565
 40
0.9224847278343654
 40
1.0
 40
1.0
 40
1.0
 40
1.0
 10
-416.0000000000002
 20
0.0
 30
0.0
 10
-416.0304069798846
 20
0.000793548270317
 30
0.0
 10
-416.087785803151
 20
0.002290996097401
 30
0.0
 10
-416.16817592457
 20
0.0133487791699888
 30
0.0
 10
-416.2378478894818
 20
0.0279149073301038
 30
0.0
 10
-416.296811870868
 20
0.0443969032085795
 30
0.0
 10
-416.392181709617
 20
0.0768723637425139
 30
0.0
 10
-416.5164040155661
 20
0.1368730314969951
 30
0.0
 10
-416.6693918442944
 20
0.2486292389629885
 30
0.0
 10
-416.7987188436857
 20
0.3870341028801572
 30
0.0
 10
-416.8957967993185
 20
0.5427607585151428
 30
0.0
 10
-416.9570419195824
 20
0.6971385273850245
 30
0.0
 10
-416.9928522448727
 20
0.8429393184615358
 30
0.0
 10
-416.9976755775747
 20
0.9475775576780476
 30
0.0
 10
-417.0000000000001
 20
0.99800399201605
 30
0.0
  0
SPLINE
  5
E4
330
1F
100
AcDbEntity
  8
0
  6
Continuous
 62
     7
370
    15
100
AcDbSpline
210
0.0
220
0.0
230
1.0
 70
     8
 71
     3
 72
    19
 73
    15
 74
     0
 42
0.000000001
 43
0.00000001
 40
0.0
 40
0.0
 40
0.0
 40
0.0
 40
0.0645976216510098
 40
0.1218972230815258
 40
0.1718988057926591
 40
0.2146023739993109
 40
0.2500079365487525
 40
0.3821487581424659
 40
0.4999953518886525
 40
0.6309589647812972
 40
0.7499928421207049
 40
0.8391506478873568
 40
0.9224847496233325
 40
1.0
 40
1.0
 40
1.0
 40
1.0
 10
384.0000000000001
 20
0.0
 30
0.0
 10
383.9695921607334
 20
0.0007935927407998
 30
0.0
 10
383.9122118567563
 20
0.0022911208058807
 30
0.0
 10
383.831819871767
 20
0.0133494523813921
 30
0.0
 10
383.7621467587197
 20
0.0279161690368984
 30
0.0
 10
383.7031823417361
 20
0.0443986335685875
 30
0.0
 10
383.6078139251144
 20
0.0768741971480386
 30
0.0
 10
383.4835937115406
 20
0.1368744659753507
 30
0.0
 10
383.3306078208395
 20
0.2486296389587056
 30
0.0
 10
383.2012810392496
 20
0.387034238344755
 30
0.0
 10
383.1042031499567
 20
0.5427608691305763
 30
0.0
 10
383.0429580575264
 20
0.6971386060281165
 30
0.0
 10
383.0071477515186
 20
0.8429393612826019
 30
0.0
 10
383.0023244212555
 20
0.947577571522612
 30
0.0
 10
383.0000000000001
 20
0.9980039920159944
 30
0.0
  0
SPLINE
  5
E5
330
1F
100
AcDbEntity
  8
0
  6
Continuous
 62
     7
370
    15
100
AcDbSpline
210
0.0
220
0.0
230
1.0
 70
     8
 71
     3
 72
    18
 73
    14
 74
     0
 42
0.000000001
 43
0.00000001
 40
0.0
 40
0.0
 40
0.0
 40
0.0
 40
0.0458089934476177
 40
0.0937131526124764
 40
0.1437136661819902
 40
0.1958115793154641
 40
0.2500078157944259
 40
0.369032612501959
 40
0.5000053836507066
 40
0.6178435660216778
 40
0.7499967241077804
 40
0.8521874904952855
 40
1.0
 40
1.0
 40
1.0
 40
1.0
 10
417.0000000000001
 20
0.99800399201605
 30
0.0
 10
416.9991863388786
 20
0.9679223588139191
 30
0.0
 10
416.9975218022208
 20
0.9063832488937912
 30
0.0
 10
416.9847492850431
 20
0.8176646077925204
 30
0.0
 10
416.9645761519094
 20
0.72961716146068
 30
0.0
 10
416.9361620370768
 20
0.6432850892494346
 30
0.0
 10
416.8856923201644
 20
0.5267662918405913
 30
0.0
 10
416.7987609300696
 20
0.3870098122421145
 30
0.0
 10
416.6693878458364
 20
0.2486696746444444
 30
0.0
 10
416.5164152159643
 20
0.1367722708687652
 30
0.0
 10
416.3630998483906
 20
0.0632235251078889
 30
0.0
 10
416.1870346307573
 20
0.0110099206039188
 30
0.0
 10
416.0694946232688
 20
0.0040908482107777
 30
0.0
 10
416.0000000000002
 20
0.0
 30
0.0
  0
SPLINE
  5
EA
330
1F
100
AcDbEntity
  8
0
  6
Continuous
 62
     7
370
    15
100
AcDbSpline
210
0.0
220
0.0
230
1.0
 70
     8
 71
     3
 72
    18
 73
    14
 74
     0
 42
0.000000001
 43
0.00000001
 40
0.0
 40
0.0
 40
0.0
 40
0.0
 40
0.0787106294313876
 40
0.1466978507946776
 40
0.2039620626937748
 40
0.2505048006908782
 40
0.3841681518136127
 40
0.4997808171189074
 40
0.6322104090585109
 40
0.7496532911496556
 40
0.8376005712906585
 40
0.9206023505090084
 40
1.0
 40
1.0
 40
1.0
 40
1.0
 10
383.0
 20
1.677108812310535
 30
0.0
 10
383.0339392463563
 20
1.67335922614225
 30
0.0
 10
383.0971939113743
 20
1.666370891323564
 30
0.0
 10
383.1847276622392
 20
1.645963191539965
 30
0.0
 10
383.257694257709
 20
1.623274405207105
 30
0.0
 10
383.357550066767
 20
1.584810274889686
 30
0.0
 10
383.4798697602827
 20
1.521446406522624
 30
0.0
 10
383.6290277441717
 20
1.410949551313413
 30
0.0
 10
383.7603471652387
 20
1.275563247252531
 30
0.0
 10
383.8641912203249
 20
1.121599670206509
 30
0.0
 10
383.9339602525648
 20
0.9703343492302313
 30
0.0
 10
383.9786921462359
 20
0.826911793799609
 30
0.0
 10
383.9908047861107
 20
0.728551649153697
 30
0.0
 10
383.9967266981693
 20
0.680463029935352
 30
0.0
  0
SPLINE
  5
EB
330
1F
100
AcDbEntity
  8
0
  6
Continuous
 62
     7
370
    15
100
AcDbSpline
210
0.0
220
0.0
230
1.0
 70
     8
 71
     3
 72
     9
 73
     5
 74
     0
 42
0.000000001
 43
0.00000001
 40
0.0
 40
0.0
 40
0.0
 40
0.0
 40
0.5000024786100247
 40
1.0
 40
1.0
 40
1.0
 40
1.0
 10
384.0
 20
0.5993592314883361
 30
0.0
 10
383.9998636151283
 20
0.6128931120652492
 30
0.0
 10
383.9995908467366
 20
0.6399607390388806
 30
0.0
 10
383.9976814112032
 20
0.666962310920699
 30
0.0
 10
383.9967266981693
 20
0.680463029935241
 30
0.0
  0
SPLINE
  5
EC
330
1F
100
AcDbEntity
  8
0
  6
Continuous
 62
     7
370
    15
100
AcDbSpline
210
0.0
220
0.0
230
1.0
 70
     8
 71
     3
 72
    18
 73
    14
 74
     0
 42
0.000000001
 43
0.00000001
 40
0.0
 40
0.0
 40
0.0
 40
0.0
 40
0.0787106300394181
 40
0.1466978516045045
 40
0.2039620632987448
 40
0.250504800683824
 40
0.3841681507568144
 40
0.4997808171071479
 40
0.632210407809097
 40
0.7496532911249265
 40
0.8376005706780206
 40
0.9206023498943486
 40
1.0
 40
1.0
 40
1.0
 40
1.0
 10
-417.0000000000001
 20
1.67710881231059
 30
0.0
 10
-416.9660607533596
 20
1.673359226106279
 30
0.0
 10
-416.902806087951
 20
1.666370891235842
 30
0.0
 10
-416.8152723368207
 20
1.645963191299178
 30
0.0
 10
-416.7423057416387
 20
1.623274404975825
 30
0.0
 10
-416.6424499334585
 20
1.584810274935421
 30
0.0
 10
-416.5201302401724
 20
1.521446406795718
 30
0.0
 10
-416.3709722566932
 20
1.410949552066026
 30
0.0
 10
-416.2396528351283
 20
1.275563247708514
 30
0.0
 10
-416.1358087801396
 20
1.121599671080782
 30
0.0
 10
-416.0660397477677
 20
0.9703343499859185
 30
0.0
 10
-416.0213078538999
 20
0.8269117945458038
 30
0.0
 10
-416.0091952139497
 20
0.7285516495268429
 30
0.0
 10
-416.0032733018309
 20
0.680463029935241
 30
0.0
  0
SPLINE
  5
ED
330
1F
100
AcDbEntity
  8
0
  6
Continuous
 62
     7
370
    15
100
AcDbSpline
210
0.0
220
0.0
230
1.0
 70
     8
 71
     3
 72
     9
 73
     5
 74
     0
 42
0.000000001
 43
0.00000001
 40
0.0
 40
0.0
 40
0.0
 40
0.0
 40
0.5000024786143142
 40
1.0
 40
1.0
 40
1.0
 40
1.0
 10
-416.0000000000001
 20
0.5993592314883778
 30
0.0
 10
-416.000136384872
 20
0.6128931120654019
 30
0.0
 10
-416.0004091532636
 20
0.6399607390390055
 30
0.0
 10
-416.0023185887968
 20
0.6669623109208239
 30
0.0
 10
-416.0032733018308
 20
0.680463029935241
 30
0.0
  0
SPLINE
  5
EF
330
1F
100
AcDbEntity
  8
0
  6
Continuous
 62
     7
370
    15
100
AcDbSpline
210
0.0
220
0.0
230
1.0
 70
     8
 71
     3
 72
    18
 73
    14
 74
     0
 42
0.000000001
 43
0.00000001
 40
0.0
 40
0.0
 40
0.0
 40
0.0
 40
0.0787121012293929
 40
0.1466998389833341
 40
0.2039634874464649
 40
0.2505047990787167
 40
0.3841748245449507
 40
0.4997808128738518
 40
0.6322222982993766
 40
0.7496532867401154
 40
0.8376160263498977
 40
0.9206172351597435
 40
1.0
 40
1.0
 40
1.0
 40
1.0
 10
417.0000000000001
 20
1.677108812310618
 30
0.0
 10
416.9661185805478
 20
1.673354354606013
 30
0.0
 10
416.9029720160352
 20
1.666356976412146
 30
0.0
 10
416.8156348988147
 20
1.645932892409628
 30
0.0
 10
416.7424739654007
 20
1.623260074015469
 30
0.0
 10
416.6422963954594
 20
1.584821098376876
 30
0.0
 10
416.5203863939759
 20
1.521423740420885
 30
0.0
 10
416.3708493757142
 20
1.41095305173472
 30
0.0
 10
416.2398477563423
 20
1.275542179069944
 30
0.0
 10
416.1357286553405
 20
1.121592301714956
 30
0.0
 10
416.066141640175
 20
0.9703090873011133
 30
0.0
 10
416.0213998512885
 20
0.8268857109289818
 30
0.0
 10
416.0092250535976
 20
0.7285401034201472
 30
0.0
 10
416.0032733018308
 20
0.680463029935241
 30
0.0
  0
SPLINE
  5
F1
330
1F
100
AcDbEntity
  8
0
  6
Continuous
 62
     7
370
    15
100
AcDbSpline
210
0.0
220
0.0
230
1.0
 70
     8
 71
     3
 72
     9
 73
     5
 74
     0
 42
0.000000001
 43
0.00000001
 40
0.0
 40
0.0
 40
0.0
 40
0.0
 40
0.4999975213856858
 40
1.0
 40
1.0
 40
1.0
 40
1.0
 10
416.0032733018308
 20
0.680463029935241
 30
0.0
 10
416.0023185887968
 20
0.6669623109208239
 30
0.0
 10
416.0004091532635
 20
0.6399607390390055
 30
0.0
 10
416.000136384872
 20
0.6128931120654019
 30
0.0
 10
416.0000000000001
 20
0.5993592314883778
 30
0.0
  0
SPLINE
  5
F3
330
1F
100
AcDbEntity
  8
0
  6
Continuous
 62
     7
370
    15
100
AcDbSpline
210
0.0
220
0.0
230
1.0
 70
     8
 71
     3
 72
     9
 73
     5
 74
     0
 42
0.000000001
 43
0.00000001
 40
0.0
 40
0.0
 40
0.0
 40
0.0
 40
0.4999975213899753
 40
1.0
 40
1.0
 40
1.0
 40
1.0
 10
-383.9967266981693
 20
0.680463029935241
 30
0.0
 10
-383.9976814112032
 20
0.666962310920699
 30
0.0
 10
-383.9995908467366
 20
0.6399607390388806
 30
0.0
 10
-383.9998636151282
 20
0.6128931120652492
 30
0.0
 10
-384.0
 20
0.5993592314883361
 30
0.0
  0
SPLINE
  5
F4
330
1F
100
AcDbEntity
  8
0
  6
Continuous
 62
     7
370
    15
100
AcDbSpline
210
0.0
220
0.0
230
1.0
 70
     8
 71
     3
 72
    18
 73
    14
 74
     0
 42
0.000000001
 43
0.00000001
 40
0.0
 40
0.0
 40
0.0
 40
0.0
 40
0.078712103279243
 40
0.146699841716915
 40
0.2039634894971645
 40
0.2505047990793173
 40
0.3841748253573944
 40
0.4997808128765699
 40
0.6322222987663577
 40
0.7496532867425243
 40
0.837616026437393
 40
0.9206172352479187
 40
0.9999999999999999
 40
0.9999999999999999
 40
0.9999999999999999
 40
0.9999999999999999
 10
-383.0
 20
1.677108812310618
 30
0.0
 10
-383.0338814203151
 20
1.673354354480926
 30
0.0
 10
-383.0970279859675
 20
1.66635697610578
 30
0.0
 10
-383.1843651040521
 20
1.645932891611086
 30
0.0
 10
-383.2575260366136
 20
1.62326007327019
 30
0.0
 10
-383.3577036057351
 20
1.584821097809996
 30
0.0
 10
-383.4796136063657
 20
1.521423740222329
 30
0.0
 10
-383.6291506247697
 20
1.410953051309227
 30
0.0
 10
-383.7601522437508
 20
1.275542178840655
 30
0.0
 10
-383.8642713448315
 20
1.121592301447538
 30
0.0
 10
-383.9338583598031
 20
0.9703090871849979
 30
0.0
 10
-383.9786001487126
 20
0.8268857108203326
 30
0.0
 10
-383.9907749464052
 20
0.7285401033659961
 30
0.0
 10
-383.9967266981693
 20
0.680463029935241
 30
0.0
  0
SPLINE
  5
F7
330
1F
100
AcDbEntity
  8
0
  6
Continuous
 62
     7
370
    15
100
AcDbSpline
210
0.0
220
0.0
230
1.0
 70
    24
 71
     3
 72
     8
 73
     4
 74
     0
 42
0.000000001
 43
0.00000001
 40
0.0
 40
0.0
 40
0.0
 40
0.0
 40
0.9999999999999999
 40
0.9999999999999999
 40
0.9999999999999999
 40
0.9999999999999999
 10
-851.0000000000001
 20
95.00000000000006
 30
0.0
 10
-851.0000000000001
 20
95.00000000000006
 30
0.0
 10
-851.0000000000001
 20
94.3172000940881
 30
0.0
 10
-851.0000000000001
 20
92.95390043305548
 30
0.0
  0
SPLINE
  5
FE
330
1F
100
AcDbEntity
  8
0
  6
Continuous
 62
     7
370
    15
100
AcDbSpline
210
0.0
220
0.0
230
1.0
 70
    24
 71
     3
 72
     8
 73
     4
 74
     0
 42
0.000000001
 43
0.00000001
 40
0.0
 40
0.0
 40
0.0
 40
0.0
 40
0.9999999999999999
 40
0.9999999999999999
 40
0.9999999999999999
 40
0.9999999999999999
 10
851.0000000000001
 20
92.95390043305548
 30
0.0
 10
851.0000000000001
 20
94.3172000940881
 30
0.0
 10
851.0000000000001
 20
95.00000000000011
 30
0.0
 10
851.0000000000001
 20
95.00000000000011
 30
0.0
  0
LINE
  5
101
330
1F
100
AcDbEntity
  8
0
  6
Continuous
 62
     7
370
    15
100
AcDbLine
 10
-855.0
 20
0.0
 30
0.0
 11
855.0
 21
0.0
 31
0.0
  0
LINE
  5
102
330
1F
100
AcDbEntity
  8
0
  6
Continuous
 62
     7
370
    15
100
AcDbLine
 10
819.0
 20
127.0
 30
0.0
 11
-819.0
 21
127.0
 31
0.0
  0
LINE
  5
103
330
1F
100
AcDbEntity
  8
0
  6
Continuous
 62
     7
370
    15
100
AcDbLine
 10
730.0
 20
5.0
 30
0.0
 11
690.0
 21
5.0
 31
0.0
  0
LINE
  5
104
330
1F
100
AcDbEntity
  8
0
  6
Continuous
 62
     7
370
    15
100
AcDbLine
 10
690.0
 20
53.0
 30
0.0
 11
690.0
 21
5.0
 31
0.0
  0
LINE
  5
105
330
1F
100
AcDbEntity
  8
0
  6
Continuous
 62
     7
370
    15
100
AcDbLine
 10
730.0
 20
53.0
 30
0.0
 11
730.0
 21
5.0
 31
0.0
  0
LINE
  5
106
330
1F
100
AcDbEntity
  8
0
  6
Continuous
 62
     7
370
    15
100
AcDbLine
 10
20.0
 20
5.0
 30
0.0
 11
-20.0
 21
5.0
 31
0.0
  0
LINE
  5
107
330
1F
100
AcDbEntity
  8
0
  6
Continuous
 62
     7
370
    15
100
AcDbLine
 10
20.0
 20
5.0
 30
0.0
 11
20.0
 21
53.0
 31
0.0
  0
LINE
  5
108
330
1F
100
AcDbEntity
  8
0
  6
Continuous
 62
     7
370
    15
100
AcDbLine
 10
-20.0
 20
5.0
 30
0.0
 11
-20.0
 21
53.0
 31
0.0
  0
LINE
  5
109
330
1F
100
AcDbEntity
  8
0
  6
Continuous
 62
     7
370
    15
100
AcDbLine
 10
866.0
 20
53.0
 30
0.0
 11
-866.0
 21
53.0
 31
0.0
  0
LINE
  5
10A
330
1F
100
AcDbEntity
  8
0
  6
Continuous
 62
     7
370
    15
100
AcDbLine
 10
-846.0
 20
70.0
 30
0.0
 11
-846.0
 21
53.0
 31
0.0
  0
LINE
  5
10B
330
1F
100
AcDbEntity
  8
0
  6
Continuous
 62
     7
370
    15
100
AcDbLine
 10
866.0
 20
70.0
 30
0.0
 11
-866.0
 21
70.0
 31
0.0
  0
LINE
  5
10C
330
1F
100
AcDbEntity
  8
0
  6
Continuous
 62
     7
370
    15
100
AcDbLine
 10
846.0
 20
53.0
 30
0.0
 11
846.0
 21
70.0
 31
0.0
  0
LINE
  5
10D
330
1F
100
AcDbEntity
  8
0
  6
Continuous
 62
     7
370
    15
100
AcDbLine
 10
-866.0
 20
70.0
 30
0.0
 11
-866.0
 21
53.0
 31
0.0
  0
LINE
  5
10E
330
1F
100
AcDbEntity
  8
0
  6
Continuous
 62
     7
370
    15
100
AcDbLine
 10
-335.0
 20
5.0
 30
0.0
 11
-375.0
 21
5.0
 31
0.0
  0
LINE
  5
10F
330
1F
100
AcDbEntity
  8
0
  6
Continuous
 62
     7
370
    15
100
AcDbLine
 10
-375.0
 20
5.0
 30
0.0
 11
-375.0
 21
53.0
 31
0.0
  0
LINE
  5
110
330
1F
100
AcDbEntity
  8
0
  6
Continuous
 62
     7
370
    15
100
AcDbLine
 10
-335.0
 20
5.0
 30
0.0
 11
-335.0
 21
53.0
 31
0.0
  0
LINE
  5
111
330
1F
100
AcDbEntity
  8
0
  6
Continuous
 62
     7
370
    15
100
AcDbLine
 10
-690.0
 20
5.0
 30
0.0
 11
-730.0
 21
5.0
 31
0.0
  0
LINE
  5
112
330
1F
100
AcDbEntity
  8
0
  6
Continuous
 62
     7
370
    15
100
AcDbLine
 10
-690.0
 20
5.0
 30
0.0
 11
-690.0
 21
53.0
 31
0.0
  0
LINE
  5
113
330
1F
100
AcDbEntity
  8
0
  6
Continuous
 62
     7
370
    15
100
AcDbLine
 10
-730.0
 20
5.0
 30
0.0
 11
-730.0
 21
53.0
 31
0.0
  0
LINE
  5
114
330
1F
100
AcDbEntity
  8
0
  6
Continuous
 62
     7
370
    15
100
AcDbLine
 10
866.0
 20
53.0
 30
0.0
 11
866.0
 21
70.0
 31
0.0
  0
LINE
  5
115
330
1F
100
AcDbEntity
  8
0
  6
Continuous
 62
     7
370
    15
100
AcDbLine
 10
375.0
 20
5.0
 30
0.0
 11
335.0
 21
5.0
 31
0.0
  0
LINE
  5
116
330
1F
100
AcDbEntity
  8
0
  6
Continuous
 62
     7
370
    15
100
AcDbLine
 10
335.0
 20
53.0
 30
0.0
 11
335.0
 21
5.0
 31
0.0
  0
LINE
  5
117
330
1F
100
AcDbEntity
  8
0
  6
Continuous
 62
     7
370
    15
100
AcDbLine
 10
375.0
 20
53.0
 30
0.0
 11
375.0
 21
5.0
 31
0.0
  0
LINE
  5
118
330
1F
100
AcDbEntity
  8
0
  6
Continuous
 62
     7
370
    15
100
AcDbLine
 10
335.0
 20
50.0
 30
0.0
 11
20.0
 21
50.0
 31
0.0
  0
LINE
  5
119
330
1F
100
AcDbEntity
  8
0
  6
Continuous
 62
     7
370
    15
100
AcDbLine
 10
690.0
 20
50.0
 30
0.0
 11
375.0
 21
50.0
 31
0.0
  0
LINE
  5
11A
330
1F
100
AcDbEntity
  8
0
  6
Continuous
 62
     7
370
    15
100
AcDbLine
 10
-375.0
 20
50.0
 30
0.0
 11
-690.0
 21
50.0
 31
0.0
  0
LINE
  5
11B
330
1F
100
AcDbEntity
  8
0
  6
Continuous
 62
     7
370
    15
100
AcDbLine
 10
825.0
 20
0.4434099087
 30
0.0
 11
825.0
 21
53.0
 31
0.0
  0
LINE
  5
11C
330
1F
100
AcDbEntity
  8
0
  6
Continuous
 62
     7
370
    15
100
AcDbLine
 10
825.0
 20
22.630099095
 30
0.0
 11
730.0
 21
22.630099095
 31
0.0
  0
LINE
  5
11D
330
1F
100
AcDbEntity
  8
0
  6
Continuous
 62
     7
370
    15
100
AcDbLine
 10
854.9574031023
 20
50.0
 30
0.0
 11
730.0
 21
50.0
 31
0.0
  0
LINE
  5
11E
330
1F
100
AcDbEntity
  8
0
  6
Continuous
 62
     7
370
    15
100
AcDbLine
 10
854.9574031023
 20
53.0
 30
0.0
 11
854.9574031023
 21
50.0
 31
0.0
  0
LINE
  5
11F
330
1F
100
AcDbEntity
  8
0
  6
Continuous
 62
     7
370
    15
100
AcDbLine
 10
-20.0
 20
50.0
 30
0.0
 11
-335.0
 21
50.0
 31
0.0
  0
LINE
  5
120
330
1F
100
AcDbEntity
  8
0
  6
Continuous
 62
     7
370
    15
100
AcDbLine
 10
-730.0
 20
22.630099095
 30
0.0
 11
-825.0
 21
22.630099095
 31
0.0
  0
LINE
  5
121
330
1F
100
AcDbEntity
  8
0
  6
Continuous
 62
     7
370
    15
100
AcDbLine
 10
-825.0
 20
53.0
 30
0.0
 11
-825.0
 21
0.4434099087
 31
0.0
  0
LINE
  5
122
330
1F
100
AcDbEntity
  8
0
  6
Continuous
 62
     7
370
    15
100
AcDbLine
 10
-730.0
 20
50.0
 30
0.0
 11
-854.9574031023
 21
50.0
 31
0.0
  0
LINE
  5
123
330
1F
100
AcDbEntity
  8
0
  6
Continuous
 62
     7
370
    15
100
AcDbLine
 10
-854.9574031023
 20
50.0
 30
0.0
 11
-854.9574031023
 21
53.0
 31
0.0
  0
LINE
  5
124
330
1F
100
AcDbEntity
  8
0
  6
Continuous
 62
     7
370
    15
100
AcDbLine
 10
-20.0
 20
22.630099095
 30
0.0
 11
-335.0
 21
22.630099095
 31
0.0
  0
LINE
  5
125
330
1F
100
AcDbEntity
  8
0
  6
Continuous
 62
     7
370
    15
100
AcDbLine
 10
690.0
 20
22.630099095
 30
0.0
 11
375.0
 21
22.630099095
 31
0.0
  0
LINE
  5
126
330
1F
100
AcDbEntity
  8
0
  6
Continuous
 62
     7
370
    15
100
AcDbLine
 10
335.0
 20
22.630099095
 30
0.0
 11
20.0
 21
22.630099095
 31
0.0
  0
LINE
  5
127
330
1F
100
AcDbEntity
  8
0
  6
Continuous
 62
     7
370
    15
100
AcDbLine
 10
-375.0
 20
22.630099095
 30
0.0
 11
-690.0
 21
22.630099095
 31
0.0
  0
LINE
  5
128
330
1F
100
AcDbEntity
  8
0
  6
Continuous
 62
     7
370
    15
100
AcDbLine
 10
825.0
 20
1.8653185071
 30
0.0
 11
-825.0
 21
1.8653185071
 31
0.0
  0
LINE
  5
129
330
1F
100
AcDbEntity
  8
0
  6
Continuous
 62
     7
370
    15
100
AcDbLine
 10
-531.0
 20
12.5
 30
0.0
 11
-381.0
 21
12.5
 31
0.0
  0
LINE
  5
12A
330
1F
100
AcDbEntity
  8
0
  6
Continuous
 62
     7
370
    15
100
AcDbLine
 10
-531.0
 20
7.5
 30
0.0
 11
-531.0
 21
12.5
 31
0.0
  0
LINE
  5
12B
330
1F
100
AcDbEntity
  8
0
  6
Continuous
 62
     7
370
    15
100
AcDbLine
 10
-381.0
 20
7.5
 30
0.0
 11
-531.0
 21
7.5
 31
0.0
  0
LINE
  5
12C
330
1F
100
AcDbEntity
  8
0
  6
Continuous
 62
     7
370
    15
100
AcDbLine
 10
-381.0
 20
12.5
 30
0.0
 11
-381.0
 21
7.5
 31
0.0
  0
LINE
  5
12D
330
1F
100
AcDbEntity
  8
0
  6
Continuous
 62
     7
370
    15
100
AcDbLine
 10
531.0
 20
7.5
 30
0.0
 11
381.0
 21
7.5
 31
0.0
  0
LINE
  5
12E
330
1F
100
AcDbEntity
  8
0
  6
Continuous
 62
     7
370
    15
100
AcDbLine
 10
531.0
 20
12.5
 30
0.0
 11
531.0
 21
7.5
 31
0.0
  0
LINE
  5
12F
330
1F
100
AcDbEntity
  8
0
  6
Continuous
 62
     7
370
    15
100
AcDbLine
 10
381.0
 20
12.5
 30
0.0
 11
531.0
 21
12.5
 31
0.0
  0
LINE
  5
130
330
1F
100
AcDbEntity
  8
0
  6
Continuous
 62
     7
370
    15
100
AcDbLine
 10
381.0
 20
7.5
 30
0.0
 11
381.0
 21
12.5
 31
0.0
  0
LINE
  5
131
330
1F
100
AcDbEntity
  8
0
  6
Continuous
 62
     7
370
    15
100
AcDbLine
 10
819.0
 20
70.0
 30
0.0
 11
819.0
 21
127.0
 31
0.0
  0
LINE
  5
132
330
1F
100
AcDbEntity
  8
0
  6
Continuous
 62
     7
370
    15
100
AcDbLine
 10
-819.0
 20
70.0
 30
0.0
 11
-819.0
 21
127.0
 31
0.0
  0
LINE
  5
133
330
1F
100
AcDbEntity
  8
0
  6
Continuous
 62
     7
370
    15
100
AcDbLine
 10
819.0
 20
100.6852480905
 30
0.0
 11
-819.0
 21
100.6852480905
 31
0.0
  0
LINE
  5
134
330
1F
100
AcDbEntity
  8
0
  6
Continuous
 62
     7
370
    15
100
AcDbLine
 10
819.0
 20
124.709590037
 30
0.0
 11
-819.0
 21
124.709590037
 31
0.0
  0
LINE
  5
135
330
1F
100
AcDbEntity
  8
0
  6
Continuous
 62
     7
370
    15
100
AcDbLine
 10
855.0
 20
0.0
 30
0.0
 11
855.0
 21
53.0
 31
0.0
  0
LINE
  5
136
330
1F
100
AcDbEntity
  8
0
  6
Continuous
 62
     7
370
    15
100
AcDbLine
 10
853.9860477223
 20
25.4212394133
 30
0.0
 11
855.0
 21
25.4212394133
 31
0.0
  0
LINE
  5
137
330
1F
100
AcDbEntity
  8
0
  6
Continuous
 62
     7
370
    15
100
AcDbLine
 10
-855.0
 20
53.0
 30
0.0
 11
-855.0
 21
0.0
 31
0.0
  0
LINE
  5
138
330
1F
100
AcDbEntity
  8
0
  6
Continuous
 62
     7
370
    15
100
AcDbLine
 10
-853.9860477223
 20
25.4212394133
 30
0.0
 11
-855.0
 21
25.4212394133
 31
0.0
  0
LINE
  5
139
330
1F
100
AcDbEntity
  8
0
  6
Continuous
 62
     7
370
    15
100
AcDbLine
 10
-825.0
 20
0.4434099087
 30
0.0
 11
-855.0
 21
0.4434099087
 31
0.0
  0
LINE
  5
13A
330
1F
100
AcDbEntity
  8
0
  6
Continuous
 62
     7
370
    15
100
AcDbLine
 10
855.0
 20
0.4434099087
 30
0.0
 11
825.0
 21
0.4434099087
 31
0.0
  0
LINE
  5
13B
330
1F
100
AcDbEntity
  8
0
  6
Continuous
 62
     7
370
    15
100
AcDbLine
 10
-383.0
 20
1.6771088123
 30
0.0
 11
-383.0
 21
0.998003992
 31
0.0
  0
LINE
  5
13C
330
1F
100
AcDbEntity
  8
0
  6
Continuous
 62
     7
370
    15
100
AcDbLine
 10
-417.0
 20
1.6771088123
 30
0.0
 11
-383.0
 21
1.6771088123
 31
0.0
  0
LINE
  5
13D
330
1F
100
AcDbEntity
  8
0
  6
Continuous
 62
     7
370
    15
100
AcDbLine
 10
-417.0
 20
0.998003992
 30
0.0
 11
-417.0
 21
1.6771088123
 31
0.0
  0
LINE
  5
13E
330
1F
100
AcDbEntity
  8
0
  6
Continuous
 62
     7
370
    15
100
AcDbLine
 10
383.0
 20
1.6771088123
 30
0.0
 11
417.0
 21
1.6771088123
 31
0.0
  0
LINE
  5
13F
330
1F
100
AcDbEntity
  8
0
  6
Continuous
 62
     7
370
    15
100
AcDbLine
 10
383.0
 20
0.998003992
 30
0.0
 11
383.0
 21
1.6771088123
 31
0.0
  0
LINE
  5
140
330
1F
100
AcDbEntity
  8
0
  6
Continuous
 62
     7
370
    15
100
AcDbLine
 10
417.0
 20
1.6771088123
 30
0.0
 11
417.0
 21
0.998003992
 31
0.0
  0
LINE
  5
141
330
1F
100
AcDbEntity
  8
0
  6
Continuous
 62
     7
370
    15
100
AcDbLine
 10
416.0032733018
 20
0.6804630299
 30
0.0
 11
383.9967266982
 21
0.6804630299
 31
0.0
  0
LINE
  5
142
330
1F
100
AcDbEntity
  8
0
  6
Continuous
 62
     7
370
    15
100
AcDbLine
 10
-383.9967266982
 20
0.6804630299
 30
0.0
 11
-416.0032733018
 21
0.6804630299
 31
0.0
  0
LINE
  5
143
330
1F
100
AcDbEntity
  8
0
  6
Continuous
 62
     7
370
    15
100
AcDbLine
 10
416.0
 20
0.0
 30
0.0
 11
416.0
 21
0.5993592315
 31
0.0
  0
LINE
  5
144
330
1F
100
AcDbEntity
  8
0
  6
Continuous
 62
     7
370
    15
100
AcDbLine
 10
384.0
 20
0.0
 30
0.0
 11
384.0
 21
0.5993592315
 31
0.0
  0
LINE
  5
145
330
1F
100
AcDbEntity
  8
0
  6
Continuous
 62
     7
370
    15
100
AcDbLine
 10
-384.0
 20
0.0
 30
0.0
 11
-384.0
 21
0.5993592315
 31
0.0
  0
LINE
  5
146
330
1F
100
AcDbEntity
  8
0
  6
Continuous
 62
     7
370
    15
100
AcDbLine
 10
-416.0
 20
0.0
 30
0.0
 11
-416.0
 21
0.5993592315
 31
0.0
  0
ARC
  5
147
330
1F
100
AcDbEntity
  8
0
  6
Continuous
 62
     7
370
    15
100
AcDbCircle
 10
-819.0
 20
95.0
 30
0.0
 40
32.00000000000026
100
AcDbArc
 50
90.0
 51
180.0
  0
ARC
  5
148
330
1F
100
AcDbEntity
  8
0
  6
Continuous
 62
     7
370
    15
100
AcDbCircle
 10
819.0
 20
95.0
 30
0.0
 40
32.0
100
AcDbArc
 50
0.0
 51
90.0
  0
ARC
  5
149
330
1F
100
AcDbEntity
  8
0
  6
Continuous
 62
     7
370
    15
100
AcDbCircle
 10
-825.0151463207
 20
31.902512195
 30
0.0
 40
30.03719750674695
100
AcDbArc
 50
217.137500585
 51
270.0288915198
  0
ARC
  5
14A
330
1F
100
AcDbEntity
  8
0
  6
Continuous
 62
     7
370
    15
100
AcDbCircle
 10
-825.0
 20
31.7533993967
 30
0.0
 40
29.66963452109747
100
AcDbArc
 50
182.7381238114
 51
192.3229802855
  0
ARC
  5
14B
330
1F
100
AcDbEntity
  8
0
  6
Continuous
 62
     7
370
    15
100
AcDbCircle
 10
825.0
 20
31.7533993967
 30
0.0
 40
29.66963452107722
100
AcDbArc
 50
347.6770197145
 51
357.2618761886
  0
ARC
  5
14C
330
1F
100
AcDbEntity
  8
0
  6
Continuous
 62
     7
370
    15
100
AcDbCircle
 10
825.0151463207
 20
31.902512195
 30
0.0
 40
30.0371975067457
100
AcDbArc
 50
269.9711084802
 51
322.862499415
  0
ARC
  5
14D
330
1F
100
AcDbEntity
  8
0
  6
Continuous
 62
     7
370
    15
100
AcDbCircle
 10
819.1301764831
 20
92.8398282313
 30
0.0
 40
31.87002766654122
100
AcDbArc
 50
0.2050788829
 51
90.2340312939
  0
ARC
  5
14E
330
1F
100
AcDbEntity
  8
0
  6
Continuous
 62
     7
370
    15
100
AcDbCircle
 10
-819.1132012947
 20
92.8227224454
 30
0.0
 40
31.88706852844335
100
AcDbArc
 50
89.7965955999
 51
179.7642942232
  0
ARC
  5
14F
330
1F
100
AcDbEntity
  8
0
  6
Continuous
 62
     7
370
    15
100
AcDbCircle
 10
383.000997008
 20
-0.000999002
 30
0.0
 40
0.999003491520371
100
AcDbArc
 50
0.0572957033
 51
90.0571813406
  0
ARC
  5
150
330
1F
100
AcDbEntity
  8
0
  6
Continuous
 62
     7
370
    15
100
AcDbCircle
 10
-416.999002992
 20
-0.000999002
 30
0.0
 40
0.9990034915202575
100
AcDbArc
 50
0.0572957033
 51
90.0571813406
  0
ARC
  5
151
330
1F
100
AcDbEntity
  8
0
  6
Continuous
 62
     7
370
    15
100
AcDbCircle
 10
416.999002992
 20
-0.000999002
 30
0.0
 40
0.9990034915248056
100
AcDbArc
 50
89.9428186596
 51
179.9427041826
  0
ARC
  5
152
330
1F
100
AcDbEntity
  8
0
  6
Continuous
 62
     7
370
    15
100
AcDbCircle
 10
-383.000997008
 20
-0.000999002
 30
0.0
 40
0.999003491520314
100
AcDbArc
 50
89.9428186594
 51
179.9427042967
  0
ENDSEC
  0
SECTION
  2
OBJECTS
  0
DICTIONARY
  5
C
330
0
100
AcDbDictionary
281
     1
  3
ACAD_GROUP
350
D
  3
ACAD_LAYOUT
350
1A
  3
ACAD_MLINESTYLE
350
17
  3
ACAD_PLOTSETTINGS
350
19
  3
ACAD_PLOTSTYLENAME
350
E
  3
ACAD_SCALELIST
350
47
  0
DICTIONARY
  5
D
102
{ACAD_REACTORS
330
C
102
}
330
C
100
AcDbDictionary
281
     1
  0
DICTIONARY
  5
1A
102
{ACAD_REACTORS
330
C
102
}
330
C
100
AcDbDictionary
281
     1
  3
Layout1
350
1E
  3
Layout2
350
26
  3
Model
350
22
  0
DICTIONARY
  5
17
102
{ACAD_REACTORS
330
C
102
}
330
C
100
AcDbDictionary
281
     1
  3
Standard
350
18
  0
DICTIONARY
  5
19
102
{ACAD_REACTORS
330
C
102
}
330
C
100
AcDbDictionary
281
     1
  0
ACDBDICTIONARYWDFLT
  5
E
102
{ACAD_REACTORS
330
C
102
}
330
C
100
AcDbDictionary
281
     1
  3
Normal
350
F
100
AcDbDictionaryWithDefault
340
F
  0
DICTIONARY
  5
47
102
{ACAD_REACTORS
330
C
102
}
330
C
100
AcDbDictionary
281
     1
  3
A0
350
48
  3
A1
350
49
  3
A2
350
4A
  3
A3
350
4B
  3
A4
350
4C
  3
A5
350
4D
  3
A6
350
4E
  3
A7
350
4F
  3
A8
350
50
  3
A9
350
51
  3
B0
350
52
  3
B1
350
53
  3
B2
350
54
  3
B3
350
55
  3
B4
350
56
  3
B5
350
57
  3
B6
350
58
  3
B7
350
59
  3
B8
350
5A
  3
B9
350
5B
  3
C0
350
5C
  3
C1
350
5D
  3
C2
350
5E
  3
C3
350
5F
  3
C4
350
60
  3
C5
350
61
  3
C6
350
62
  3
C7
350
63
  3
C8
350
64
  3
C9
350
65
  3
D0
350
66
  3
D1
350
67
  3
D2
350
68
  0
LAYOUT
  5
1E
102
{ACAD_REACTORS
330
1A
102
}
330
1A
100
AcDbPlotSettings
  1

  2
none_device
  4

  6

 40
0.0
 41
0.0
 42
0.0
 43
0.0
 44
0.0
 45
0.0
 46
0.0
 47
0.0
 48
0.0
 49
0.0
140
0.0
141
0.0
142
1.0
143
1.0
 70
   688
 72
     1
 73
     0
 74
     5
  7

 75
    16
147
1.0
148
0.0
149
0.0
100
AcDbLayout
  1
Layout1
 70
     1
 71
     1
 10
0.0
 20
0.0
 11
420.0
 21
297.0
 12
0.0
 22
0.0
 32
0.0
 14
1.0000000000E+20
 24
1.0000000000E+20
 34
1.0000000000E+20
 15
-1.0000000000E+20
 25
-1.0000000000E+20
 35
-1.0000000000E+20
146
0.0
 13
0.0
 23
0.0
 33
0.0
 16
1.0
 26
0.0
 36
0.0
 17
0.0
 27
1.0
 37
0.0
 76
     0
330
1B
  0
LAYOUT
  5
26
102
{ACAD_REACTORS
330
1A
102
}
330
1A
100
AcDbPlotSettings
  1

  2
none_device
  4

  6

 40
0.0
 41
0.0
 42
0.0
 43
0.0
 44
0.0
 45
0.0
 46
0.0
 47
0.0
 48
0.0
 49
0.0
140
0.0
141
0.0
142
1.0
143
1.0
 70
   688
 72
     1
 73
     0
 74
     5
  7

 75
    16
147
1.0
148
0.0
149
0.0
100
AcDbLayout
  1
Layout2
 70
     1
 71
     2
 10
0.0
 20
0.0
 11
0.0
 21
0.0
 12
0.0
 22
0.0
 32
0.0
 14
0.0
 24
0.0
 34
0.0
 15
0.0
 25
0.0
 35
0.0
146
0.0
 13
0.0
 23
0.0
 33
0.0
 16
1.0
 26
0.0
 36
0.0
 17
0.0
 27
1.0
 37
0.0
 76
     0
330
23
  0
LAYOUT
  5
22
102
{ACAD_REACTORS
330
1A
102
}
330
1A
100
AcDbPlotSettings
  1

  2
none_device
  4
ANSI_A_(11.00_x_8.50_Inches)
  6

 40
6.35
 41
19.05
 42
6.35000508
 43
19.05000254
 44
279.4
 45
215.9
 46
133.34999746
 47
78.7588434182
 48
0.0
 49
0.0
140
0.0
141
0.0
142
0.0062875289
143
1.0
 70
  1696
 72
     0
 73
     0
 74
     0
  7

 75
     0
147
0.0179189148
148
-1300.4909072572
149
0.0
100
AcDbLayout
  1
Model
 70
     1
 71
     0
 10
0.0
 20
0.0
 11
420.0
 21
297.0
 12
0.0
 22
0.0
 32
0.0
 14
-866.0
 24
0.0
 34
0.0
 15
866.0
 25
127.0
 35
0.0
146
0.0
 13
0.0
 23
0.0
 33
0.0
 16
1.0
 26
0.0
 36
0.0
 17
0.0
 27
1.0
 37
0.0
 76
     0
330
1F
331
29
  0
MLINESTYLE
  5
18
102
{ACAD_REACTORS
330
17
102
}
330
17
100
AcDbMlineStyle
  2
Standard
 70
     0
  3

 62
   256
 51
90.0
 52
90.0
 71
     2
 49
0.5
 62
   256
  6
BYLAYER
 49
-0.5
 62
   256
  6
BYLAYER
  0
ACDBPLACEHOLDER
  5
F
102
{ACAD_REACTORS
330
E
102
}
330
E
  0
SCALE
  5
48
102
{ACAD_REACTORS
330
47
102
}
330
47
100
AcDbScale
 70
     0
300
1:1
140
1.0
141
1.0
290
     1
  0
SCALE
  5
49
102
{ACAD_REACTORS
330
47
102
}
330
47
100
AcDbScale
 70
     0
300
1:2
140
1.0
141
2.0
290
     0
  0
SCALE
  5
4A
102
{ACAD_REACTORS
330
47
102
}
330
47
100
AcDbScale
 70
     0
300
1:4
140
1.0
141
4.0
290
     0
  0
SCALE
  5
4B
102
{ACAD_REACTORS
330
47
102
}
330
47
100
AcDbScale
 70
     0
300
1:5
140
1.0
141
5.0
290
     0
  0
SCALE
  5
4C
102
{ACAD_REACTORS
330
47
102
}
330
47
100
AcDbScale
 70
     0
300
1:8
140
1.0
141
8.0
290
     0
  0
SCALE
  5
4D
102
{ACAD_REACTORS
330
47
102
}
330
47
100
AcDbScale
 70
     0
300
1:10
140
1.0
141
10.0
290
     0
  0
SCALE
  5
4E
102
{ACAD_REACTORS
330
47
102
}
330
47
100
AcDbScale
 70
     0
300
1:16
140
1.0
141
16.0
290
     0
  0
SCALE
  5
4F
102
{ACAD_REACTORS
330
47
102
}
330
47
100
AcDbScale
 70
     0
300
1:20
140
1.0
141
20.0
290
     0
  0
SCALE
  5
50
102
{ACAD_REACTORS
330
47
102
}
330
47
100
AcDbScale
 70
     0
300
1:30
140
1.0
141
30.0
290
     0
  0
SCALE
  5
51
102
{ACAD_REACTORS
330
47
102
}
330
47
100
AcDbScale
 70
     0
300
1:40
140
1.0
141
40.0
290
     0
  0
SCALE
  5
52
102
{ACAD_REACTORS
330
47
102
}
330
47
100
AcDbScale
 70
     0
300
1:50
140
1.0
141
50.0
290
     0
  0
SCALE
  5
53
102
{ACAD_REACTORS
330
47
102
}
330
47
100
AcDbScale
 70
     0
300
1:100
140
1.0
141
100.0
290
     0
  0
SCALE
  5
54
102
{ACAD_REACTORS
330
47
102
}
330
47
100
AcDbScale
 70
     0
300
2:1
140
2.0
141
1.0
290
     0
  0
SCALE
  5
55
102
{ACAD_REACTORS
330
47
102
}
330
47
100
AcDbScale
 70
     0
300
4:1
140
4.0
141
1.0
290
     0
  0
SCALE
  5
56
102
{ACAD_REACTORS
330
47
102
}
330
47
100
AcDbScale
 70
     0
300
8:1
140
8.0
141
1.0
290
     0
  0
SCALE
  5
57
102
{ACAD_REACTORS
330
47
102
}
330
47
100
AcDbScale
 70
     0
300
10:1
140
10.0
141
1.0
290
     0
  0
SCALE
  5
58
102
{ACAD_REACTORS
330
47
102
}
330
47
100
AcDbScale
 70
     0
300
100:1
140
100.0
141
1.0
290
     0
  0
SCALE
  5
59
102
{ACAD_REACTORS
330
47
102
}
330
47
100
AcDbScale
 70
     0
300
1/128" = 1'-0"
140
0.0078125
141
12.0
290
     0
  0
SCALE
  5
5A
102
{ACAD_REACTORS
330
47
102
}
330
47
100
AcDbScale
 70
     0
300
1/64" = 1'-0"
140
0.015625
141
12.0
290
     0
  0
SCALE
  5
5B
102
{ACAD_REACTORS
330
47
102
}
330
47
100
AcDbScale
 70
     0
300
1/32" = 1'-0"
140
0.03125
141
12.0
290
     0
  0
SCALE
  5
5C
102
{ACAD_REACTORS
330
47
102
}
330
47
100
AcDbScale
 70
     0
300
1/16" = 1'-0"
140
0.0625
141
12.0
290
     0
  0
SCALE
  5
5D
102
{ACAD_REACTORS
330
47
102
}
330
47
100
AcDbScale
 70
     0
300
3/32" = 1'-0"
140
0.09375
141
12.0
290
     0
  0
SCALE
  5
5E
102
{ACAD_REACTORS
330
47
102
}
330
47
100
AcDbScale
 70
     0
300
1/8" = 1'-0"
140
0.125
141
12.0
290
     0
  0
SCALE
  5
5F
102
{ACAD_REACTORS
330
47
102
}
330
47
100
AcDbScale
 70
     0
300
3/16" = 1'-0"
140
0.1875
141
12.0
290
     0
  0
SCALE
  5
60
102
{ACAD_REACTORS
330
47
102
}
330
47
100
AcDbScale
 70
     0
300
1/4" = 1'-0"
140
0.25
141
12.0
290
     0
  0
SCALE
  5
61
102
{ACAD_REACTORS
330
47
102
}
330
47
100
AcDbScale
 70
     0
300
3/8" = 1'-0"
140
0.375
141
12.0
290
     0
  0
SCALE
  5
62
102
{ACAD_REACTORS
330
47
102
}
330
47
100
AcDbScale
 70
     0
300
1/2" = 1'-0"
140
0.5
141
12.0
290
     0
  0
SCALE
  5
63
102
{ACAD_REACTORS
330
47
102
}
330
47
100
AcDbScale
 70
     0
300
3/4" = 1'-0"
140
0.75
141
12.0
290
     0
  0
SCALE
  5
64
102
{ACAD_REACTORS
330
47
102
}
330
47
100
AcDbScale
 70
     0
300
1" = 1'-0"
140
1.0
141
12.0
290
     0
  0
SCALE
  5
65
102
{ACAD_REACTORS
330
47
102
}
330
47
100
AcDbScale
 70
     0
300
1-1/2" = 1'-0"
140
1.5
141
12.0
290
     0
  0
SCALE
  5
66
102
{ACAD_REACTORS
330
47
102
}
330
47
100
AcDbScale
 70
     0
300
3" = 1'-0"
140
3.0
141
12.0
290
     0
  0
SCALE
  5
67
102
{ACAD_REACTORS
330
47
102
}
330
47
100
AcDbScale
 70
     0
300
6" = 1'-0"
140
6.0
141
12.0
290
     0
  0
SCALE
  5
68
102
{ACAD_REACTORS
330
47
102
}
330
47
100
AcDbScale
 70
     0
300
1'-0" = 1'-0"
140
12.0
141
12.0
290
     0
  0
ENDSEC
  0
EOF
